  0
SECTION
  2
HEADER
  9
$ACADVER
  1
AC1015
  9
$ACADMAINTVER
 70
        6
  9
$DWGCODEPAGE
  3
ANSI_1252
  9
$INSBASE
 10
0.0
 20
0.0
 30
0.0
  9
$EXTMIN
 10
1.000000000E+20
 20
1.000000000E+20
 30
1.000000000E+20
  9
$EXTMAX
 10
-1.000000000E+20
 20
-1.000000000E+20
 30
-1.000000000E+20
  9
$LIMMIN
 10
0.0
 20
0.0
  9
$LIMMAX
 10
0.0
 20
0.0
  9
$ORTHOMODE
 70
        0
  9
$REGENMODE
 70
        1
  9
$FILLMODE
 70
        1
  9
$QTEXTMODE
 70
        0
  9
$MIRRTEXT
 70
        1
  9
$LTSCALE
 40
1.0
  9
$ATTMODE
 70
        1
  9
$TEXTSIZE
 40
0.2
  9
$TRACEWID
 40
0.05
  9
$TEXTSTYLE
  7
Standard
  9
$CLAYER
  8
1
  9
$CELTYPE
  6
Continuous
  9
$CECOLOR
 62
      256
  9
$CELTSCALE
 40
1.0
  9
$DISPSILH
 70
        0
  9
$DIMSCALE
 40
1.0
  9
$DIMASZ
 40
0.18
  9
$DIMEXO
 40
0.0625
  9
$DIMDLI
 40
0.38
  9
$DIMRND
 40
0.0
  9
$DIMDLE
 40
0.0
  9
$DIMEXE
 40
0.18
  9
$DIMTP
 40
0.0
  9
$DIMTM
 40
0.0
  9
$DIMTXT
 40
0.18
  9
$DIMCEN
 40
0.09
  9
$DIMTSZ
 40
0.0
  9
$DIMTOL
 70
        0
  9
$DIMLIM
 70
        0
  9
$DIMTIH
 70
        1
  9
$DIMTOH
 70
        1
  9
$DIMSE1
 70
        0
  9
$DIMSE2
 70
        0
  9
$DIMTAD
 70
        0
  9
$DIMZIN
 70
        0
  9
$DIMBLK
  1

  9
$DIMASO
 70
        1
  9
$DIMSHO
 70
        1
  9
$DIMPOST
  1

  9
$DIMAPOST
  1

  9
$DIMALT
 70
        0
  9
$DIMALTD
 70
        2
  9
$DIMALTF
 40
25.4
  9
$DIMLFAC
 40
1.0
  9
$DIMTOFL
 70
        0
  9
$DIMTVP
 40
0.0
  9
$DIMTIX
 70
        0
  9
$DIMSOXD
 70
        0
  9
$DIMSAH
 70
        0
  9
$DIMBLK1
  1

  9
$DIMBLK2
  1

  9
$DIMSTYLE
  2
Standard
  9
$DIMCLRD
 70
        0
  9
$DIMCLRE
 70
        0
  9
$DIMCLRT
 70
        0
  9
$DIMTFAC
 40
1.0
  9
$DIMGAP
 40
0.09
  9
$DIMJUST
 70
        0
  9
$DIMSD1
 70
        0
  9
$DIMSD2
 70
        0
  9
$DIMTOLJ
 70
        1
  9
$DIMTZIN
 70
        0
  9
$DIMALTZ
 70
        0
  9
$DIMALTTZ
 70
        0
  9
$DIMUPT
 70
        0
  9
$DIMDEC
 70
        4
  9
$DIMTDEC
 70
        4
  9
$DIMALTU
 70
        2
  9
$DIMALTTD
 70
        2
  9
$DIMTXSTY
  7
Standard
  9
$DIMAUNIT
 70
        0
  9
$DIMADEC
 70
        0
  9
$DIMALTRND
 40
0.0
  9
$DIMAZIN
 70
        0
  9
$DIMDSEP
 70
        0
  9
$DIMATFIT
 70
        3
  9
$DIMFRAC
 70
        0
  9
$DIMLDRBLK
  1

  9
$DIMLUNIT
 70
        2
  9
$DIMLWD
 70
        0
  9
$DIMLWE
 70
        0
  9
$DIMTMOVE
 70
        0
  9
$LUNITS
 70
        2
  9
$LUPREC
 70
        4
  9
$SKETCHINC
 40
0.1
  9
$FILLETRAD
 40
0.0
  9
$AUNITS
 70
        0
  9
$AUPREC
 70
        0
  9
$MENU
  1
acad
  9
$ELEVATION
 40
0.0
  9
$PELEVATION
 40
0.0
  9
$THICKNESS
 40
0.0
  9
$LIMCHECK
 70
        0
  9
$CHAMFERA
 40
0.0
  9
$CHAMFERB
 40
0.0
  9
$CHAMFERC
 40
0.0
  9
$CHAMFERD
 40
0.0
  9
$SKPOLY
 70
        0
  9
$TDCREATE
 40
0.000000000
  9
$TDUCREATE
 40
0.000000000
  9
$TDUPDATE
 40
0.000000000
  9
$TDUUPDATE
 40
0.000000000
  9
$TDINDWG
 40
0.0000000000
  9
$TDUSRTIMER
 40
0.0000000000
  9
$USRTIMER
 70
        1
  9
$ANGBASE
 50
0.0
  9
$ANGDIR
 70
        0
  9
$PDMODE
 70
        2
  9
$PDSIZE
 40
-1.0
  9
$PLINEWID
 40
0.0
  9
$SPLFRAME
 70
        0
  9
$SPLINETYPE
 70
        6
  9
$SPLINESEGS
 70
        8
  9
$HANDSEED
  5
5DE
  9
$SURFTAB1
 70
        6
  9
$SURFTAB2
 70
        6
  9
$SURFTYPE
 70
        6
  9
$SURFU
 70
        6
  9
$SURFV
 70
        6
  9
$UCSBASE
  2

  9
$UCSNAME
  2

  9
$UCSORG
 10
0.0
 20
0.0
 30
0.0
  9
$UCSXDIR
 10
1.0
 20
0.0
 30
0.0
  9
$UCSYDIR
 10
0.0
 20
1.0
 30
0.0
  9
$UCSORTHOREF
  2

  9
$UCSORTHOVIEW
 70
        0
  9
$UCSORGTOP
 10
0.0
 20
0.0
 30
0.0
  9
$UCSORGBOTTOM
 10
0.0
 20
0.0
 30
0.0
  9
$UCSORGLEFT
 10
0.0
 20
0.0
 30
0.0
  9
$UCSORGRIGHT
 10
0.0
 20
0.0
 30
0.0
  9
$UCSORGFRONT
 10
0.0
 20
0.0
 30
0.0
  9
$UCSORGBACK
 10
0.0
 20
0.0
 30
0.0
  9
$PUCSBASE
  2

  9
$PUCSNAME
  2

  9
$PUCSORG
 10
0.0
 20
0.0
 30
0.0
  9
$PUCSXDIR
 10
1.0
 20
0.0
 30
0.0
  9
$PUCSYDIR
 10
0.0
 20
1.0
 30
0.0
  9
$PUCSORTHOREF
  2

  9
$PUCSORTHOVIEW
 70
        0
  9
$PUCSORGTOP
 10
0.0
 20
0.0
 30
0.0
  9
$PUCSORGBOTTOM
 10
0.0
 20
0.0
 30
0.0
  9
$PUCSORGLEFT
 10
0.0
 20
0.0
 30
0.0
  9
$PUCSORGRIGHT
 10
0.0
 20
0.0
 30
0.0
  9
$PUCSORGFRONT
 10
0.0
 20
0.0
 30
0.0
  9
$PUCSORGBACK
 10
0.0
 20
0.0
 30
0.0
  9
$USERI1
 70
        0
  9
$USERI2
 70
        0
  9
$USERI3
 70
        0
  9
$USERI4
 70
        0
  9
$USERI5
 70
        0
  9
$USERR1
 40
0.0
  9
$USERR2
 40
0.0
  9
$USERR3
 40
0.0
  9
$USERR4
 40
0.0
  9
$USERR5
 40
0.0
  9
$WORLDVIEW
 70
        1
  9
$SHADEDGE
 70
        3
  9
$SHADEDIF
 70
       70
  9
$TILEMODE
 70
        1
  9
$MAXACTVP
 70
       16
  9
$PINSBASE
 10
0.0
 20
0.0
 30
0.0
  9
$PLIMCHECK
 70
        0
  9
$PEXTMIN
 10
1.000000000E+20
 20
1.000000000E+20
 30
1.000000000E+20
  9
$PEXTMAX
 10
-1.000000000E+20
 20
-1.000000000E+20
 30
-1.000000000E+20
  9
$PLIMMIN
 10
0.0
 20
0.0
  9
$PLIMMAX
 10
12.0
 20
9.0
  9
$UNITMODE
 70
        0
  9
$VISRETAIN
 70
        0
  9
$PLINEGEN
 70
        1
  9
$PSLTSCALE
 70
        0
  9
$TREEDEPTH
 70
     3020
  9
$CMLSTYLE
  2
Standard
  9
$CMLJUST
 70
        0
  9
$CMLSCALE
 40
1.0
  9
$PROXYGRAPHICS
 70
        0
  9
$MEASUREMENT
 70
        1
  9
$CELWEIGHT
370
        0
  9
$ENDCAPS
280
        0
  9
$JOINSTYLE
280
        0
  9
$LWDISPLAY
290
        0
  9
$INSUNITS
 70
        0
  9
$HYPERLINKBASE
  1

  9
$XEDIT
290
        1
  9
$CEPSNTYPE
380
        0
  9
$PSTYLEMODE
290
        1
  9
$FINGERPRINTGUID
  2

  9
$VERSIONGUID
  2

  9
$EXTNAMES
290
        1
  9
$PSVPSCALE
 40
0.0
  0
ENDSEC
  0
SECTION
  2
CLASSES
  0
CLASS
  1
LWPOLYLINE
  2
AcDbPolyline
  3
AutoCAD 2000
 90
        0
280
        0
281
        1
  0
CLASS
  1
IMAGE
  2
AcDbRasterImage
  3
ISM
 90
    32895
280
        0
281
        1
  0
CLASS
  1
OLE2FRAME
  2
AcDbOle2Frame
  3
AutoCAD 2000
 90
    32768
280
        0
281
        1
  0
CLASS
  1
HATCH
  2
AcDbHatch
  3
AutoCAD 2000
 90
    32768
280
        0
281
        1
  0
CLASS
  1
DICTIONARYVAR
  2
AcDbDictionaryVar
  3
AutoCAD 2000
 90
    32768
280
        0
281
        0
  0
CLASS
  1
RASTERVARIABLES
  2
AcDbRasterVariables
  3
ISM
 90
    32768
280
        0
281
        0
  0
CLASS
  1
IMAGEDEF
  2
AcDbRasterImageDef
  3
ISM
 90
    32768
280
        0
281
        0
  0
CLASS
  1
IMAGEDEF_REACTOR
  2
AcDbRasterImageDefReactor
  3
ISM
 90
    32769
280
        0
281
        0
  0
CLASS
  1
IDBUFFER
  2
AcDbIdBuffer
  3
AutoCAD 2000
 90
    32768
280
        0
281
        0
  0
CLASS
  1
SPATIAL_FILTER
  2
AcDbSpatialFilter
  3
AutoCAD 2000
 90
    32768
280
        0
281
        0
  0
CLASS
  1
XRECORD
  2
AcDbXrecord
  3
AutoCAD 2000
 90
    32768
280
        0
281
        0
  0
CLASS
  1
SORTENTSTABLE
  2
AcDbSortentsTable
  3
AutoCAD 2000
 90
    32768
280
        0
281
        0
  0
CLASS
  1
LAYER_INDEX
  2
AcDbLayerIndex
  3
AutoCAD 2000
 90
    32768
280
        0
281
        0
  0
CLASS
  1
SPATIAL_INDEX
  2
AcDbSpatialIndex
  3
AutoCAD 2000
 90
    32768
280
        0
281
        0
  0
CLASS
  1
OBJECT_PTR
  2
CAseDLPNTableRecord
  3
"ASE-LPNTableRecord"
 90
    32769
280
        0
281
        0
  0
CLASS
  1
LAYOUT
  2
AcDbLayout
  3
AutoCAD 2000
 90
        0
280
        0
281
        0
  0
CLASS
  1
PLOTSETTINGS
  2
AcDbPlotSettings
  3
AutoCAD 2000
 90
    32768
280
        0
281
        0
  0
CLASS
  1
ACDBDICTIONARYWDFLT
  2
AcDbDictionaryWithDefault
  3
AutoCAD 2000
 90
        0
280
        0
281
        0
  0
CLASS
  1
ACDBPLACEHOLDER
  2
AcDbPlaceHolder
  3
AutoCAD 2000
 90
        0
280
        0
281
        0
  0
ENDSEC
  0
SECTION
  2
TABLES
  0
TABLE
  2
VPORT
  5
7
100
AcDbSymbolTable
 70
        1
  0
VPORT
  5
15
100
AcDbSymbolTableRecord
100
AcDbViewportTableRecord
  2
*ACTIVE
 70
        0
 10
0.0
 20
0.0
 11
1.0
 21
1.0
 12
6.591288
 22
4.579184
 13
0.0
 23
0.0
 14
1.0
 24
1.0
 15
0.0
 25
0.0
 16
0.0
 26
0.0
 36
1.0
 17
0.0
 27
0.0
 37
0.0
 40
9.158369
 41
0.688564
 42
50.0
 43
0.0
 44
0.0
 50
0.0
 51
0.0
 71
        0
 72
      100
 73
        1
 74
        1
 75
        0
 76
        0
 77
        0
 78
        0
281
        0
 65
        0
110
0.0
120
0.0
130
0.0
111
1.0
121
0.0
131
0.0
112
0.0
122
1.0
132
0.0
345
0
346
0
 79
        0
146
0.0
  0
ENDTAB
  0
TABLE
  2
LTYPE
  5
4
100
AcDbSymbolTable
 70
        6
  0
LTYPE
  5
11
100
AcDbSymbolTableRecord
100
AcDbLinetypeTableRecord
  2
ByBlock
 70
       64
  3

 72
       65
 73
        0
 40
0.0
  0
LTYPE
  5
12
100
AcDbSymbolTableRecord
100
AcDbLinetypeTableRecord
  2
ByLayer
 70
       64
  3

 72
       65
 73
        0
 40
0.0
  0
LTYPE
  5
13
100
AcDbSymbolTableRecord
100
AcDbLinetypeTableRecord
  2
Continuous
 70
       64
  3
Solid line
 72
       65
 73
        0
 40
0.0
  0
LTYPE
  5
55
100
AcDbSymbolTableRecord
100
AcDbLinetypeTableRecord
  2
SOLID
 70
       64
  3
Solid line
 72
       65
 73
        0
 40
0.0
  0
LTYPE
  5
6B
100
AcDbSymbolTableRecord
100
AcDbLinetypeTableRecord
  2
L_DASH
 70
       64
  3
L_dash ____  ____  ____  ____  ____  ____
 72
       65
 73
        2
 40
8.0
 49
6.0
 74
        0
 49
-2.0
 74
        0
  0
LTYPE
  5
194
100
AcDbSymbolTableRecord
100
AcDbLinetypeTableRecord
  2
CENTER
 70
       64
  3
Center ____ _ ____ _ ____ _ ____ _ ____ _ ____
 72
       65
 73
        4
 40
8.0
 49
4.5
 74
        0
 49
-1.5
 74
        0
 49
0.5
 74
        0
 49
-1.5
 74
        0
  0
ENDTAB
  0
TABLE
  2
LAYER
  5
2
100
AcDbSymbolTable
 70
       51
  0
LAYER
  5
14
100
AcDbSymbolTableRecord
100
AcDbLayerTableRecord
  2
0
 70
        0
 62
        7
  6
Continuous
290
        1
370
       -3
390
1D
  0
LAYER
  5
23
100
AcDbSymbolTableRecord
100
AcDbLayerTableRecord
  2
1
 70
        0
 62
        7
  6
Continuous
290
        1
370
       -3
390
1F
  0
LAYER
  5
24
100
AcDbSymbolTableRecord
100
AcDbLayerTableRecord
  2
2
 70
        0
 62
        7
  6
Continuous
290
        1
370
       -3
390
1F
  0
LAYER
  5
25
100
AcDbSymbolTableRecord
100
AcDbLayerTableRecord
  2
3
 70
        0
 62
        7
  6
Continuous
290
        1
370
       -3
390
1F
  0
LAYER
  5
26
100
AcDbSymbolTableRecord
100
AcDbLayerTableRecord
  2
4
 70
        0
 62
        7
  6
Continuous
290
        1
370
       -3
390
1F
  0
LAYER
  5
27
100
AcDbSymbolTableRecord
100
AcDbLayerTableRecord
  2
5
 70
        0
 62
        7
  6
Continuous
290
        1
370
       -3
390
1F
  0
LAYER
  5
28
100
AcDbSymbolTableRecord
100
AcDbLayerTableRecord
  2
6
 70
        0
 62
        7
  6
Continuous
290
        1
370
       -3
390
1F
  0
LAYER
  5
29
100
AcDbSymbolTableRecord
100
AcDbLayerTableRecord
  2
7
 70
        0
 62
        7
  6
Continuous
290
        1
370
       -3
390
1F
  0
LAYER
  5
2A
100
AcDbSymbolTableRecord
100
AcDbLayerTableRecord
  2
8
 70
        0
 62
        7
  6
Continuous
290
        1
370
       -3
390
1F
  0
LAYER
  5
2B
100
AcDbSymbolTableRecord
100
AcDbLayerTableRecord
  2
9
 70
        0
 62
        7
  6
Continuous
290
        1
370
       -3
390
1F
  0
LAYER
  5
2C
100
AcDbSymbolTableRecord
100
AcDbLayerTableRecord
  2
10
 70
        0
 62
        7
  6
Continuous
290
        1
370
       -3
390
1F
  0
LAYER
  5
2D
100
AcDbSymbolTableRecord
100
AcDbLayerTableRecord
  2
GEKO
 70
        0
 62
        7
  6
Continuous
290
        1
370
       -3
390
1F
  0
LAYER
  5
2E
100
AcDbSymbolTableRecord
100
AcDbLayerTableRecord
  2
LMDTUV
 70
        0
 62
        7
  6
Continuous
290
        1
370
       -3
390
1F
  0
LAYER
  5
2F
100
AcDbSymbolTableRecord
100
AcDbLayerTableRecord
  2
13
 70
        0
 62
        7
  6
Continuous
290
        1
370
       -3
390
1F
  0
LAYER
  5
30
100
AcDbSymbolTableRecord
100
AcDbLayerTableRecord
  2
14
 70
        0
 62
        7
  6
Continuous
290
        1
370
       -3
390
1F
  0
LAYER
  5
31
100
AcDbSymbolTableRecord
100
AcDbLayerTableRecord
  2
15
 70
        0
 62
        7
  6
Continuous
290
        1
370
       -3
390
1F
  0
LAYER
  5
32
100
AcDbSymbolTableRecord
100
AcDbLayerTableRecord
  2
16
 70
        0
 62
        7
  6
Continuous
290
        1
370
       -3
390
1F
  0
LAYER
  5
33
100
AcDbSymbolTableRecord
100
AcDbLayerTableRecord
  2
17
 70
        0
 62
        7
  6
Continuous
290
        1
370
       -3
390
1F
  0
LAYER
  5
34
100
AcDbSymbolTableRecord
100
AcDbLayerTableRecord
  2
18
 70
        0
 62
        7
  6
Continuous
290
        1
370
       -3
390
1F
  0
LAYER
  5
35
100
AcDbSymbolTableRecord
100
AcDbLayerTableRecord
  2
19
 70
        0
 62
        7
  6
Continuous
290
        1
370
       -3
390
1F
  0
LAYER
  5
36
100
AcDbSymbolTableRecord
100
AcDbLayerTableRecord
  2
20
 70
        0
 62
        7
  6
Continuous
290
        1
370
       -3
390
1F
  0
LAYER
  5
37
100
AcDbSymbolTableRecord
100
AcDbLayerTableRecord
  2
21
 70
        0
 62
        7
  6
Continuous
290
        1
370
       -3
390
1F
  0
LAYER
  5
38
100
AcDbSymbolTableRecord
100
AcDbLayerTableRecord
  2
22
 70
        0
 62
        7
  6
Continuous
290
        1
370
       -3
390
1F
  0
LAYER
  5
39
100
AcDbSymbolTableRecord
100
AcDbLayerTableRecord
  2
23
 70
        0
 62
        7
  6
Continuous
290
        1
370
       -3
390
1F
  0
LAYER
  5
3A
100
AcDbSymbolTableRecord
100
AcDbLayerTableRecord
  2
24
 70
        0
 62
        7
  6
Continuous
290
        1
370
       -3
390
1F
  0
LAYER
  5
3B
100
AcDbSymbolTableRecord
100
AcDbLayerTableRecord
  2
25
 70
        0
 62
        7
  6
Continuous
290
        1
370
       -3
390
1F
  0
LAYER
  5
3C
100
AcDbSymbolTableRecord
100
AcDbLayerTableRecord
  2
26
 70
        0
 62
        7
  6
Continuous
290
        1
370
       -3
390
1F
  0
LAYER
  5
3D
100
AcDbSymbolTableRecord
100
AcDbLayerTableRecord
  2
27
 70
        0
 62
        7
  6
Continuous
290
        1
370
       -3
390
1F
  0
LAYER
  5
3E
100
AcDbSymbolTableRecord
100
AcDbLayerTableRecord
  2
28
 70
        0
 62
        7
  6
Continuous
290
        1
370
       -3
390
1F
  0
LAYER
  5
3F
100
AcDbSymbolTableRecord
100
AcDbLayerTableRecord
  2
29
 70
        0
 62
        7
  6
Continuous
290
        1
370
       -3
390
1F
  0
LAYER
  5
40
100
AcDbSymbolTableRecord
100
AcDbLayerTableRecord
  2
30
 70
        0
 62
        7
  6
Continuous
290
        1
370
       -3
390
1F
  0
LAYER
  5
41
100
AcDbSymbolTableRecord
100
AcDbLayerTableRecord
  2
31
 70
        0
 62
        7
  6
Continuous
290
        1
370
       -3
390
1F
  0
LAYER
  5
42
100
AcDbSymbolTableRecord
100
AcDbLayerTableRecord
  2
32
 70
        0
 62
        7
  6
Continuous
290
        1
370
       -3
390
1F
  0
LAYER
  5
43
100
AcDbSymbolTableRecord
100
AcDbLayerTableRecord
  2
33
 70
        0
 62
        7
  6
Continuous
290
        1
370
       -3
390
1F
  0
LAYER
  5
44
100
AcDbSymbolTableRecord
100
AcDbLayerTableRecord
  2
34
 70
        0
 62
        7
  6
Continuous
290
        1
370
       -3
390
1F
  0
LAYER
  5
45
100
AcDbSymbolTableRecord
100
AcDbLayerTableRecord
  2
35
 70
        0
 62
        7
  6
Continuous
290
        1
370
       -3
390
1F
  0
LAYER
  5
46
100
AcDbSymbolTableRecord
100
AcDbLayerTableRecord
  2
36
 70
        0
 62
        7
  6
Continuous
290
        1
370
       -3
390
1F
  0
LAYER
  5
47
100
AcDbSymbolTableRecord
100
AcDbLayerTableRecord
  2
37
 70
        0
 62
        7
  6
Continuous
290
        1
370
       -3
390
1F
  0
LAYER
  5
48
100
AcDbSymbolTableRecord
100
AcDbLayerTableRecord
  2
38
 70
        0
 62
        7
  6
Continuous
290
        1
370
       -3
390
1F
  0
LAYER
  5
49
100
AcDbSymbolTableRecord
100
AcDbLayerTableRecord
  2
39
 70
        0
 62
        7
  6
Continuous
290
        1
370
       -3
390
1F
  0
LAYER
  5
4A
100
AcDbSymbolTableRecord
100
AcDbLayerTableRecord
  2
40
 70
        0
 62
        7
  6
Continuous
290
        1
370
       -3
390
1F
  0
LAYER
  5
4B
100
AcDbSymbolTableRecord
100
AcDbLayerTableRecord
  2
41
 70
        0
 62
        7
  6
Continuous
290
        1
370
       -3
390
1F
  0
LAYER
  5
4C
100
AcDbSymbolTableRecord
100
AcDbLayerTableRecord
  2
42
 70
        0
 62
        7
  6
Continuous
290
        1
370
       -3
390
1F
  0
LAYER
  5
4D
100
AcDbSymbolTableRecord
100
AcDbLayerTableRecord
  2
43
 70
        0
 62
        7
  6
Continuous
290
        1
370
       -3
390
1F
  0
LAYER
  5
4E
100
AcDbSymbolTableRecord
100
AcDbLayerTableRecord
  2
44
 70
        0
 62
        7
  6
Continuous
290
        1
370
       -3
390
1F
  0
LAYER
  5
4F
100
AcDbSymbolTableRecord
100
AcDbLayerTableRecord
  2
45
 70
        0
 62
        7
  6
Continuous
290
        1
370
       -3
390
1F
  0
LAYER
  5
50
100
AcDbSymbolTableRecord
100
AcDbLayerTableRecord
  2
46
 70
        0
 62
        7
  6
Continuous
290
        1
370
       -3
390
1F
  0
LAYER
  5
51
100
AcDbSymbolTableRecord
100
AcDbLayerTableRecord
  2
47
 70
        0
 62
        7
  6
Continuous
290
        1
370
       -3
390
1F
  0
LAYER
  5
52
100
AcDbSymbolTableRecord
100
AcDbLayerTableRecord
  2
48
 70
        0
 62
        7
  6
Continuous
290
        1
370
       -3
390
1F
  0
LAYER
  5
53
100
AcDbSymbolTableRecord
100
AcDbLayerTableRecord
  2
49
 70
        0
 62
        7
  6
Continuous
290
        1
370
       -3
390
1F
  0
LAYER
  5
54
100
AcDbSymbolTableRecord
100
AcDbLayerTableRecord
  2
50
 70
        0
 62
        7
  6
Continuous
290
        1
370
       -3
390
1F
  0
ENDTAB
  0
TABLE
  2
STYLE
  5
3
100
AcDbSymbolTable
 70
        1
  0
STYLE
  5
17
100
AcDbSymbolTableRecord
100
AcDbTextStyleTableRecord
  2
Standard
 70
        0
 40
0.0
 41
1.0
 50
0.0
 71
        0
 42
0.0
  3
txt
  4

  0
ENDTAB
  0
TABLE
  2
VIEW
  5
5
100
AcDbSymbolTable
 70
        0
  0
ENDTAB
  0
TABLE
  2
UCS
  5
6
100
AcDbSymbolTable
 70
        0
  0
ENDTAB
  0
TABLE
  2
APPID
  5
8
100
AcDbSymbolTable
 70
        1
  0
APPID
  5
16
100
AcDbSymbolTableRecord
100
AcDbRegAppTableRecord
  2
ACAD
 70
        0
  0
ENDTAB
  0
TABLE
  2
DIMSTYLE
  5
9
100
AcDbSymbolTable
 70
        1
100
AcDbDimStyleTable
 71
        0
  0
DIMSTYLE
105
18
100
AcDbSymbolTableRecord
100
AcDbDimStyleTableRecord
  2
Standard
 70
        0
  3

  4

 40
1.0
 41
0.18
 42
0.0625
 43
0.38
 44
0.18
 45
0.0
 46
0.0
 47
0.0
 48
0.0
 71
        0
 72
        0
 73
        1
 74
        1
 75
        0
 76
        0
 77
        0
 78
        0
 79
        0
140
0.18
141
0.09
142
0.0
143
25.4
144
1.0
145
0.0
146
1.0
147
0.09
148
0.0
170
        0
171
        2
172
        0
173
        0
174
        0
175
        0
176
        0
177
        0
178
        0
179
        0
271
        4
272
        4
273
        2
274
        2
275
        0
276
        0
277
        2
278
       46
279
        0
280
        0
281
        0
282
        0
283
        1
284
        0
285
        0
286
        0
288
        0
340
17
341
0
342
0
343
0
344
0
371
       -2
372
       -2
  0
ENDTAB
  0
TABLE
  2
BLOCK_RECORD
  5
1
100
AcDbSymbolTable
 70
       26
  0
BLOCK_RECORD
  5
A
100
AcDbSymbolTableRecord
100
AcDbBlockTableRecord
  2
*MODEL_SPACE
340
20
  0
BLOCK_RECORD
  5
B
100
AcDbSymbolTableRecord
100
AcDbBlockTableRecord
  2
*PAPER_SPACE
340
21
  0
BLOCK_RECORD
  5
115
100
AcDbSymbolTableRecord
100
AcDbBlockTableRecord
  2
*D0
340
0
102
{BLKREFS
331
125
102
}
  0
BLOCK_RECORD
  5
173
100
AcDbSymbolTableRecord
100
AcDbBlockTableRecord
  2
*D1
340
0
102
{BLKREFS
331
181
102
}
  0
BLOCK_RECORD
  5
19C
100
AcDbSymbolTableRecord
100
AcDbBlockTableRecord
  2
*D2
340
0
102
{BLKREFS
331
1AA
102
}
  0
BLOCK_RECORD
  5
1B7
100
AcDbSymbolTableRecord
100
AcDbBlockTableRecord
  2
*D3
340
0
102
{BLKREFS
331
1C6
102
}
  0
BLOCK_RECORD
  5
2FF
100
AcDbSymbolTableRecord
100
AcDbBlockTableRecord
  2
*D4
340
0
102
{BLKREFS
331
30D
102
}
  0
BLOCK_RECORD
  5
310
100
AcDbSymbolTableRecord
100
AcDbBlockTableRecord
  2
*D5
340
0
102
{BLKREFS
331
31E
102
}
  0
BLOCK_RECORD
  5
321
100
AcDbSymbolTableRecord
100
AcDbBlockTableRecord
  2
*H6
340
0
102
{BLKREFS
331
329
102
}
  0
BLOCK_RECORD
  5
32A
100
AcDbSymbolTableRecord
100
AcDbBlockTableRecord
  2
*D7
340
0
102
{BLKREFS
331
338
102
}
  0
BLOCK_RECORD
  5
339
100
AcDbSymbolTableRecord
100
AcDbBlockTableRecord
  2
*D8
340
0
102
{BLKREFS
331
349
102
}
  0
BLOCK_RECORD
  5
34A
100
AcDbSymbolTableRecord
100
AcDbBlockTableRecord
  2
*D9
340
0
102
{BLKREFS
331
358
102
}
  0
BLOCK_RECORD
  5
359
100
AcDbSymbolTableRecord
100
AcDbBlockTableRecord
  2
*D10
340
0
102
{BLKREFS
331
369
102
}
  0
BLOCK_RECORD
  5
36A
100
AcDbSymbolTableRecord
100
AcDbBlockTableRecord
  2
*H11
340
0
102
{BLKREFS
331
372
102
}
  0
BLOCK_RECORD
  5
373
100
AcDbSymbolTableRecord
100
AcDbBlockTableRecord
  2
*H12
340
0
102
{BLKREFS
331
37B
102
}
  0
BLOCK_RECORD
  5
37C
100
AcDbSymbolTableRecord
100
AcDbBlockTableRecord
  2
*D13
340
0
102
{BLKREFS
331
38A
102
}
  0
BLOCK_RECORD
  5
38B
100
AcDbSymbolTableRecord
100
AcDbBlockTableRecord
  2
*D14
340
0
102
{BLKREFS
331
39C
102
}
  0
BLOCK_RECORD
  5
39D
100
AcDbSymbolTableRecord
100
AcDbBlockTableRecord
  2
*D15
340
0
102
{BLKREFS
331
3AB
102
}
  0
BLOCK_RECORD
  5
3B7
100
AcDbSymbolTableRecord
100
AcDbBlockTableRecord
  2
*D16
340
0
102
{BLKREFS
331
3C5
102
}
  0
BLOCK_RECORD
  5
3C6
100
AcDbSymbolTableRecord
100
AcDbBlockTableRecord
  2
*D17
340
0
102
{BLKREFS
331
3D4
102
}
  0
BLOCK_RECORD
  5
467
100
AcDbSymbolTableRecord
100
AcDbBlockTableRecord
  2
*D18
340
0
102
{BLKREFS
331
475
102
}
  0
BLOCK_RECORD
  5
57B
100
AcDbSymbolTableRecord
100
AcDbBlockTableRecord
  2
*D19
340
0
102
{BLKREFS
331
58B
102
}
  0
BLOCK_RECORD
  5
58C
100
AcDbSymbolTableRecord
100
AcDbBlockTableRecord
  2
*H20
340
0
102
{BLKREFS
331
594
102
}
  0
BLOCK_RECORD
  5
595
100
AcDbSymbolTableRecord
100
AcDbBlockTableRecord
  2
*H21
340
0
102
{BLKREFS
331
59D
102
}
  0
BLOCK_RECORD
  5
59E
100
AcDbSymbolTableRecord
100
AcDbBlockTableRecord
  2
*D22
340
0
102
{BLKREFS
331
5AC
102
}
  0
BLOCK_RECORD
  5
5AD
100
AcDbSymbolTableRecord
100
AcDbBlockTableRecord
  2
*D23
340
0
102
{BLKREFS
331
5BB
102
}
  0
BLOCK_RECORD
  5
5BC
100
AcDbSymbolTableRecord
100
AcDbBlockTableRecord
  2
*D24
340
0
102
{BLKREFS
331
5CC
102
}
  0
BLOCK_RECORD
  5
5CD
100
AcDbSymbolTableRecord
100
AcDbBlockTableRecord
  2
*D25
340
0
102
{BLKREFS
331
5DD
102
}
  0
ENDTAB
  0
ENDSEC
  0
SECTION
  2
BLOCKS
  0
BLOCK
  5
D
100
AcDbEntity
  8
0
100
AcDbBlockBegin
  2
*MODEL_SPACE
 70
        0
 10
0.0
 20
0.0
 30
0.0
  3
*MODEL_SPACE
  1

  0
ENDBLK
  5
E
100
AcDbEntity
  8
0
100
AcDbBlockEnd
  0
BLOCK
  5
F
100
AcDbEntity
 67
        1
  8
0
100
AcDbBlockBegin
  2
*PAPER_SPACE
 70
        0
 10
0.0
 20
0.0
 30
0.0
  3
*PAPER_SPACE
  1

  0
ENDBLK
  5
10
100
AcDbEntity
 67
        1
  8
0
100
AcDbBlockEnd
  0
BLOCK
  5
116
100
AcDbEntity
  8
0
100
AcDbBlockBegin
  2
*D0
 70
        0
 10
0.0
 20
0.0
 30
0.0
  3
*D0
  1

  0
LINE
  5
117
100
AcDbEntity
  8
GEKO
  6
SOLID
 62
        7
100
AcDbLine
 10
1147.594482422
 20
686.584228516
 30
0.0
 11
472.710205078
 21
686.584228516
 31
0.0
  0
LINE
  5
118
100
AcDbEntity
  8
GEKO
  6
SOLID
 62
        7
100
AcDbLine
 10
772.39465332
 20
733.601806641
 30
0.0
 11
472.710205078
 21
733.601806641
 31
0.0
  0
LINE
  5
119
100
AcDbEntity
  8
GEKO
  6
SOLID
 62
        7
100
AcDbLine
 10
473.710205078
 20
686.584228516
 30
0.0
 11
473.710205078
 21
641.584228516
 31
0.0
  0
LINE
  5
11A
100
AcDbEntity
  8
GEKO
  6
SOLID
 62
        7
100
AcDbLine
 10
473.710205078
 20
641.584228516
 30
0.0
 11
473.710205078
 21
778.601806641
 31
0.0
  0
LINE
  5
11B
100
AcDbEntity
  8
GEKO
  6
SOLID
 62
        7
100
AcDbLine
 10
478.709716797
 20
656.584228516
 30
0.0
 11
473.710205078
 21
686.584228516
 31
0.0
  0
LINE
  5
11C
100
AcDbEntity
  8
GEKO
  6
SOLID
 62
        7
100
AcDbLine
 10
473.710205078
 20
686.584228516
 30
0.0
 11
468.710693359
 21
656.584228516
 31
0.0
  0
LINE
  5
11D
100
AcDbEntity
  8
GEKO
  6
SOLID
 62
        7
100
AcDbLine
 10
468.710693359
 20
656.584228516
 30
0.0
 11
478.709716797
 21
656.584228516
 31
0.0
  0
LINE
  5
11E
100
AcDbEntity
  8
GEKO
  6
SOLID
 62
        7
100
AcDbLine
 10
473.710205078
 20
733.601806641
 30
0.0
 11
473.710205078
 21
778.601806641
 31
0.0
  0
LINE
  5
11F
100
AcDbEntity
  8
GEKO
  6
SOLID
 62
        7
100
AcDbLine
 10
473.710205078
 20
778.601806641
 30
0.0
 11
473.710205078
 21
641.584228516
 31
0.0
  0
LINE
  5
120
100
AcDbEntity
  8
GEKO
  6
SOLID
 62
        7
100
AcDbLine
 10
468.710693359
 20
763.601806641
 30
0.0
 11
473.710205078
 21
733.601806641
 31
0.0
  0
LINE
  5
121
100
AcDbEntity
  8
GEKO
  6
SOLID
 62
        7
100
AcDbLine
 10
473.710205078
 20
733.601806641
 30
0.0
 11
478.709716797
 21
763.601806641
 31
0.0
  0
LINE
  5
122
100
AcDbEntity
  8
GEKO
  6
SOLID
 62
        7
100
AcDbLine
 10
478.709716797
 20
763.601806641
 30
0.0
 11
468.710693359
 21
763.601806641
 31
0.0
  0
TEXT
  5
123
100
AcDbEntity
  8
GEKO
  6
SOLID
 62
        7
100
AcDbText
 10
458.710205078
 20
688.096130371
 30
0.0
 40
30.0
  1
50
 50
90.000002504
 72
        5
 11
458.710203155
 21
732.089977264
 31
0.0
100
AcDbText
  0
ENDBLK
  5
124
100
AcDbEntity
  8
0
100
AcDbBlockEnd
  0
BLOCK
  5
174
100
AcDbEntity
  8
0
100
AcDbBlockBegin
  2
*D1
 70
        0
 10
0.0
 20
0.0
 30
0.0
  3
*D1
  1

  0
LINE
  5
175
100
AcDbEntity
  8
GEKO
  6
SOLID
 62
        7
100
AcDbLine
 10
772.39465332
 20
733.601806641
 30
0.0
 11
472.710235596
 21
733.601806641
 31
0.0
  0
LINE
  5
176
100
AcDbEntity
  8
GEKO
  6
SOLID
 62
        7
100
AcDbLine
 10
1159.766113281
 20
1297.940185547
 30
0.0
 11
472.710235596
 21
1297.940185547
 31
0.0
  0
LINE
  5
177
100
AcDbEntity
  8
GEKO
  6
SOLID
 62
        7
100
AcDbLine
 10
473.710235596
 20
733.601806641
 30
0.0
 11
473.710235596
 21
1297.940185547
 31
0.0
  0
LINE
  5
178
100
AcDbEntity
  8
GEKO
  6
SOLID
 62
        7
100
AcDbLine
 10
468.710723877
 20
763.601806641
 30
0.0
 11
473.710235596
 21
733.601806641
 31
0.0
  0
LINE
  5
179
100
AcDbEntity
  8
GEKO
  6
SOLID
 62
        7
100
AcDbLine
 10
473.710235596
 20
733.601806641
 30
0.0
 11
478.709747314
 21
763.601806641
 31
0.0
  0
LINE
  5
17A
100
AcDbEntity
  8
GEKO
  6
SOLID
 62
        7
100
AcDbLine
 10
478.709747314
 20
763.601806641
 30
0.0
 11
468.710723877
 21
763.601806641
 31
0.0
  0
LINE
  5
17B
100
AcDbEntity
  8
GEKO
  6
SOLID
 62
        7
100
AcDbLine
 10
473.710235596
 20
1297.940185547
 30
0.0
 11
473.710235596
 21
733.601806641
 31
0.0
  0
LINE
  5
17C
100
AcDbEntity
  8
GEKO
  6
SOLID
 62
        7
100
AcDbLine
 10
478.709747314
 20
1267.940185547
 30
0.0
 11
473.710235596
 21
1297.940185547
 31
0.0
  0
LINE
  5
17D
100
AcDbEntity
  8
GEKO
  6
SOLID
 62
        7
100
AcDbLine
 10
473.710235596
 20
1297.940185547
 30
0.0
 11
468.710723877
 21
1267.940185547
 31
0.0
  0
LINE
  5
17E
100
AcDbEntity
  8
GEKO
  6
SOLID
 62
        7
100
AcDbLine
 10
468.710723877
 20
1267.940185547
 30
0.0
 11
478.709747314
 21
1267.940185547
 31
0.0
  0
TEXT
  5
17F
100
AcDbEntity
  8
GEKO
  6
SOLID
 62
        7
100
AcDbText
 10
458.710235596
 20
980.525390625
 30
0.0
 40
30.0
  1
565
 50
90.000002504
 72
        5
 11
458.710232514
 21
1051.016159058
 31
0.0
100
AcDbText
  0
ENDBLK
  5
180
100
AcDbEntity
  8
0
100
AcDbBlockEnd
  0
BLOCK
  5
19D
100
AcDbEntity
  8
0
100
AcDbBlockBegin
  2
*D2
 70
        0
 10
0.0
 20
0.0
 30
0.0
  3
*D2
  1

  0
LINE
  5
19E
100
AcDbEntity
  8
GEKO
  6
SOLID
 62
        7
100
AcDbLine
 10
838.895385742
 20
-91.143310547
 30
0.0
 11
552.473876953
 21
-91.143310547
 31
0.0
  0
LINE
  5
19F
100
AcDbEntity
  8
GEKO
  6
SOLID
 62
        7
100
AcDbLine
 10
566.778930664
 20
38.856689453
 30
0.0
 11
552.473876953
 21
38.856689453
 31
0.0
  0
LINE
  5
1A0
100
AcDbEntity
  8
GEKO
  6
SOLID
 62
        7
100
AcDbLine
 10
553.473876953
 20
-91.143310547
 30
0.0
 11
553.473876953
 21
38.856689453
 31
0.0
  0
LINE
  5
1A1
100
AcDbEntity
  8
GEKO
  6
SOLID
 62
        7
100
AcDbLine
 10
548.474365234
 20
-61.143310547
 30
0.0
 11
553.473876953
 21
-91.143310547
 31
0.0
  0
LINE
  5
1A2
100
AcDbEntity
  8
GEKO
  6
SOLID
 62
        7
100
AcDbLine
 10
553.473876953
 20
-91.143310547
 30
0.0
 11
558.473388672
 21
-61.143310547
 31
0.0
  0
LINE
  5
1A3
100
AcDbEntity
  8
GEKO
  6
SOLID
 62
        7
100
AcDbLine
 10
558.473388672
 20
-61.143310547
 30
0.0
 11
548.474365234
 21
-61.143310547
 31
0.0
  0
LINE
  5
1A4
100
AcDbEntity
  8
GEKO
  6
SOLID
 62
        7
100
AcDbLine
 10
553.473876953
 20
38.856689453
 30
0.0
 11
553.473876953
 21
-91.143310547
 31
0.0
  0
LINE
  5
1A5
100
AcDbEntity
  8
GEKO
  6
SOLID
 62
        7
100
AcDbLine
 10
558.473388672
 20
8.856689453
 30
0.0
 11
553.473876953
 21
38.856689453
 31
0.0
  0
LINE
  5
1A6
100
AcDbEntity
  8
GEKO
  6
SOLID
 62
        7
100
AcDbLine
 10
553.473876953
 20
38.856689453
 30
0.0
 11
548.474365234
 21
8.856689453
 31
0.0
  0
LINE
  5
1A7
100
AcDbEntity
  8
GEKO
  6
SOLID
 62
        7
100
AcDbLine
 10
548.474365234
 20
8.856689453
 30
0.0
 11
558.473388672
 21
8.856689453
 31
0.0
  0
TEXT
  5
1A8
100
AcDbEntity
  8
GEKO
  6
SOLID
 62
        7
100
AcDbText
 10
538.473876953
 20
-61.388694763
 30
0.0
 40
30.0
  1
130
 50
90.000002504
 72
        5
 11
538.473873872
 21
9.102073669
 31
0.0
100
AcDbText
  0
ENDBLK
  5
1A9
100
AcDbEntity
  8
0
100
AcDbBlockEnd
  0
BLOCK
  5
1B8
100
AcDbEntity
  8
0
100
AcDbBlockBegin
  2
*D3
 70
        0
 10
0.0
 20
0.0
 30
0.0
  3
*D3
  1

  0
LINE
  5
1B9
100
AcDbEntity
  8
GEKO
  6
SOLID
 62
        7
100
AcDbLine
 10
1390.814941406
 20
-159.633056641
 30
0.0
 11
1565.453125
 21
-159.633056641
 31
0.0
  0
LINE
  5
1BA
100
AcDbEntity
  8
GEKO
  6
SOLID
 62
        7
100
AcDbLine
 10
1390.737060547
 20
240.346923828
 30
0.0
 11
1565.453125
 21
240.346923828
 31
0.0
  0
LINE
  5
1BB
100
AcDbEntity
  8
GEKO
  6
SOLID
 62
        7
100
AcDbLine
 10
1564.453125
 20
-159.633056641
 30
0.0
 11
1564.453125
 21
240.346923828
 31
0.0
  0
LINE
  5
1BC
100
AcDbEntity
  8
GEKO
  6
SOLID
 62
        7
100
AcDbLine
 10
1559.453613281
 20
-129.633056641
 30
0.0
 11
1564.453125
 21
-159.633056641
 31
0.0
  0
LINE
  5
1BD
100
AcDbEntity
  8
GEKO
  6
SOLID
 62
        7
100
AcDbLine
 10
1564.453125
 20
-159.633056641
 30
0.0
 11
1569.452636719
 21
-129.633056641
 31
0.0
  0
LINE
  5
1BE
100
AcDbEntity
  8
GEKO
  6
SOLID
 62
        7
100
AcDbLine
 10
1569.452636719
 20
-129.633056641
 30
0.0
 11
1559.453613281
 21
-129.633056641
 31
0.0
  0
LINE
  5
1BF
100
AcDbEntity
  8
GEKO
  6
SOLID
 62
        7
100
AcDbLine
 10
1564.453125
 20
240.346923828
 30
0.0
 11
1564.453125
 21
-159.633056641
 31
0.0
  0
LINE
  5
1C0
100
AcDbEntity
  8
GEKO
  6
SOLID
 62
        7
100
AcDbLine
 10
1569.452636719
 20
210.346923828
 30
0.0
 11
1564.453125
 21
240.346923828
 31
0.0
  0
LINE
  5
1C1
100
AcDbEntity
  8
GEKO
  6
SOLID
 62
        7
100
AcDbLine
 10
1564.453125
 20
240.346923828
 30
0.0
 11
1559.453613281
 21
210.346923828
 31
0.0
  0
LINE
  5
1C2
100
AcDbEntity
  8
GEKO
  6
SOLID
 62
        7
100
AcDbLine
 10
1559.453613281
 20
210.346923828
 30
0.0
 11
1569.452636719
 21
210.346923828
 31
0.0
  0
TEXT
  5
1C3
100
AcDbEntity
  8
GEKO
  6
SOLID
 62
        7
100
AcDbText
 10
1549.453125
 20
-61.132282257
 30
0.0
 40
30.0
  1
%%c
 50
90.000002504
 72
        5
 11
1549.453124126
 21
-41.133821487
 31
0.0
100
AcDbText
  0
TEXT
  5
1C4
100
AcDbEntity
  8
GEKO
  6
SOLID
 62
        7
100
AcDbText
 10
1549.453125
 20
-25.632293701
 30
0.0
 40
30.0
  1
382-400
 50
90.000002504
 72
        5
 11
1549.453117286
 21
150.846160889
 31
0.0
100
AcDbText
  0
ENDBLK
  5
1C5
100
AcDbEntity
  8
0
100
AcDbBlockEnd
  0
BLOCK
  5
300
100
AcDbEntity
  8
0
100
AcDbBlockBegin
  2
*D4
 70
        0
 10
0.0
 20
0.0
 30
0.0
  3
*D4
  1

  0
LINE
  5
301
100
AcDbEntity
  8
GEKO
  6
SOLID
 62
        7
100
AcDbLine
 10
736.675537109
 20
851.120361328
 30
0.0
 11
641.209716797
 21
851.120361328
 31
0.0
  0
LINE
  5
302
100
AcDbEntity
  8
GEKO
  6
SOLID
 62
        7
100
AcDbLine
 10
736.675537109
 20
1056.120361328
 30
0.0
 11
641.209716797
 21
1056.120361328
 31
0.0
  0
LINE
  5
303
100
AcDbEntity
  8
GEKO
  6
SOLID
 62
        7
100
AcDbLine
 10
642.209716797
 20
851.120361328
 30
0.0
 11
642.209716797
 21
1056.120361328
 31
0.0
  0
LINE
  5
304
100
AcDbEntity
  8
GEKO
  6
SOLID
 62
        7
100
AcDbLine
 10
637.210205078
 20
881.120361328
 30
0.0
 11
642.209716797
 21
851.120361328
 31
0.0
  0
LINE
  5
305
100
AcDbEntity
  8
GEKO
  6
SOLID
 62
        7
100
AcDbLine
 10
642.209716797
 20
851.120361328
 30
0.0
 11
647.209228516
 21
881.120361328
 31
0.0
  0
LINE
  5
306
100
AcDbEntity
  8
GEKO
  6
SOLID
 62
        7
100
AcDbLine
 10
647.209228516
 20
881.120361328
 30
0.0
 11
637.210205078
 21
881.120361328
 31
0.0
  0
LINE
  5
307
100
AcDbEntity
  8
GEKO
  6
SOLID
 62
        7
100
AcDbLine
 10
642.209716797
 20
1056.120361328
 30
0.0
 11
642.209716797
 21
851.120361328
 31
0.0
  0
LINE
  5
308
100
AcDbEntity
  8
GEKO
  6
SOLID
 62
        7
100
AcDbLine
 10
647.209228516
 20
1026.120361328
 30
0.0
 11
642.209716797
 21
1056.120361328
 31
0.0
  0
LINE
  5
309
100
AcDbEntity
  8
GEKO
  6
SOLID
 62
        7
100
AcDbLine
 10
642.209716797
 20
1056.120361328
 30
0.0
 11
637.210205078
 21
1026.120361328
 31
0.0
  0
LINE
  5
30A
100
AcDbEntity
  8
GEKO
  6
SOLID
 62
        7
100
AcDbLine
 10
637.210205078
 20
1026.120361328
 30
0.0
 11
647.209228516
 21
1026.120361328
 31
0.0
  0
TEXT
  5
30B
100
AcDbEntity
  8
GEKO
  6
SOLID
 62
        7
100
AcDbText
 10
627.209716797
 20
918.375
 30
0.0
 40
30.0
  1
205
 50
90.000002504
 72
        5
 11
627.209713716
 21
988.865768433
 31
0.0
100
AcDbText
  0
ENDBLK
  5
30C
100
AcDbEntity
  8
0
100
AcDbBlockEnd
  0
BLOCK
  5
311
100
AcDbEntity
  8
0
100
AcDbBlockBegin
  2
*D5
 70
        0
 10
0.0
 20
0.0
 30
0.0
  3
*D5
  1

  0
LINE
  5
312
100
AcDbEntity
  8
GEKO
  6
SOLID
 62
        7
100
AcDbLine
 10
800.894287109
 20
726.881164551
 30
0.0
 11
800.894287109
 21
558.373291016
 31
0.0
  0
LINE
  5
313
100
AcDbEntity
  8
GEKO
  6
SOLID
 62
        7
100
AcDbLine
 10
1005.894287109
 20
726.881103516
 30
0.0
 11
1005.894287109
 21
558.373291016
 31
0.0
  0
LINE
  5
314
100
AcDbEntity
  8
GEKO
  6
SOLID
 62
        7
100
AcDbLine
 10
800.894287109
 20
559.373291016
 30
0.0
 11
1005.894287109
 21
559.373291016
 31
0.0
  0
LINE
  5
315
100
AcDbEntity
  8
GEKO
  6
SOLID
 62
        7
100
AcDbLine
 10
830.894287109
 20
564.372802734
 30
0.0
 11
800.894287109
 21
559.373291016
 31
0.0
  0
LINE
  5
316
100
AcDbEntity
  8
GEKO
  6
SOLID
 62
        7
100
AcDbLine
 10
800.894287109
 20
559.373291016
 30
0.0
 11
830.894287109
 21
554.373779297
 31
0.0
  0
LINE
  5
317
100
AcDbEntity
  8
GEKO
  6
SOLID
 62
        7
100
AcDbLine
 10
830.894287109
 20
554.373779297
 30
0.0
 11
830.894287109
 21
564.372802734
 31
0.0
  0
LINE
  5
318
100
AcDbEntity
  8
GEKO
  6
SOLID
 62
        7
100
AcDbLine
 10
1005.894287109
 20
559.373291016
 30
0.0
 11
800.894287109
 21
559.373291016
 31
0.0
  0
LINE
  5
319
100
AcDbEntity
  8
GEKO
  6
SOLID
 62
        7
100
AcDbLine
 10
975.894287109
 20
554.373779297
 30
0.0
 11
1005.894287109
 21
559.373291016
 31
0.0
  0
LINE
  5
31A
100
AcDbEntity
  8
GEKO
  6
SOLID
 62
        7
100
AcDbLine
 10
1005.894287109
 20
559.373291016
 30
0.0
 11
975.894287109
 21
564.372802734
 31
0.0
  0
LINE
  5
31B
100
AcDbEntity
  8
GEKO
  6
SOLID
 62
        7
100
AcDbLine
 10
975.894287109
 20
564.372802734
 30
0.0
 11
975.894287109
 21
554.373779297
 31
0.0
  0
TEXT
  5
31C
100
AcDbEntity
  8
GEKO
  6
SOLID
 62
        7
100
AcDbText
 10
868.148925781
 20
574.373291016
 30
0.0
 40
30.0
  1
205
 72
        5
 11
938.639694214
 21
574.373291016
 31
0.0
100
AcDbText
  0
ENDBLK
  5
31D
100
AcDbEntity
  8
0
100
AcDbBlockEnd
  0
BLOCK
  5
322
100
AcDbEntity
  8
0
100
AcDbBlockBegin
  2
*H6
 70
        0
 10
0.0
 20
0.0
 30
0.0
  3
*H6
  1

  0
LINE
  5
323
100
AcDbEntity
  8
GEKO
  6
SOLID
 62
        7
100
AcDbLine
 10
638.848388672
 20
953.173156738
 30
0.0
 11
641.785888672
 21
950.235595703
 31
0.0
  0
LINE
  5
324
100
AcDbEntity
  8
GEKO
  6
SOLID
 62
        7
100
AcDbLine
 10
643.603271484
 20
950.539306641
 30
0.0
 11
639.123779297
 21
955.019775391
 31
0.0
  0
LINE
  5
325
100
AcDbEntity
  8
GEKO
  6
SOLID
 62
        7
100
AcDbLine
 10
640.031005859
 20
956.233642578
 30
0.0
 11
644.774169922
 21
951.490478516
 31
0.0
  0
LINE
  5
326
100
AcDbEntity
  8
GEKO
  6
SOLID
 62
        7
100
AcDbLine
 10
645.468505859
 20
952.917236328
 30
0.0
 11
641.406982422
 21
956.978759766
 31
0.0
  0
LINE
  5
327
100
AcDbEntity
  8
GEKO
  6
SOLID
 62
        7
100
AcDbLine
 10
644.184326172
 20
956.322509766
 30
0.0
 11
645.013427734
 21
955.493408203
 31
0.0
  0
ENDBLK
  5
328
100
AcDbEntity
  8
0
100
AcDbBlockEnd
  0
BLOCK
  5
32B
100
AcDbEntity
  8
0
100
AcDbBlockBegin
  2
*D7
 70
        0
 10
0.0
 20
0.0
 30
0.0
  3
*D7
  1

  0
LINE
  5
32C
100
AcDbEntity
  8
GEKO
  6
SOLID
 62
        7
100
AcDbLine
 10
738.394287109
 20
823.620361328
 30
0.0
 11
556.973388672
 21
823.620361328
 31
0.0
  0
LINE
  5
32D
100
AcDbEntity
  8
GEKO
  6
SOLID
 62
        7
100
AcDbLine
 10
573.999755859
 20
953.620361328
 30
0.0
 11
556.973388672
 21
953.620361328
 31
0.0
  0
LINE
  5
32E
100
AcDbEntity
  8
GEKO
  6
SOLID
 62
        7
100
AcDbLine
 10
561.973388672
 20
823.620361328
 30
0.0
 11
561.973388672
 21
953.620361328
 31
0.0
  0
LINE
  5
32F
100
AcDbEntity
  8
GEKO
  6
SOLID
 62
        7
100
AcDbLine
 10
556.973876953
 20
853.620361328
 30
0.0
 11
561.973388672
 21
823.620361328
 31
0.0
  0
LINE
  5
330
100
AcDbEntity
  8
GEKO
  6
SOLID
 62
        7
100
AcDbLine
 10
561.973388672
 20
823.620361328
 30
0.0
 11
566.972900391
 21
853.620361328
 31
0.0
  0
LINE
  5
331
100
AcDbEntity
  8
GEKO
  6
SOLID
 62
        7
100
AcDbLine
 10
566.972900391
 20
853.620361328
 30
0.0
 11
556.973876953
 21
853.620361328
 31
0.0
  0
LINE
  5
332
100
AcDbEntity
  8
GEKO
  6
SOLID
 62
        7
100
AcDbLine
 10
561.973388672
 20
953.620361328
 30
0.0
 11
561.973388672
 21
823.620361328
 31
0.0
  0
LINE
  5
333
100
AcDbEntity
  8
GEKO
  6
SOLID
 62
        7
100
AcDbLine
 10
566.972900391
 20
923.620361328
 30
0.0
 11
561.973388672
 21
953.620361328
 31
0.0
  0
LINE
  5
334
100
AcDbEntity
  8
GEKO
  6
SOLID
 62
        7
100
AcDbLine
 10
561.973388672
 20
953.620361328
 30
0.0
 11
556.973876953
 21
923.620361328
 31
0.0
  0
LINE
  5
335
100
AcDbEntity
  8
GEKO
  6
SOLID
 62
        7
100
AcDbLine
 10
556.973876953
 20
923.620361328
 30
0.0
 11
566.972900391
 21
923.620361328
 31
0.0
  0
TEXT
  5
336
100
AcDbEntity
  8
GEKO
  6
SOLID
 62
        7
100
AcDbText
 10
546.973388672
 20
853.375
 30
0.0
 40
30.0
  1
130
 50
90.000002504
 72
        5
 11
546.973385591
 21
923.865768433
 31
0.0
100
AcDbText
  0
ENDBLK
  5
337
100
AcDbEntity
  8
0
100
AcDbBlockEnd
  0
BLOCK
  5
33A
100
AcDbEntity
  8
0
100
AcDbBlockBegin
  2
*D8
 70
        0
 10
0.0
 20
0.0
 30
0.0
  3
*D8
  1

  0
LINE
  5
33B
100
AcDbEntity
  8
GEKO
  6
SOLID
 62
        7
100
AcDbLine
 10
768.394287109
 20
733.600830078
 30
0.0
 11
556.973388672
 21
733.600830078
 31
0.0
  0
LINE
  5
33C
100
AcDbEntity
  8
GEKO
  6
SOLID
 62
        7
100
AcDbLine
 10
741.496826172
 20
823.620361328
 30
0.0
 11
556.973388672
 21
823.620361328
 31
0.0
  0
LINE
  5
33D
100
AcDbEntity
  8
GEKO
  6
SOLID
 62
        7
100
AcDbLine
 10
561.973388672
 20
733.600830078
 30
0.0
 11
561.973388672
 21
688.600830078
 31
0.0
  0
LINE
  5
33E
100
AcDbEntity
  8
GEKO
  6
SOLID
 62
        7
100
AcDbLine
 10
561.973388672
 20
688.600830078
 30
0.0
 11
561.973388672
 21
868.620361328
 31
0.0
  0
LINE
  5
33F
100
AcDbEntity
  8
GEKO
  6
SOLID
 62
        7
100
AcDbLine
 10
566.972900391
 20
703.600830078
 30
0.0
 11
561.973388672
 21
733.600830078
 31
0.0
  0
LINE
  5
340
100
AcDbEntity
  8
GEKO
  6
SOLID
 62
        7
100
AcDbLine
 10
561.973388672
 20
733.600830078
 30
0.0
 11
556.973876953
 21
703.600830078
 31
0.0
  0
LINE
  5
341
100
AcDbEntity
  8
GEKO
  6
SOLID
 62
        7
100
AcDbLine
 10
556.973876953
 20
703.600830078
 30
0.0
 11
566.972900391
 21
703.600830078
 31
0.0
  0
LINE
  5
342
100
AcDbEntity
  8
GEKO
  6
SOLID
 62
        7
100
AcDbLine
 10
561.973388672
 20
823.620361328
 30
0.0
 11
561.973388672
 21
868.620361328
 31
0.0
  0
LINE
  5
343
100
AcDbEntity
  8
GEKO
  6
SOLID
 62
        7
100
AcDbLine
 10
561.973388672
 20
868.620361328
 30
0.0
 11
561.973388672
 21
688.600830078
 31
0.0
  0
LINE
  5
344
100
AcDbEntity
  8
GEKO
  6
SOLID
 62
        7
100
AcDbLine
 10
556.973876953
 20
853.620361328
 30
0.0
 11
561.973388672
 21
823.620361328
 31
0.0
  0
LINE
  5
345
100
AcDbEntity
  8
GEKO
  6
SOLID
 62
        7
100
AcDbLine
 10
561.973388672
 20
823.620361328
 30
0.0
 11
566.972900391
 21
853.620361328
 31
0.0
  0
LINE
  5
346
100
AcDbEntity
  8
GEKO
  6
SOLID
 62
        7
100
AcDbLine
 10
566.972900391
 20
853.620361328
 30
0.0
 11
556.973876953
 21
853.620361328
 31
0.0
  0
TEXT
  5
347
100
AcDbEntity
  8
GEKO
  6
SOLID
 62
        7
100
AcDbText
 10
546.973388672
 20
756.613647461
 30
0.0
 40
30.0
  1
90
 50
90.000002504
 72
        5
 11
546.973386749
 21
800.607494354
 31
0.0
100
AcDbText
  0
ENDBLK
  5
348
100
AcDbEntity
  8
0
100
AcDbBlockEnd
  0
BLOCK
  5
34B
100
AcDbEntity
  8
0
100
AcDbBlockBegin
  2
*D9
 70
        0
 10
0.0
 20
0.0
 30
0.0
  3
*D9
  1

  0
LINE
  5
34C
100
AcDbEntity
  8
GEKO
  6
SOLID
 62
        7
100
AcDbLine
 10
573.998779297
 20
953.620361328
 30
0.0
 11
557.022216797
 21
953.620361328
 31
0.0
  0
LINE
  5
34D
100
AcDbEntity
  8
GEKO
  6
SOLID
 62
        7
100
AcDbLine
 10
768.393310547
 20
1088.621337891
 30
0.0
 11
557.022216797
 21
1088.621337891
 31
0.0
  0
LINE
  5
34E
100
AcDbEntity
  8
GEKO
  6
SOLID
 62
        7
100
AcDbLine
 10
562.022216797
 20
953.620361328
 30
0.0
 11
562.022216797
 21
1088.621337891
 31
0.0
  0
LINE
  5
34F
100
AcDbEntity
  8
GEKO
  6
SOLID
 62
        7
100
AcDbLine
 10
557.022705078
 20
983.620361328
 30
0.0
 11
562.022216797
 21
953.620361328
 31
0.0
  0
LINE
  5
350
100
AcDbEntity
  8
GEKO
  6
SOLID
 62
        7
100
AcDbLine
 10
562.022216797
 20
953.620361328
 30
0.0
 11
567.021728516
 21
983.620361328
 31
0.0
  0
LINE
  5
351
100
AcDbEntity
  8
GEKO
  6
SOLID
 62
        7
100
AcDbLine
 10
567.021728516
 20
983.620361328
 30
0.0
 11
557.022705078
 21
983.620361328
 31
0.0
  0
LINE
  5
352
100
AcDbEntity
  8
GEKO
  6
SOLID
 62
        7
100
AcDbLine
 10
562.022216797
 20
1088.621337891
 30
0.0
 11
562.022216797
 21
953.620361328
 31
0.0
  0
LINE
  5
353
100
AcDbEntity
  8
GEKO
  6
SOLID
 62
        7
100
AcDbLine
 10
567.021728516
 20
1058.621337891
 30
0.0
 11
562.022216797
 21
1088.621337891
 31
0.0
  0
LINE
  5
354
100
AcDbEntity
  8
GEKO
  6
SOLID
 62
        7
100
AcDbLine
 10
562.022216797
 20
1088.621337891
 30
0.0
 11
557.022705078
 21
1058.621337891
 31
0.0
  0
LINE
  5
355
100
AcDbEntity
  8
GEKO
  6
SOLID
 62
        7
100
AcDbLine
 10
557.022705078
 20
1058.621337891
 30
0.0
 11
567.021728516
 21
1058.621337891
 31
0.0
  0
TEXT
  5
356
100
AcDbEntity
  8
GEKO
  6
SOLID
 62
        7
100
AcDbText
 10
547.022216797
 20
985.875
 30
0.0
 40
30.0
  1
135
 50
90.000002504
 72
        5
 11
547.022213716
 21
1056.365768433
 31
0.0
100
AcDbText
  0
ENDBLK
  5
357
100
AcDbEntity
  8
0
100
AcDbBlockEnd
  0
BLOCK
  5
35A
100
AcDbEntity
  8
0
100
AcDbBlockBegin
  2
*D10
 70
        0
 10
0.0
 20
0.0
 30
0.0
  3
*D10
  1

  0
LINE
  5
35B
100
AcDbEntity
  8
GEKO
  6
SOLID
 62
        7
100
AcDbLine
 10
768.393310547
 20
733.600830078
 30
0.0
 11
636.199462891
 21
733.600830078
 31
0.0
  0
LINE
  5
35C
100
AcDbEntity
  8
GEKO
  6
SOLID
 62
        7
100
AcDbLine
 10
790.393310547
 20
768.600830078
 30
0.0
 11
636.199462891
 21
768.600830078
 31
0.0
  0
LINE
  5
35D
100
AcDbEntity
  8
GEKO
  6
SOLID
 62
        7
100
AcDbLine
 10
641.199462891
 20
733.600830078
 30
0.0
 11
641.199462891
 21
614.656616211
 31
0.0
  0
LINE
  5
35E
100
AcDbEntity
  8
GEKO
  6
SOLID
 62
        7
100
AcDbLine
 10
641.199462891
 20
614.656616211
 30
0.0
 11
641.199462891
 21
813.600830078
 31
0.0
  0
LINE
  5
35F
100
AcDbEntity
  8
GEKO
  6
SOLID
 62
        7
100
AcDbLine
 10
646.198974609
 20
703.600830078
 30
0.0
 11
641.199462891
 21
733.600830078
 31
0.0
  0
LINE
  5
360
100
AcDbEntity
  8
GEKO
  6
SOLID
 62
        7
100
AcDbLine
 10
641.199462891
 20
733.600830078
 30
0.0
 11
636.199951172
 21
703.600830078
 31
0.0
  0
LINE
  5
361
100
AcDbEntity
  8
GEKO
  6
SOLID
 62
        7
100
AcDbLine
 10
636.199951172
 20
703.600830078
 30
0.0
 11
646.198974609
 21
703.600830078
 31
0.0
  0
LINE
  5
362
100
AcDbEntity
  8
GEKO
  6
SOLID
 62
        7
100
AcDbLine
 10
641.199462891
 20
768.600830078
 30
0.0
 11
641.199462891
 21
813.600830078
 31
0.0
  0
LINE
  5
363
100
AcDbEntity
  8
GEKO
  6
SOLID
 62
        7
100
AcDbLine
 10
641.199462891
 20
813.600830078
 30
0.0
 11
641.199462891
 21
614.656616211
 31
0.0
  0
LINE
  5
364
100
AcDbEntity
  8
GEKO
  6
SOLID
 62
        7
100
AcDbLine
 10
636.199951172
 20
798.600830078
 30
0.0
 11
641.199462891
 21
768.600830078
 31
0.0
  0
LINE
  5
365
100
AcDbEntity
  8
GEKO
  6
SOLID
 62
        7
100
AcDbLine
 10
641.199462891
 20
768.600830078
 30
0.0
 11
646.198974609
 21
798.600830078
 31
0.0
  0
LINE
  5
366
100
AcDbEntity
  8
GEKO
  6
SOLID
 62
        7
100
AcDbLine
 10
646.198974609
 20
798.600830078
 30
0.0
 11
636.199951172
 21
798.600830078
 31
0.0
  0
TEXT
  5
367
100
AcDbEntity
  8
GEKO
  6
SOLID
 62
        7
100
AcDbText
 10
626.199462891
 20
627.906616211
 30
0.0
 40
30.0
  1
35
 50
90.000002504
 72
        5
 11
626.199460968
 21
671.900463104
 31
0.0
100
AcDbText
  0
ENDBLK
  5
368
100
AcDbEntity
  8
0
100
AcDbBlockEnd
  0
BLOCK
  5
36B
100
AcDbEntity
  8
0
100
AcDbBlockBegin
  2
*H11
 70
        0
 10
0.0
 20
0.0
 30
0.0
  3
*H11
  1

  0
LINE
  5
36C
100
AcDbEntity
  8
GEKO
  6
SOLID
 62
        7
100
AcDbLine
 10
902.947021484
 20
475.750305176
 30
0.0
 11
900.008544922
 21
478.688781738
 31
0.0
  0
LINE
  5
36D
100
AcDbEntity
  8
GEKO
  6
SOLID
 62
        7
100
AcDbLine
 10
900.313232422
 20
480.505065918
 30
0.0
 11
904.792724609
 21
476.025604248
 31
0.0
  0
LINE
  5
36E
100
AcDbEntity
  8
GEKO
  6
SOLID
 62
        7
100
AcDbLine
 10
906.006591797
 20
476.932830811
 30
0.0
 11
901.263427734
 21
481.676025391
 31
0.0
  0
LINE
  5
36F
100
AcDbEntity
  8
GEKO
  6
SOLID
 62
        7
100
AcDbLine
 10
902.690185547
 20
482.370361328
 30
0.0
 11
906.752685547
 21
478.307922363
 31
0.0
  0
LINE
  5
370
100
AcDbEntity
  8
GEKO
  6
SOLID
 62
        7
100
AcDbLine
 10
906.096496582
 20
481.086120605
 30
0.0
 11
905.266357422
 21
481.915283203
 31
0.0
  0
ENDBLK
  5
371
100
AcDbEntity
  8
0
100
AcDbBlockEnd
  0
BLOCK
  5
374
100
AcDbEntity
  8
0
100
AcDbBlockBegin
  2
*H12
 70
        0
 10
0.0
 20
0.0
 30
0.0
  3
*H12
  1

  0
LINE
  5
375
100
AcDbEntity
  8
GEKO
  6
SOLID
 62
        7
100
AcDbLine
 10
902.947021484
 20
555.750244141
 30
0.0
 11
900.008544922
 21
558.688720703
 31
0.0
  0
LINE
  5
376
100
AcDbEntity
  8
GEKO
  6
SOLID
 62
        7
100
AcDbLine
 10
900.313232422
 20
560.505187988
 30
0.0
 11
904.792785645
 21
556.025634766
 31
0.0
  0
LINE
  5
377
100
AcDbEntity
  8
GEKO
  6
SOLID
 62
        7
100
AcDbLine
 10
906.006591797
 20
556.932922363
 30
0.0
 11
901.263427734
 21
561.676025391
 31
0.0
  0
LINE
  5
378
100
AcDbEntity
  8
GEKO
  6
SOLID
 62
        7
100
AcDbLine
 10
902.690185547
 20
562.370361328
 30
0.0
 11
906.752685547
 21
558.307861328
 31
0.0
  0
LINE
  5
379
100
AcDbEntity
  8
GEKO
  6
SOLID
 62
        7
100
AcDbLine
 10
906.096435547
 20
561.086181641
 30
0.0
 11
905.266357422
 21
561.915283203
 31
0.0
  0
ENDBLK
  5
37A
100
AcDbEntity
  8
0
100
AcDbBlockEnd
  0
BLOCK
  5
37D
100
AcDbEntity
  8
0
100
AcDbBlockBegin
  2
*D13
 70
        0
 10
0.0
 20
0.0
 30
0.0
  3
*D13
  1

  0
LINE
  5
37E
100
AcDbEntity
  8
GEKO
  6
SOLID
 62
        7
100
AcDbLine
 10
773.394287109
 20
728.599853516
 30
0.0
 11
773.394287109
 21
474.494384766
 31
0.0
  0
LINE
  5
37F
100
AcDbEntity
  8
GEKO
  6
SOLID
 62
        7
100
AcDbLine
 10
1033.394287109
 20
728.599853516
 30
0.0
 11
1033.394287109
 21
474.494384766
 31
0.0
  0
LINE
  5
380
100
AcDbEntity
  8
GEKO
  6
SOLID
 62
        7
100
AcDbLine
 10
773.394287109
 20
479.494384766
 30
0.0
 11
1033.394287109
 21
479.494384766
 31
0.0
  0
LINE
  5
381
100
AcDbEntity
  8
GEKO
  6
SOLID
 62
        7
100
AcDbLine
 10
803.394287109
 20
484.493896484
 30
0.0
 11
773.394287109
 21
479.494384766
 31
0.0
  0
LINE
  5
382
100
AcDbEntity
  8
GEKO
  6
SOLID
 62
        7
100
AcDbLine
 10
773.394287109
 20
479.494384766
 30
0.0
 11
803.394287109
 21
474.494873047
 31
0.0
  0
LINE
  5
383
100
AcDbEntity
  8
GEKO
  6
SOLID
 62
        7
100
AcDbLine
 10
803.394287109
 20
474.494873047
 30
0.0
 11
803.394287109
 21
484.493896484
 31
0.0
  0
LINE
  5
384
100
AcDbEntity
  8
GEKO
  6
SOLID
 62
        7
100
AcDbLine
 10
1033.394287109
 20
479.494384766
 30
0.0
 11
773.394287109
 21
479.494384766
 31
0.0
  0
LINE
  5
385
100
AcDbEntity
  8
GEKO
  6
SOLID
 62
        7
100
AcDbLine
 10
1003.394287109
 20
474.494873047
 30
0.0
 11
1033.394287109
 21
479.494384766
 31
0.0
  0
LINE
  5
386
100
AcDbEntity
  8
GEKO
  6
SOLID
 62
        7
100
AcDbLine
 10
1033.394287109
 20
479.494384766
 30
0.0
 11
1003.394287109
 21
484.493896484
 31
0.0
  0
LINE
  5
387
100
AcDbEntity
  8
GEKO
  6
SOLID
 62
        7
100
AcDbLine
 10
1003.394287109
 20
484.493896484
 30
0.0
 11
1003.394287109
 21
474.494873047
 31
0.0
  0
TEXT
  5
388
100
AcDbEntity
  8
GEKO
  6
SOLID
 62
        7
100
AcDbText
 10
868.148925781
 20
494.494384766
 30
0.0
 40
30.0
  1
260
 72
        5
 11
938.639694214
 21
494.494384766
 31
0.0
100
AcDbText
  0
ENDBLK
  5
389
100
AcDbEntity
  8
0
100
AcDbBlockEnd
  0
BLOCK
  5
38C
100
AcDbEntity
  8
0
100
AcDbBlockBegin
  2
*D14
 70
        0
 10
0.0
 20
0.0
 30
0.0
  3
*D14
  1

  0
LINE
  5
38D
100
AcDbEntity
  8
GEKO
  6
SOLID
 62
        7
100
AcDbLine
 10
791.394287109
 20
718.600830078
 30
0.0
 11
791.394287109
 21
612.825439453
 31
0.0
  0
LINE
  5
38E
100
AcDbEntity
  8
GEKO
  6
SOLID
 62
        7
100
AcDbLine
 10
809.394287109
 20
718.600830078
 30
0.0
 11
809.394287109
 21
612.825439453
 31
0.0
  0
LINE
  5
38F
100
AcDbEntity
  8
GEKO
  6
SOLID
 62
        7
100
AcDbLine
 10
791.394287109
 20
617.825439453
 30
0.0
 11
673.75793457
 21
617.825439453
 31
0.0
  0
LINE
  5
390
100
AcDbEntity
  8
GEKO
  6
SOLID
 62
        7
100
AcDbLine
 10
673.75793457
 20
617.825439453
 30
0.0
 11
854.394287109
 21
617.825439453
 31
0.0
  0
LINE
  5
391
100
AcDbEntity
  8
GEKO
  6
SOLID
 62
        7
100
AcDbLine
 10
761.394287109
 20
612.825927734
 30
0.0
 11
791.394287109
 21
617.825439453
 31
0.0
  0
LINE
  5
392
100
AcDbEntity
  8
GEKO
  6
SOLID
 62
        7
100
AcDbLine
 10
791.394287109
 20
617.825439453
 30
0.0
 11
761.394287109
 21
622.824951172
 31
0.0
  0
LINE
  5
393
100
AcDbEntity
  8
GEKO
  6
SOLID
 62
        7
100
AcDbLine
 10
761.394287109
 20
622.824951172
 30
0.0
 11
761.394287109
 21
612.825927734
 31
0.0
  0
LINE
  5
394
100
AcDbEntity
  8
GEKO
  6
SOLID
 62
        7
100
AcDbLine
 10
809.394287109
 20
617.825439453
 30
0.0
 11
854.394287109
 21
617.825439453
 31
0.0
  0
LINE
  5
395
100
AcDbEntity
  8
GEKO
  6
SOLID
 62
        7
100
AcDbLine
 10
854.394287109
 20
617.825439453
 30
0.0
 11
673.75793457
 21
617.825439453
 31
0.0
  0
LINE
  5
396
100
AcDbEntity
  8
GEKO
  6
SOLID
 62
        7
100
AcDbLine
 10
839.394287109
 20
622.824951172
 30
0.0
 11
809.394287109
 21
617.825439453
 31
0.0
  0
LINE
  5
397
100
AcDbEntity
  8
GEKO
  6
SOLID
 62
        7
100
AcDbLine
 10
809.394287109
 20
617.825439453
 30
0.0
 11
839.394287109
 21
612.825927734
 31
0.0
  0
LINE
  5
398
100
AcDbEntity
  8
GEKO
  6
SOLID
 62
        7
100
AcDbLine
 10
839.394287109
 20
612.825927734
 30
0.0
 11
839.394287109
 21
622.824951172
 31
0.0
  0
TEXT
  5
399
100
AcDbEntity
  8
GEKO
  6
SOLID
 62
        7
100
AcDbText
 10
687.00793457
 20
632.825439453
 30
0.0
 40
30.0
  1
M
 72
        5
 11
707.00639534
 21
632.825439453
 31
0.0
100
AcDbText
  0
TEXT
  5
39A
100
AcDbEntity
  8
GEKO
  6
SOLID
 62
        7
100
AcDbText
 10
722.50793457
 20
632.825439453
 30
0.0
 40
30.0
  1
16
 72
        5
 11
769.003318787
 21
632.825439453
 31
0.0
100
AcDbText
  0
ENDBLK
  5
39B
100
AcDbEntity
  8
0
100
AcDbBlockEnd
  0
BLOCK
  5
39E
100
AcDbEntity
  8
0
100
AcDbBlockBegin
  2
*D15
 70
        0
 10
0.0
 20
0.0
 30
0.0
  3
*D15
  1

  0
LINE
  5
39F
100
AcDbEntity
  8
GEKO
  6
SOLID
 62
        7
100
AcDbLine
 10
743.394287109
 20
1088.621337891
 30
0.0
 11
743.394287109
 21
1401.474853516
 31
0.0
  0
LINE
  5
3A0
100
AcDbEntity
  8
GEKO
  6
SOLID
 62
        7
100
AcDbLine
 10
903.394348145
 20
1379.235595703
 30
0.0
 11
903.394348145
 21
1401.474853516
 31
0.0
  0
LINE
  5
3A1
100
AcDbEntity
  8
GEKO
  6
SOLID
 62
        7
100
AcDbLine
 10
743.394287109
 20
1396.474853516
 30
0.0
 11
903.394348145
 21
1396.474853516
 31
0.0
  0
LINE
  5
3A2
100
AcDbEntity
  8
GEKO
  6
SOLID
 62
        7
100
AcDbLine
 10
773.394287109
 20
1401.474365234
 30
0.0
 11
743.394287109
 21
1396.474853516
 31
0.0
  0
LINE
  5
3A3
100
AcDbEntity
  8
GEKO
  6
SOLID
 62
        7
100
AcDbLine
 10
743.394287109
 20
1396.474853516
 30
0.0
 11
773.394287109
 21
1391.475341797
 31
0.0
  0
LINE
  5
3A4
100
AcDbEntity
  8
GEKO
  6
SOLID
 62
        7
100
AcDbLine
 10
773.394287109
 20
1391.475341797
 30
0.0
 11
773.394287109
 21
1401.474365234
 31
0.0
  0
LINE
  5
3A5
100
AcDbEntity
  8
GEKO
  6
SOLID
 62
        7
100
AcDbLine
 10
903.394348145
 20
1396.474853516
 30
0.0
 11
743.394287109
 21
1396.474853516
 31
0.0
  0
LINE
  5
3A6
100
AcDbEntity
  8
GEKO
  6
SOLID
 62
        7
100
AcDbLine
 10
873.394348145
 20
1391.475341797
 30
0.0
 11
903.394348145
 21
1396.474853516
 31
0.0
  0
LINE
  5
3A7
100
AcDbEntity
  8
GEKO
  6
SOLID
 62
        7
100
AcDbLine
 10
903.394348145
 20
1396.474853516
 30
0.0
 11
873.394348145
 21
1401.474365234
 31
0.0
  0
LINE
  5
3A8
100
AcDbEntity
  8
GEKO
  6
SOLID
 62
        7
100
AcDbLine
 10
873.394348145
 20
1401.474365234
 30
0.0
 11
873.394348145
 21
1391.475341797
 31
0.0
  0
TEXT
  5
3A9
100
AcDbEntity
  8
GEKO
  6
SOLID
 62
        7
100
AcDbText
 10
788.148925781
 20
1411.474853516
 30
0.0
 40
30.0
  1
160
 72
        5
 11
858.639694214
 21
1411.474853516
 31
0.0
100
AcDbText
  0
ENDBLK
  5
3AA
100
AcDbEntity
  8
0
100
AcDbBlockEnd
  0
BLOCK
  5
3B8
100
AcDbEntity
  8
0
100
AcDbBlockBegin
  2
*D16
 70
        0
 10
0.0
 20
0.0
 30
0.0
  3
*D16
  1

  0
LINE
  5
3B9
100
AcDbEntity
  8
GEKO
  6
SOLID
 62
        7
100
AcDbLine
 10
903.39465332
 20
1369.852294922
 30
0.0
 11
903.39465332
 21
1397.474853516
 31
0.0
  0
LINE
  5
3BA
100
AcDbEntity
  8
GEKO
  6
SOLID
 62
        7
100
AcDbLine
 10
1461.243652344
 20
772.602233887
 30
0.0
 11
1461.243652344
 21
1397.474853516
 31
0.0
  0
LINE
  5
3BB
100
AcDbEntity
  8
GEKO
  6
SOLID
 62
        7
100
AcDbLine
 10
903.39465332
 20
1396.474853516
 30
0.0
 11
1461.243652344
 21
1396.474853516
 31
0.0
  0
LINE
  5
3BC
100
AcDbEntity
  8
GEKO
  6
SOLID
 62
        7
100
AcDbLine
 10
933.39465332
 20
1401.474365234
 30
0.0
 11
903.39465332
 21
1396.474853516
 31
0.0
  0
LINE
  5
3BD
100
AcDbEntity
  8
GEKO
  6
SOLID
 62
        7
100
AcDbLine
 10
903.39465332
 20
1396.474853516
 30
0.0
 11
933.39465332
 21
1391.475341797
 31
0.0
  0
LINE
  5
3BE
100
AcDbEntity
  8
GEKO
  6
SOLID
 62
        7
100
AcDbLine
 10
933.39465332
 20
1391.475341797
 30
0.0
 11
933.39465332
 21
1401.474365234
 31
0.0
  0
LINE
  5
3BF
100
AcDbEntity
  8
GEKO
  6
SOLID
 62
        7
100
AcDbLine
 10
1461.243652344
 20
1396.474853516
 30
0.0
 11
903.39465332
 21
1396.474853516
 31
0.0
  0
LINE
  5
3C0
100
AcDbEntity
  8
GEKO
  6
SOLID
 62
        7
100
AcDbLine
 10
1431.243652344
 20
1391.475341797
 30
0.0
 11
1461.243652344
 21
1396.474853516
 31
0.0
  0
LINE
  5
3C1
100
AcDbEntity
  8
GEKO
  6
SOLID
 62
        7
100
AcDbLine
 10
1461.243652344
 20
1396.474853516
 30
0.0
 11
1431.243652344
 21
1401.474365234
 31
0.0
  0
LINE
  5
3C2
100
AcDbEntity
  8
GEKO
  6
SOLID
 62
        7
100
AcDbLine
 10
1431.243652344
 20
1401.474365234
 30
0.0
 11
1431.243652344
 21
1391.475341797
 31
0.0
  0
TEXT
  5
3C3
100
AcDbEntity
  8
GEKO
  6
SOLID
 62
        7
100
AcDbText
 10
1147.073730469
 20
1411.474853516
 30
0.0
 40
30.0
  1
560
 72
        5
 11
1217.564498901
 21
1411.474853516
 31
0.0
100
AcDbText
  0
ENDBLK
  5
3C4
100
AcDbEntity
  8
0
100
AcDbBlockEnd
  0
BLOCK
  5
3C7
100
AcDbEntity
  8
0
100
AcDbBlockBegin
  2
*D17
 70
        0
 10
0.0
 20
0.0
 30
0.0
  3
*D17
  1

  0
LINE
  5
3C8
100
AcDbEntity
  8
GEKO
  6
SOLID
 62
        7
100
AcDbLine
 10
562.778930664
 20
38.856689453
 30
0.0
 11
548.473876953
 21
38.856689453
 31
0.0
  0
LINE
  5
3C9
100
AcDbEntity
  8
GEKO
  6
SOLID
 62
        7
100
AcDbLine
 10
699.883789063
 20
238.856689453
 30
0.0
 11
548.473876953
 21
238.856689453
 31
0.0
  0
LINE
  5
3CA
100
AcDbEntity
  8
GEKO
  6
SOLID
 62
        7
100
AcDbLine
 10
553.473876953
 20
38.856689453
 30
0.0
 11
553.473876953
 21
238.856689453
 31
0.0
  0
LINE
  5
3CB
100
AcDbEntity
  8
GEKO
  6
SOLID
 62
        7
100
AcDbLine
 10
548.474365234
 20
68.856689453
 30
0.0
 11
553.473876953
 21
38.856689453
 31
0.0
  0
LINE
  5
3CC
100
AcDbEntity
  8
GEKO
  6
SOLID
 62
        7
100
AcDbLine
 10
553.473876953
 20
38.856689453
 30
0.0
 11
558.473388672
 21
68.856689453
 31
0.0
  0
LINE
  5
3CD
100
AcDbEntity
  8
GEKO
  6
SOLID
 62
        7
100
AcDbLine
 10
558.473388672
 20
68.856689453
 30
0.0
 11
548.474365234
 21
68.856689453
 31
0.0
  0
LINE
  5
3CE
100
AcDbEntity
  8
GEKO
  6
SOLID
 62
        7
100
AcDbLine
 10
553.473876953
 20
238.856689453
 30
0.0
 11
553.473876953
 21
38.856689453
 31
0.0
  0
LINE
  5
3CF
100
AcDbEntity
  8
GEKO
  6
SOLID
 62
        7
100
AcDbLine
 10
558.473388672
 20
208.856689453
 30
0.0
 11
553.473876953
 21
238.856689453
 31
0.0
  0
LINE
  5
3D0
100
AcDbEntity
  8
GEKO
  6
SOLID
 62
        7
100
AcDbLine
 10
553.473876953
 20
238.856689453
 30
0.0
 11
548.474365234
 21
208.856689453
 31
0.0
  0
LINE
  5
3D1
100
AcDbEntity
  8
GEKO
  6
SOLID
 62
        7
100
AcDbLine
 10
548.474365234
 20
208.856689453
 30
0.0
 11
558.473388672
 21
208.856689453
 31
0.0
  0
TEXT
  5
3D2
100
AcDbEntity
  8
GEKO
  6
SOLID
 62
        7
100
AcDbText
 10
538.473876953
 20
103.611305237
 30
0.0
 40
30.0
  1
200
 50
90.000002504
 72
        5
 11
538.473873872
 21
174.102073669
 31
0.0
100
AcDbText
  0
ENDBLK
  5
3D3
100
AcDbEntity
  8
0
100
AcDbBlockEnd
  0
BLOCK
  5
468
100
AcDbEntity
  8
0
100
AcDbBlockBegin
  2
*D18
 70
        0
 10
0.0
 20
0.0
 30
0.0
  3
*D18
  1

  0
LINE
  5
469
100
AcDbEntity
  8
GEKO
  6
SOLID
 62
        7
100
AcDbLine
 10
834.895385742
 20
-91.143310547
 30
0.0
 11
468.710205078
 21
-91.143310547
 31
0.0
  0
LINE
  5
46A
100
AcDbEntity
  8
GEKO
  6
SOLID
 62
        7
100
AcDbLine
 10
709.895385742
 20
283.856689453
 30
0.0
 11
468.710205078
 21
283.856689453
 31
0.0
  0
LINE
  5
46B
100
AcDbEntity
  8
GEKO
  6
SOLID
 62
        7
100
AcDbLine
 10
473.710205078
 20
-91.143310547
 30
0.0
 11
473.710205078
 21
283.856689453
 31
0.0
  0
LINE
  5
46C
100
AcDbEntity
  8
GEKO
  6
SOLID
 62
        7
100
AcDbLine
 10
468.710693359
 20
-61.143310547
 30
0.0
 11
473.710205078
 21
-91.143310547
 31
0.0
  0
LINE
  5
46D
100
AcDbEntity
  8
GEKO
  6
SOLID
 62
        7
100
AcDbLine
 10
473.710205078
 20
-91.143310547
 30
0.0
 11
478.709716797
 21
-61.143310547
 31
0.0
  0
LINE
  5
46E
100
AcDbEntity
  8
GEKO
  6
SOLID
 62
        7
100
AcDbLine
 10
478.709716797
 20
-61.143310547
 30
0.0
 11
468.710693359
 21
-61.143310547
 31
0.0
  0
LINE
  5
46F
100
AcDbEntity
  8
GEKO
  6
SOLID
 62
        7
100
AcDbLine
 10
473.710205078
 20
283.856689453
 30
0.0
 11
473.710205078
 21
-91.143310547
 31
0.0
  0
LINE
  5
470
100
AcDbEntity
  8
GEKO
  6
SOLID
 62
        7
100
AcDbLine
 10
478.709716797
 20
253.856689453
 30
0.0
 11
473.710205078
 21
283.856689453
 31
0.0
  0
LINE
  5
471
100
AcDbEntity
  8
GEKO
  6
SOLID
 62
        7
100
AcDbLine
 10
473.710205078
 20
283.856689453
 30
0.0
 11
468.710693359
 21
253.856689453
 31
0.0
  0
LINE
  5
472
100
AcDbEntity
  8
GEKO
  6
SOLID
 62
        7
100
AcDbLine
 10
468.710693359
 20
253.856689453
 30
0.0
 11
478.709716797
 21
253.856689453
 31
0.0
  0
TEXT
  5
473
100
AcDbEntity
  8
GEKO
  6
SOLID
 62
        7
100
AcDbText
 10
458.710205078
 20
61.111305237
 30
0.0
 40
30.0
  1
375
 50
90.000002504
 72
        5
 11
458.710201997
 21
131.602073669
 31
0.0
100
AcDbText
  0
ENDBLK
  5
474
100
AcDbEntity
  8
0
100
AcDbBlockEnd
  0
BLOCK
  5
57C
100
AcDbEntity
  8
0
100
AcDbBlockBegin
  2
*D19
 70
        0
 10
0.0
 20
0.0
 30
0.0
  3
*D19
  1

  0
LINE
  5
57D
100
AcDbEntity
  8
GEKO
  6
SOLID
 62
        7
100
AcDbLine
 10
1447.41027832
 20
768.136474609
 30
0.0
 11
1447.41027832
 21
687.903991699
 31
0.0
  0
LINE
  5
57E
100
AcDbEntity
  8
GEKO
  6
SOLID
 62
        7
100
AcDbLine
 10
1461.243652344
 20
770.602233887
 30
0.0
 11
1461.243652344
 21
687.903991699
 31
0.0
  0
LINE
  5
57F
100
AcDbEntity
  8
GEKO
  6
SOLID
 62
        7
100
AcDbLine
 10
1447.41027832
 20
688.903991699
 30
0.0
 11
1368.691894531
 21
688.903991699
 31
0.0
  0
LINE
  5
580
100
AcDbEntity
  8
GEKO
  6
SOLID
 62
        7
100
AcDbLine
 10
1368.691894531
 20
688.903991699
 30
0.0
 11
1506.243652344
 21
688.903991699
 31
0.0
  0
LINE
  5
581
100
AcDbEntity
  8
GEKO
  6
SOLID
 62
        7
100
AcDbLine
 10
1417.41027832
 20
683.90447998
 30
0.0
 11
1447.41027832
 21
688.903991699
 31
0.0
  0
LINE
  5
582
100
AcDbEntity
  8
GEKO
  6
SOLID
 62
        7
100
AcDbLine
 10
1447.41027832
 20
688.903991699
 30
0.0
 11
1417.41027832
 21
693.903503418
 31
0.0
  0
LINE
  5
583
100
AcDbEntity
  8
GEKO
  6
SOLID
 62
        7
100
AcDbLine
 10
1417.41027832
 20
693.903503418
 30
0.0
 11
1417.41027832
 21
683.90447998
 31
0.0
  0
LINE
  5
584
100
AcDbEntity
  8
GEKO
  6
SOLID
 62
        7
100
AcDbLine
 10
1461.243652344
 20
688.903991699
 30
0.0
 11
1506.243652344
 21
688.903991699
 31
0.0
  0
LINE
  5
585
100
AcDbEntity
  8
GEKO
  6
SOLID
 62
        7
100
AcDbLine
 10
1506.243652344
 20
688.903991699
 30
0.0
 11
1368.691894531
 21
688.903991699
 31
0.0
  0
LINE
  5
586
100
AcDbEntity
  8
GEKO
  6
SOLID
 62
        7
100
AcDbLine
 10
1491.243652344
 20
693.903503418
 30
0.0
 11
1461.243652344
 21
688.903991699
 31
0.0
  0
LINE
  5
587
100
AcDbEntity
  8
GEKO
  6
SOLID
 62
        7
100
AcDbLine
 10
1461.243652344
 20
688.903991699
 30
0.0
 11
1491.243652344
 21
683.90447998
 31
0.0
  0
LINE
  5
588
100
AcDbEntity
  8
GEKO
  6
SOLID
 62
        7
100
AcDbLine
 10
1491.243652344
 20
683.90447998
 30
0.0
 11
1491.243652344
 21
693.903503418
 31
0.0
  0
TEXT
  5
589
100
AcDbEntity
  8
GEKO
  6
SOLID
 62
        7
100
AcDbText
 10
1381.941894531
 20
703.903991699
 30
0.0
 40
30.0
  1
15
 72
        5
 11
1425.935741425
 21
703.903991699
 31
0.0
100
AcDbText
  0
ENDBLK
  5
58A
100
AcDbEntity
  8
0
100
AcDbBlockEnd
  0
BLOCK
  5
58D
100
AcDbEntity
  8
0
100
AcDbBlockBegin
  2
*H20
 70
        0
 10
0.0
 20
0.0
 30
0.0
  3
*H20
  1

  0
LINE
  5
58E
100
AcDbEntity
  8
GEKO
  6
SOLID
 62
        7
100
AcDbLine
 10
630.495361328
 20
39.303466797
 30
0.0
 11
633.433837891
 21
42.240966797
 31
0.0
  0
LINE
  5
58F
100
AcDbEntity
  8
GEKO
  6
SOLID
 62
        7
100
AcDbLine
 10
635.251220703
 20
41.937255859
 30
0.0
 11
630.770751953
 21
37.456787109
 31
0.0
  0
LINE
  5
590
100
AcDbEntity
  8
GEKO
  6
SOLID
 62
        7
100
AcDbLine
 10
631.677978516
 20
36.242919922
 30
0.0
 11
636.421142578
 21
40.986083984
 31
0.0
  0
LINE
  5
591
100
AcDbEntity
  8
GEKO
  6
SOLID
 62
        7
100
AcDbLine
 10
637.116455078
 20
39.559326172
 30
0.0
 11
633.053955078
 21
35.497802734
 31
0.0
  0
LINE
  5
592
100
AcDbEntity
  8
GEKO
  6
SOLID
 62
        7
100
AcDbLine
 10
635.831298828
 20
36.154052734
 30
0.0
 11
636.661376953
 21
36.983154297
 31
0.0
  0
ENDBLK
  5
593
100
AcDbEntity
  8
0
100
AcDbBlockEnd
  0
BLOCK
  5
596
100
AcDbEntity
  8
0
100
AcDbBlockBegin
  2
*H21
 70
        0
 10
0.0
 20
0.0
 30
0.0
  3
*H21
  1

  0
LINE
  5
597
100
AcDbEntity
  8
GEKO
  6
SOLID
 62
        7
100
AcDbLine
 10
870.893066406
 20
39.303466797
 30
0.0
 11
873.830566406
 21
42.240966797
 31
0.0
  0
LINE
  5
598
100
AcDbEntity
  8
GEKO
  6
SOLID
 62
        7
100
AcDbLine
 10
875.646972656
 20
41.937255859
 30
0.0
 11
871.168457031
 21
37.456787109
 31
0.0
  0
LINE
  5
599
100
AcDbEntity
  8
GEKO
  6
SOLID
 62
        7
100
AcDbLine
 10
872.074707031
 20
36.242919922
 30
0.0
 11
876.818847656
 21
40.986083984
 31
0.0
  0
LINE
  5
59A
100
AcDbEntity
  8
GEKO
  6
SOLID
 62
        7
100
AcDbLine
 10
877.512207031
 20
39.559326172
 30
0.0
 11
873.450683594
 21
35.497802734
 31
0.0
  0
LINE
  5
59B
100
AcDbEntity
  8
GEKO
  6
SOLID
 62
        7
100
AcDbLine
 10
876.229003906
 20
36.154052734
 30
0.0
 11
877.057128906
 21
36.983154297
 31
0.0
  0
ENDBLK
  5
59C
100
AcDbEntity
  8
0
100
AcDbBlockEnd
  0
BLOCK
  5
59F
100
AcDbEntity
  8
0
100
AcDbBlockBegin
  2
*D22
 70
        0
 10
0.0
 20
0.0
 30
0.0
  3
*D22
  1

  0
LINE
  5
5A0
100
AcDbEntity
  8
GEKO
  6
SOLID
 62
        7
100
AcDbLine
 10
777.370361328
 20
-36.144775391
 30
0.0
 11
628.710205078
 21
-36.144775391
 31
0.0
  0
LINE
  5
5A1
100
AcDbEntity
  8
GEKO
  6
SOLID
 62
        7
100
AcDbLine
 10
777.370361328
 20
113.855224609
 30
0.0
 11
628.710205078
 21
113.855224609
 31
0.0
  0
LINE
  5
5A2
100
AcDbEntity
  8
GEKO
  6
SOLID
 62
        7
100
AcDbLine
 10
633.710205078
 20
-36.144775391
 30
0.0
 11
633.710205078
 21
113.855224609
 31
0.0
  0
LINE
  5
5A3
100
AcDbEntity
  8
GEKO
  6
SOLID
 62
        7
100
AcDbLine
 10
628.710693359
 20
-6.144775391
 30
0.0
 11
633.710205078
 21
-36.144775391
 31
0.0
  0
LINE
  5
5A4
100
AcDbEntity
  8
GEKO
  6
SOLID
 62
        7
100
AcDbLine
 10
633.710205078
 20
-36.144775391
 30
0.0
 11
638.709716797
 21
-6.144775391
 31
0.0
  0
LINE
  5
5A5
100
AcDbEntity
  8
GEKO
  6
SOLID
 62
        7
100
AcDbLine
 10
638.709716797
 20
-6.144775391
 30
0.0
 11
628.710693359
 21
-6.144775391
 31
0.0
  0
LINE
  5
5A6
100
AcDbEntity
  8
GEKO
  6
SOLID
 62
        7
100
AcDbLine
 10
633.710205078
 20
113.855224609
 30
0.0
 11
633.710205078
 21
-36.144775391
 31
0.0
  0
LINE
  5
5A7
100
AcDbEntity
  8
GEKO
  6
SOLID
 62
        7
100
AcDbLine
 10
638.709716797
 20
83.855224609
 30
0.0
 11
633.710205078
 21
113.855224609
 31
0.0
  0
LINE
  5
5A8
100
AcDbEntity
  8
GEKO
  6
SOLID
 62
        7
100
AcDbLine
 10
633.710205078
 20
113.855224609
 30
0.0
 11
628.710693359
 21
83.855224609
 31
0.0
  0
LINE
  5
5A9
100
AcDbEntity
  8
GEKO
  6
SOLID
 62
        7
100
AcDbLine
 10
628.710693359
 20
83.855224609
 30
0.0
 11
638.709716797
 21
83.855224609
 31
0.0
  0
TEXT
  5
5AA
100
AcDbEntity
  8
GEKO
  6
SOLID
 62
        7
100
AcDbText
 10
618.710205078
 20
3.609839439
 30
0.0
 40
30.0
  1
150
 50
90.000002504
 72
        5
 11
618.710201997
 21
74.100607872
 31
0.0
100
AcDbText
  0
ENDBLK
  5
5AB
100
AcDbEntity
  8
0
100
AcDbBlockEnd
  0
BLOCK
  5
5AE
100
AcDbEntity
  8
0
100
AcDbBlockBegin
  2
*D23
 70
        0
 10
0.0
 20
0.0
 30
0.0
  3
*D23
  1

  0
LINE
  5
5AF
100
AcDbEntity
  8
GEKO
  6
SOLID
 62
        7
100
AcDbLine
 10
744.894775391
 20
-56.144775391
 30
0.0
 11
879.400268555
 21
-56.144775391
 31
0.0
  0
LINE
  5
5B0
100
AcDbEntity
  8
GEKO
  6
SOLID
 62
        7
100
AcDbLine
 10
744.894775391
 20
133.855224609
 30
0.0
 11
879.400268555
 21
133.855224609
 31
0.0
  0
LINE
  5
5B1
100
AcDbEntity
  8
GEKO
  6
SOLID
 62
        7
100
AcDbLine
 10
874.400268555
 20
-56.144775391
 30
0.0
 11
874.400268555
 21
133.855224609
 31
0.0
  0
LINE
  5
5B2
100
AcDbEntity
  8
GEKO
  6
SOLID
 62
        7
100
AcDbLine
 10
869.400756836
 20
-26.144775391
 30
0.0
 11
874.400268555
 21
-56.144775391
 31
0.0
  0
LINE
  5
5B3
100
AcDbEntity
  8
GEKO
  6
SOLID
 62
        7
100
AcDbLine
 10
874.400268555
 20
-56.144775391
 30
0.0
 11
879.399780273
 21
-26.144775391
 31
0.0
  0
LINE
  5
5B4
100
AcDbEntity
  8
GEKO
  6
SOLID
 62
        7
100
AcDbLine
 10
879.399780273
 20
-26.144775391
 30
0.0
 11
869.400756836
 21
-26.144775391
 31
0.0
  0
LINE
  5
5B5
100
AcDbEntity
  8
GEKO
  6
SOLID
 62
        7
100
AcDbLine
 10
874.400268555
 20
133.855224609
 30
0.0
 11
874.400268555
 21
-56.144775391
 31
0.0
  0
LINE
  5
5B6
100
AcDbEntity
  8
GEKO
  6
SOLID
 62
        7
100
AcDbLine
 10
879.399780273
 20
103.855224609
 30
0.0
 11
874.400268555
 21
133.855224609
 31
0.0
  0
LINE
  5
5B7
100
AcDbEntity
  8
GEKO
  6
SOLID
 62
        7
100
AcDbLine
 10
874.400268555
 20
133.855224609
 30
0.0
 11
869.400756836
 21
103.855224609
 31
0.0
  0
LINE
  5
5B8
100
AcDbEntity
  8
GEKO
  6
SOLID
 62
        7
100
AcDbLine
 10
869.400756836
 20
103.855224609
 30
0.0
 11
879.399780273
 21
103.855224609
 31
0.0
  0
TEXT
  5
5B9
100
AcDbEntity
  8
GEKO
  6
SOLID
 62
        7
100
AcDbText
 10
859.400268555
 20
3.609839439
 30
0.0
 40
30.0
  1
190
 50
90.000002504
 72
        5
 11
859.400265473
 21
74.100607872
 31
0.0
100
AcDbText
  0
ENDBLK
  5
5BA
100
AcDbEntity
  8
0
100
AcDbBlockEnd
  0
BLOCK
  5
5BD
100
AcDbEntity
  8
0
100
AcDbBlockBegin
  2
*D24
 70
        0
 10
0.0
 20
0.0
 30
0.0
  3
*D24
  1

  0
LINE
  5
5BE
100
AcDbEntity
  8
GEKO
  6
SOLID
 62
        7
100
AcDbLine
 10
1076.393798828
 20
193.855224609
 30
0.0
 11
1164.852905273
 21
193.855224609
 31
0.0
  0
LINE
  5
5BF
100
AcDbEntity
  8
GEKO
  6
SOLID
 62
        7
100
AcDbLine
 10
1076.393798828
 20
283.855224609
 30
0.0
 11
1164.852905273
 21
283.855224609
 31
0.0
  0
LINE
  5
5C0
100
AcDbEntity
  8
GEKO
  6
SOLID
 62
        7
100
AcDbLine
 10
1163.352905273
 20
193.855224609
 30
0.0
 11
1163.352905273
 21
148.855224609
 31
0.0
  0
LINE
  5
5C1
100
AcDbEntity
  8
GEKO
  6
SOLID
 62
        7
100
AcDbLine
 10
1163.352905273
 20
148.855224609
 30
0.0
 11
1163.352905273
 21
328.855224609
 31
0.0
  0
LINE
  5
5C2
100
AcDbEntity
  8
GEKO
  6
SOLID
 62
        7
100
AcDbLine
 10
1168.352416992
 20
163.855224609
 30
0.0
 11
1163.352905273
 21
193.855224609
 31
0.0
  0
LINE
  5
5C3
100
AcDbEntity
  8
GEKO
  6
SOLID
 62
        7
100
AcDbLine
 10
1163.352905273
 20
193.855224609
 30
0.0
 11
1158.353393555
 21
163.855224609
 31
0.0
  0
LINE
  5
5C4
100
AcDbEntity
  8
GEKO
  6
SOLID
 62
        7
100
AcDbLine
 10
1158.353393555
 20
163.855224609
 30
0.0
 11
1168.352416992
 21
163.855224609
 31
0.0
  0
LINE
  5
5C5
100
AcDbEntity
  8
GEKO
  6
SOLID
 62
        7
100
AcDbLine
 10
1163.352905273
 20
283.855224609
 30
0.0
 11
1163.352905273
 21
328.855224609
 31
0.0
  0
LINE
  5
5C6
100
AcDbEntity
  8
GEKO
  6
SOLID
 62
        7
100
AcDbLine
 10
1163.352905273
 20
328.855224609
 30
0.0
 11
1163.352905273
 21
148.855224609
 31
0.0
  0
LINE
  5
5C7
100
AcDbEntity
  8
GEKO
  6
SOLID
 62
        7
100
AcDbLine
 10
1158.353393555
 20
313.855224609
 30
0.0
 11
1163.352905273
 21
283.855224609
 31
0.0
  0
LINE
  5
5C8
100
AcDbEntity
  8
GEKO
  6
SOLID
 62
        7
100
AcDbLine
 10
1163.352905273
 20
283.855224609
 30
0.0
 11
1168.352416992
 21
313.855224609
 31
0.0
  0
LINE
  5
5C9
100
AcDbEntity
  8
GEKO
  6
SOLID
 62
        7
100
AcDbLine
 10
1168.352416992
 20
313.855224609
 30
0.0
 11
1158.353393555
 21
313.855224609
 31
0.0
  0
TEXT
  5
5CA
100
AcDbEntity
  8
GEKO
  6
SOLID
 62
        7
100
AcDbText
 10
1148.352905273
 20
216.858306885
 30
0.0
 40
30.0
  1
90
 50
90.000002504
 72
        5
 11
1148.35290335
 21
260.852153778
 31
0.0
100
AcDbText
  0
ENDBLK
  5
5CB
100
AcDbEntity
  8
0
100
AcDbBlockEnd
  0
BLOCK
  5
5CE
100
AcDbEntity
  8
0
100
AcDbBlockBegin
  2
*D25
 70
        0
 10
0.0
 20
0.0
 30
0.0
  3
*D25
  1

  0
LINE
  5
5CF
100
AcDbEntity
  8
GEKO
  6
SOLID
 62
        7
100
AcDbLine
 10
714.894775391
 20
285.355224609
 30
0.0
 11
714.894775391
 21
369.304443359
 31
0.0
  0
LINE
  5
5D0
100
AcDbEntity
  8
GEKO
  6
SOLID
 62
        7
100
AcDbLine
 10
1074.894775391
 20
285.355224609
 30
0.0
 11
1074.894775391
 21
369.304443359
 31
0.0
  0
LINE
  5
5D1
100
AcDbEntity
  8
GEKO
  6
SOLID
 62
        7
100
AcDbLine
 10
714.894775391
 20
367.804443359
 30
0.0
 11
1074.894775391
 21
367.804443359
 31
0.0
  0
LINE
  5
5D2
100
AcDbEntity
  8
GEKO
  6
SOLID
 62
        7
100
AcDbLine
 10
744.894775391
 20
372.803955078
 30
0.0
 11
714.894775391
 21
367.804443359
 31
0.0
  0
LINE
  5
5D3
100
AcDbEntity
  8
GEKO
  6
SOLID
 62
        7
100
AcDbLine
 10
714.894775391
 20
367.804443359
 30
0.0
 11
744.894775391
 21
362.804931641
 31
0.0
  0
LINE
  5
5D4
100
AcDbEntity
  8
GEKO
  6
SOLID
 62
        7
100
AcDbLine
 10
744.894775391
 20
362.804931641
 30
0.0
 11
744.894775391
 21
372.803955078
 31
0.0
  0
LINE
  5
5D5
100
AcDbEntity
  8
GEKO
  6
SOLID
 62
        7
100
AcDbLine
 10
1074.894775391
 20
367.804443359
 30
0.0
 11
714.894775391
 21
367.804443359
 31
0.0
  0
LINE
  5
5D6
100
AcDbEntity
  8
GEKO
  6
SOLID
 62
        7
100
AcDbLine
 10
1044.894775391
 20
362.804931641
 30
0.0
 11
1074.894775391
 21
367.804443359
 31
0.0
  0
LINE
  5
5D7
100
AcDbEntity
  8
GEKO
  6
SOLID
 62
        7
100
AcDbLine
 10
1074.894775391
 20
367.804443359
 30
0.0
 11
1044.894775391
 21
372.803955078
 31
0.0
  0
LINE
  5
5D8
100
AcDbEntity
  8
GEKO
  6
SOLID
 62
        7
100
AcDbLine
 10
1044.894775391
 20
372.803955078
 30
0.0
 11
1044.894775391
 21
362.804931641
 31
0.0
  0
TEXT
  5
5D9
100
AcDbEntity
  8
GEKO
  6
SOLID
 62
        7
100
AcDbText
 10
753.655578613
 20
382.804443359
 30
0.0
 40
30.0
  1
%%c
 72
        5
 11
773.654039383
 21
382.804443359
 31
0.0
100
AcDbText
  0
TEXT
  5
5DA
100
AcDbEntity
  8
GEKO
  6
SOLID
 62
        7
100
AcDbText
 10
789.155578613
 20
382.804443359
 30
0.0
 40
30.0
  1
320
 72
        5
 11
859.646347046
 21
382.804443359
 31
0.0
100
AcDbText
  0
TEXT
  5
5DB
100
AcDbEntity
  8
GEKO
  6
SOLID
 62
        7
100
AcDbText
 10
868.655578613
 20
382.804443359
 30
0.0
 40
30.0
  1
-700max
 72
        5
 11
1045.134033203
 21
382.804443359
 31
0.0
100
AcDbText
  0
ENDBLK
  5
5DC
100
AcDbEntity
  8
0
100
AcDbBlockEnd
  0
ENDSEC
  0
SECTION
  2
ENTITIES
  0
LINE
  5
56
100
AcDbEntity
  8
GEKO
  6
SOLID
 62
        7
100
AcDbLine
 10
1060.84067888
 20
995.808591349
 30
0.0
 11
1129.168885642
 21
740.804252122
 31
0.0
  0
LINE
  5
57
100
AcDbEntity
  8
GEKO
  6
SOLID
 62
        7
100
AcDbLine
 10
1127.873212576
 20
744.598211532
 30
0.0
 11
1116.764999476
 21
741.621774802
 31
0.0
  0
ARC
  5
58
100
AcDbEntity
  8
GEKO
  6
SOLID
 62
        7
100
AcDbCircle
 10
1061.995433197
 20
998.184837877
 30
0.0
 40
2.0
100
AcDbArc
 50
285.0
 51
24.629682186
  0
LINE
  5
59
100
AcDbEntity
  8
GEKO
  6
SOLID
 62
        7
100
AcDbLine
 10
1062.513071287
 20
996.252986224
 30
0.0
 11
1060.581219634
 21
995.735348134
 31
0.0
  0
LINE
  5
5A
100
AcDbEntity
  8
GEKO
  6
SOLID
 62
        7
100
AcDbLine
 10
1060.580289304
 20
995.738820172
 30
0.0
 11
1057.682511826
 21
994.962363037
 31
0.0
  0
ARC
  5
5B
100
AcDbEntity
  8
GEKO
  6
SOLID
 62
        7
100
AcDbCircle
 10
1056.648806175
 20
999.861763345
 30
0.0
 40
5.0
100
AcDbArc
 50
195.0
 51
285.259566314
  0
LINE
  5
5C
100
AcDbEntity
  8
GEKO
  6
SOLID
 62
        7
100
AcDbLine
 10
1060.580260956
 20
995.738866029
 30
0.0
 11
1057.964767651
 21
995.038046376
 31
0.0
  0
ARC
  5
5D
100
AcDbEntity
  8
GEKO
  6
SOLID
 62
        7
100
AcDbCircle
 10
1258.618850807
 20
1125.982989898
 30
0.0
 40
2.0
100
AcDbArc
 50
295.286560611
 51
15.0
  0
ARC
  5
5E
100
AcDbEntity
  8
GEKO
  6
SOLID
 62
        7
100
AcDbCircle
 10
1249.873409279
 20
1177.939938538
 30
0.0
 40
15.0
100
AcDbArc
 50
302.104635177
 51
267.895364823
  0
LINE
  5
5F
100
AcDbEntity
  8
GEKO
  6
SOLID
 62
        7
100
AcDbLine
 10
1260.550702459
 20
1126.500627988
 30
0.0
 11
1251.180943525
 21
1161.469044385
 31
0.0
  0
LINE
  5
60
100
AcDbEntity
  8
GEKO
  6
SOLID
 62
        7
100
AcDbLine
 10
1424.745710452
 20
760.992982567
 30
0.0
 11
1422.296220709
 21
762.407196129
 31
0.0
  0
LINE
  5
61
100
AcDbEntity
  8
GEKO
  6
SOLID
 62
        7
100
AcDbLine
 10
1445.99607863
 20
766.687001559
 30
0.0
 11
1424.745710452
 21
760.992982567
 31
0.0
  0
LINE
  5
62
100
AcDbEntity
  8
GEKO
  6
SOLID
 62
        7
100
AcDbLine
 10
1445.99607863
 20
766.687001559
 30
0.0
 11
1447.410292193
 21
769.136491302
 31
0.0
  0
LINE
  5
63
100
AcDbEntity
  8
GEKO
  6
SOLID
 62
        7
100
AcDbLine
 10
1216.674174594
 20
714.557966936
 30
0.0
 11
1218.020038252
 21
709.535135386
 31
0.0
  0
LINE
  5
64
100
AcDbEntity
  8
GEKO
  6
SOLID
 62
        7
100
AcDbLine
 10
1219.502601719
 20
719.456946422
 30
0.0
 11
1209.92629705
 21
755.196201995
 31
0.0
  0
LINE
  5
65
100
AcDbEntity
  8
GEKO
  6
SOLID
 62
        7
100
AcDbLine
 10
1447.410292193
 20
769.136491302
 30
0.0
 11
1398.493492668
 21
951.69647247
 31
0.0
  0
LINE
  5
66
100
AcDbEntity
  8
GEKO
  6
SOLID
 62
        7
100
AcDbLine
 10
1325.8767553
 20
1129.976858421
 30
0.0
 11
1324.46254203
 21
1127.52736851
 31
0.0
  0
LINE
  5
67
100
AcDbEntity
  8
GEKO
  6
SOLID
 62
        7
100
AcDbLine
 10
1116.402514888
 20
-48.143208243
 30
0.0
 11
1116.402514888
 21
118.856793757
 31
0.0
  0
ARC
  5
68
100
AcDbEntity
  8
GEKO
  6
SOLID
 62
        7
100
AcDbCircle
 10
903.3946583
 20
953.62150086
 30
0.0
 40
180.0
100
AcDbArc
 50
152.733771833
 51
207.266228167
  0
LINE
  5
69
100
AcDbEntity
  8
GEKO
  6
SOLID
 62
        7
100
AcDbLine
 10
1324.46254203
 20
1127.52736851
 30
0.0
 11
1373.379392262
 21
944.967285238
 31
0.0
  0
LINE
  5
6A
100
AcDbEntity
  8
GEKO
  6
SOLID
 62
        7
100
AcDbLine
 10
1392.865151937
 20
810.426187224
 30
0.0
 11
1322.98400976
 21
1071.226160322
 31
0.0
  0
ARC
  5
6C
100
AcDbEntity
  8
GEKO
  6
L_DASH
 62
        7
100
AcDbCircle
 10
903.3946583
 20
953.62150086
 30
0.0
 40
180.0
100
AcDbArc
 50
131.409622109
 51
152.733771833
  0
ARC
  5
6D
100
AcDbEntity
  8
GEKO
  6
SOLID
 62
        7
100
AcDbCircle
 10
903.3946583
 20
953.62150086
 30
0.0
 40
180.0
100
AcDbArc
 50
45.558431786
 51
131.409622109
  0
ARC
  5
6E
100
AcDbEntity
  8
GEKO
  6
SOLID
 62
        7
100
AcDbCircle
 10
1067.449555189
 20
1000.685348484
 30
0.0
 40
4.0
100
AcDbArc
 50
105.000006837
 51
204.629682186
  0
LINE
  5
6F
100
AcDbEntity
  8
GEKO
  6
SOLID
 62
        7
100
AcDbLine
 10
1347.127122799
 20
1135.670879949
 30
0.0
 11
1325.8767553
 21
1129.976858421
 31
0.0
  0
LINE
  5
70
100
AcDbEntity
  8
GEKO
  6
SOLID
 62
        7
100
AcDbLine
 10
1120.409278225
 20
-48.143208243
 30
0.0
 11
1120.409278225
 21
-53.743691669
 31
0.0
  0
LINE
  5
71
100
AcDbEntity
  8
GEKO
  6
SOLID
 62
        7
100
AcDbLine
 10
1422.296220709
 20
762.407196129
 30
0.0
 11
1373.379392262
 21
944.967285238
 31
0.0
  0
LINE
  5
72
100
AcDbEntity
  8
GEKO
  6
SOLID
 62
        7
100
AcDbLine
 10
1347.127122799
 20
1135.670879949
 30
0.0
 11
1349.57661271
 21
1134.256666679
 31
0.0
  0
LINE
  5
73
100
AcDbEntity
  8
GEKO
  6
SOLID
 62
        7
100
AcDbLine
 10
1266.346257417
 20
1128.053542258
 30
0.0
 11
1256.976498483
 21
1163.021958656
 31
0.0
  0
ARC
  5
74
100
AcDbEntity
  8
GEKO
  6
SOLID
 62
        7
100
AcDbCircle
 10
1268.278109069
 20
1128.571180349
 30
0.0
 40
2.0
100
AcDbArc
 50
195.0
 51
274.713439389
  0
CIRCLE
  5
75
100
AcDbEntity
  8
GEKO
  6
SOLID
 62
        7
100
AcDbCircle
 10
1173.902514888
 20
-43.143206243
 30
0.0
 40
5.0
  0
ARC
  5
76
100
AcDbEntity
  8
GEKO
  6
SOLID
 62
        7
100
AcDbCircle
 10
1249.249091872
 20
1160.951406295
 30
0.0
 40
2.0
100
AcDbArc
 50
15.0
 51
87.895364823
  0
CIRCLE
  5
77
100
AcDbEntity
  8
GEKO
  6
SOLID
 62
        7
100
AcDbCircle
 10
1249.873409279
 20
1177.939938538
 30
0.0
 40
5.0
  0
ARC
  5
78
100
AcDbEntity
  8
GEKO
  6
SOLID
 62
        7
100
AcDbCircle
 10
1258.908350135
 20
1163.539596746
 30
0.0
 40
2.0
100
AcDbArc
 50
122.104635177
 51
195.0
  0
LINE
  5
79
100
AcDbEntity
  8
GEKO
  6
SOLID
 62
        7
100
AcDbLine
 10
1263.968798591
 20
1183.070240688
 30
0.0
 11
1290.399009689
 21
1117.493366472
 31
0.0
  0
LINE
  5
7A
100
AcDbEntity
  8
GEKO
  6
SOLID
 62
        7
100
AcDbLine
 10
1235.101292984
 20
1175.335215873
 30
0.0
 11
1245.000495854
 21
1105.328871352
 31
0.0
  0
ARC
  5
7B
100
AcDbEntity
  8
GEKO
  6
SOLID
 62
        7
100
AcDbCircle
 10
1270.578932887
 20
1100.665872435
 30
0.0
 40
26.0
100
AcDbArc
 50
40.331675017
 51
169.668324983
  0
ARC
  5
7C
100
AcDbEntity
  8
GEKO
  6
SOLID
 62
        7
100
AcDbCircle
 10
1270.578932887
 20
1100.665872435
 30
0.0
 40
26.0
100
AcDbArc
 50
220.331675017
 51
349.668324983
  0
LINE
  5
7D
100
AcDbEntity
  8
GEKO
  6
SOLID
 62
        7
100
AcDbLine
 10
1304.148645856
 20
1066.179239775
 30
0.0
 11
1322.98400976
 21
1071.226160322
 31
0.0
  0
CIRCLE
  5
7E
100
AcDbEntity
  8
GEKO
  6
SOLID
 62
        7
100
AcDbCircle
 10
1270.578932887
 20
1100.665872435
 30
0.0
 40
12.0
  0
LINE
  5
7F
100
AcDbEntity
  8
GEKO
  6
SOLID
 62
        7
100
AcDbLine
 10
1304.148591498
 20
1066.17922858
 30
0.0
 11
1290.399009689
 21
1117.493366472
 31
0.0
  0
LINE
  5
80
100
AcDbEntity
  8
GEKO
  6
SOLID
 62
        7
100
AcDbLine
 10
1349.57661271
 20
1134.256666679
 30
0.0
 11
1398.49343402
 21
951.696691348
 31
0.0
  0
LINE
  5
81
100
AcDbEntity
  8
GEKO
  6
SOLID
 62
        7
100
AcDbLine
 10
1204.71688528
 20
1044.306075158
 30
0.0
 11
1275.531611524
 21
780.022045044
 31
0.0
  0
LINE
  5
82
100
AcDbEntity
  8
GEKO
  6
SOLID
 62
        7
100
AcDbLine
 10
1258.750077662
 20
1054.01473346
 30
0.0
 11
1245.000495854
 21
1105.328871352
 31
0.0
  0
CIRCLE
  5
83
100
AcDbEntity
  8
GEKO
  6
SOLID
 62
        7
100
AcDbCircle
 10
1173.902514888
 20
123.856793757
 30
0.0
 40
5.0
  0
LINE
  5
84
100
AcDbEntity
  8
GEKO
  6
SOLID
 62
        7
100
AcDbLine
 10
1231.402514888
 20
-38.143208243
 30
0.0
 11
1221.402514888
 21
-38.143208243
 31
0.0
  0
LINE
  5
85
100
AcDbEntity
  8
GEKO
  6
SOLID
 62
        7
100
AcDbLine
 10
1264.046586219
 20
1094.133669621
 30
0.0
 11
1272.969426792
 21
1091.742801695
 31
0.0
  0
LINE
  5
86
100
AcDbEntity
  8
GEKO
  6
SOLID
 62
        7
100
AcDbLine
 10
1374.029788034
 20
805.379266677
 30
0.0
 11
1392.865151937
 21
810.426187224
 31
0.0
  0
LINE
  5
87
100
AcDbEntity
  8
GEKO
  6
SOLID
 62
        7
100
AcDbLine
 10
1222.754402445
 20
1102.154930601
 30
0.0
 11
1226.732393711
 21
1103.220830149
 31
0.0
  0
LINE
  5
88
100
AcDbEntity
  8
GEKO
  6
SOLID
 62
        7
100
AcDbLine
 10
1222.903072234
 20
1099.352646924
 30
0.0
 11
1219.538424648
 21
1111.909682666
 31
0.0
  0
ARC
  5
89
100
AcDbEntity
  8
GEKO
  6
SOLID
 62
        7
100
AcDbCircle
 10
1233.207050462
 20
1108.842884741
 30
0.0
 40
12.409132974
100
AcDbArc
 50
177.387526014
 51
212.612473986
  0
ARC
  5
8A
100
AcDbEntity
  8
GEKO
  6
SOLID
 62
        7
100
AcDbCircle
 10
1225.882427097
 20
1101.050502091
 30
0.0
 40
3.317273061
100
AcDbArc
 50
160.553127618
 51
220.553127618
  0
LINE
  5
8B
100
AcDbEntity
  8
GEKO
  6
SOLID
 62
        7
100
AcDbLine
 10
1223.72569254
 20
1098.530026619
 30
0.0
 11
1227.703683806
 21
1099.595926166
 31
0.0
  0
LINE
  5
8C
100
AcDbEntity
  8
GEKO
  6
SOLID
 62
        7
100
AcDbLine
 10
1223.72569254
 20
1098.530026619
 30
0.0
 11
1222.903072234
 21
1099.352646924
 31
0.0
  0
LINE
  5
8D
100
AcDbEntity
  8
GEKO
  6
SOLID
 62
        7
100
AcDbLine
 10
1227.235868382
 20
1101.341837097
 30
0.0
 11
1227.703683806
 21
1099.595926166
 31
0.0
  0
LINE
  5
8E
100
AcDbEntity
  8
GEKO
  6
SOLID
 62
        7
100
AcDbLine
 10
1223.817515844
 20
1114.099302448
 30
0.0
 11
1227.235868382
 21
1101.341837097
 31
0.0
  0
LINE
  5
8F
100
AcDbEntity
  8
GEKO
  6
SOLID
 62
        7
100
AcDbLine
 10
1227.235868382
 20
1101.341837097
 30
0.0
 11
1227.815423878
 21
1101.497128524
 31
0.0
  0
LINE
  5
90
100
AcDbEntity
  8
GEKO
  6
SOLID
 62
        7
100
AcDbLine
 10
1220.810814672
 20
1109.408498917
 30
0.0
 11
1224.788805939
 21
1110.474398465
 31
0.0
  0
ARC
  5
91
100
AcDbEntity
  8
GEKO
  6
SOLID
 62
        7
100
AcDbCircle
 10
1222.96754923
 20
1111.92897439
 30
0.0
 40
3.317273061
100
AcDbArc
 50
169.446872382
 51
229.446872382
  0
LINE
  5
92
100
AcDbEntity
  8
GEKO
  6
SOLID
 62
        7
100
AcDbLine
 10
1219.839524577
 20
1113.0334029
 30
0.0
 11
1219.538424648
 21
1111.909682666
 31
0.0
  0
LINE
  5
93
100
AcDbEntity
  8
GEKO
  6
SOLID
 62
        7
100
AcDbLine
 10
1219.839524577
 20
1113.0334029
 30
0.0
 11
1224.397584879
 21
1114.254731477
 31
0.0
  0
LINE
  5
94
100
AcDbEntity
  8
GEKO
  6
SOLID
 62
        7
100
AcDbLine
 10
1227.287875283
 20
1103.465966684
 30
0.0
 11
1230.910097131
 21
1104.436538103
 31
0.0
  0
LINE
  5
95
100
AcDbEntity
  8
GEKO
  6
SOLID
 62
        7
100
AcDbLine
 10
1230.99765335
 20
1104.109773848
 30
0.0
 11
1242.089560724
 21
1107.081841471
 31
0.0
  0
LINE
  5
96
100
AcDbEntity
  8
GEKO
  6
SOLID
 62
        7
100
AcDbLine
 10
1230.799187671
 20
1104.850457845
 30
0.0
 11
1242.631779043
 21
1108.020991148
 31
0.0
  0
LINE
  5
97
100
AcDbEntity
  8
GEKO
  6
SOLID
 62
        7
100
AcDbLine
 10
1228.927100989
 20
1111.837180458
 30
0.0
 11
1230.99765335
 21
1104.109773848
 31
0.0
  0
LINE
  5
98
100
AcDbEntity
  8
GEKO
  6
SOLID
 62
        7
100
AcDbLine
 10
1225.392435358
 20
1110.539844784
 30
0.0
 11
1229.014657207
 21
1111.510416203
 31
0.0
  0
LINE
  5
99
100
AcDbEntity
  8
GEKO
  6
SOLID
 62
        7
100
AcDbLine
 10
1229.125566668
 20
1111.09649646
 30
0.0
 11
1240.95815804
 21
1114.267029763
 31
0.0
  0
LINE
  5
9A
100
AcDbEntity
  8
GEKO
  6
SOLID
 62
        7
100
AcDbLine
 10
1228.927100989
 20
1111.837180458
 30
0.0
 11
1240.019008363
 21
1114.809248081
 31
0.0
  0
LINE
  5
9B
100
AcDbEntity
  8
GEKO
  6
SOLID
 62
        7
100
AcDbLine
 10
1240.95815804
 20
1114.267029763
 30
0.0
 11
1242.631779043
 21
1108.020991148
 31
0.0
  0
LINE
  5
9C
100
AcDbEntity
  8
GEKO
  6
SOLID
 62
        7
100
AcDbLine
 10
1240.95815804
 20
1114.267029763
 30
0.0
 11
1240.019008363
 21
1114.809248081
 31
0.0
  0
LINE
  5
9D
100
AcDbEntity
  8
GEKO
  6
SOLID
 62
        7
100
AcDbLine
 10
1240.019008363
 20
1114.809248081
 30
0.0
 11
1242.089560724
 21
1107.081841471
 31
0.0
  0
LINE
  5
9E
100
AcDbEntity
  8
GEKO
  6
SOLID
 62
        7
100
AcDbLine
 10
1242.089560724
 20
1107.081841471
 30
0.0
 11
1242.631779043
 21
1108.020991148
 31
0.0
  0
LINE
  5
9F
100
AcDbEntity
  8
GEKO
  6
SOLID
 62
        7
100
AcDbLine
 10
1283.290700175
 20
1135.130135678
 30
0.0
 11
1286.874929034
 21
1136.090526907
 31
0.0
  0
LINE
  5
A0
100
AcDbEntity
  8
GEKO
  6
SOLID
 62
        7
100
AcDbLine
 10
1284.797059073
 20
1131.392658607
 30
0.0
 11
1287.910205215
 21
1132.226823602
 31
0.0
  0
LINE
  5
A1
100
AcDbEntity
  8
GEKO
  6
SOLID
 62
        7
100
AcDbLine
 10
1272.969886816
 20
1091.742924958
 30
0.0
 11
1273.292643603
 21
1090.53838023
 31
0.0
  0
LINE
  5
A2
100
AcDbEntity
  8
GEKO
  6
SOLID
 62
        7
100
AcDbLine
 10
1222.235912599
 20
1080.765409252
 30
0.0
 11
1222.617913621
 21
1082.618855652
 31
0.0
  0
LINE
  5
A3
100
AcDbEntity
  8
GEKO
  6
SOLID
 62
        7
100
AcDbLine
 10
1220.650268351
 20
1080.765409252
 30
0.0
 11
1222.235912599
 21
1080.765409252
 31
0.0
  0
LINE
  5
A4
100
AcDbEntity
  8
GEKO
  6
SOLID
 62
        7
100
AcDbLine
 10
1216.989300444
 20
1077.236442026
 30
0.0
 11
1220.650268351
 21
1080.765409252
 31
0.0
  0
LINE
  5
A5
100
AcDbEntity
  8
GEKO
  6
SOLID
 62
        7
100
AcDbLine
 10
1261.655718293
 20
1103.056510194
 30
0.0
 11
1264.046586219
 21
1094.133669621
 31
0.0
  0
ARC
  5
A6
100
AcDbEntity
  8
GEKO
  6
SOLID
 62
        7
100
AcDbCircle
 10
1231.125252968
 20
1099.13105764
 30
0.0
 40
18.574919576
100
AcDbArc
 50
242.741782881
 51
292.473098147
  0
ARC
  5
A7
100
AcDbEntity
  8
GEKO
  6
SOLID
 62
        7
100
AcDbCircle
 10
1231.125252968
 20
1099.13105764
 30
0.0
 40
32.574919576
100
AcDbArc
 50
242.741782881
 51
256.87647261
  0
LINE
  5
A8
100
AcDbEntity
  8
GEKO
  6
SOLID
 62
        7
100
AcDbLine
 10
1227.735908099
 20
1086.085144807
 30
0.0
 11
1232.147956882
 21
1083.727037465
 31
0.0
  0
LINE
  5
A9
100
AcDbEntity
  8
GEKO
  6
SOLID
 62
        7
100
AcDbLine
 10
1237.897545383
 20
1117.964039247
 30
0.0
 11
1238.458519383
 21
1115.870455777
 31
0.0
  0
LINE
  5
AA
100
AcDbEntity
  8
GEKO
  6
SOLID
 62
        7
100
AcDbLine
 10
1237.897545383
 20
1117.964039247
 30
0.0
 11
1238.828354248
 21
1114.490213273
 31
0.0
  0
LINE
  5
AB
100
AcDbEntity
  8
GEKO
  6
SOLID
 62
        7
100
AcDbLine
 10
1232.971300825
 20
1117.030517704
 30
0.0
 11
1237.800929956
 21
1118.32461293
 31
0.0
  0
LINE
  5
AC
100
AcDbEntity
  8
GEKO
  6
SOLID
 62
        7
100
AcDbLine
 10
1241.866502879
 20
1103.151688219
 30
0.0
 11
1240.935694015
 21
1106.625514193
 31
0.0
  0
LINE
  5
AD
100
AcDbEntity
  8
GEKO
  6
SOLID
 62
        7
100
AcDbLine
 10
1237.036873748
 20
1101.857592993
 30
0.0
 11
1241.866502879
 21
1103.151688219
 31
0.0
  0
LINE
  5
AE
100
AcDbEntity
  8
GEKO
  6
SOLID
 62
        7
100
AcDbLine
 10
1233.067916252
 20
1116.669944021
 30
0.0
 11
1237.897545383
 21
1117.964039247
 31
0.0
  0
LINE
  5
AF
100
AcDbEntity
  8
GEKO
  6
SOLID
 62
        7
100
AcDbLine
 10
1236.646786067
 20
1122.631936561
 30
0.0
 11
1237.800929956
 21
1118.32461293
 31
0.0
  0
LINE
  5
B0
100
AcDbEntity
  8
GEKO
  6
SOLID
 62
        7
100
AcDbLine
 10
1272.969426792
 20
1091.742801695
 30
0.0
 11
1279.50139944
 21
1098.274774342
 31
0.0
  0
LINE
  5
B1
100
AcDbEntity
  8
GEKO
  6
SOLID
 62
        7
100
AcDbLine
 10
1221.369065206
 20
1105.079693249
 30
0.0
 11
1207.595693759
 21
1101.389129493
 31
0.0
  0
LINE
  5
B2
100
AcDbEntity
  8
GEKO
  6
SOLID
 62
        7
100
AcDbLine
 10
1222.961612399
 20
1099.294757901
 30
0.0
 11
1209.14860803
 21
1095.593574535
 31
0.0
  0
LINE
  5
B3
100
AcDbEntity
  8
GEKO
  6
SOLID
 62
        7
100
AcDbLine
 10
1232.205574172
 20
1104.433435257
 30
0.0
 11
1233.129834533
 21
1100.98404863
 31
0.0
  0
LINE
  5
B4
100
AcDbEntity
  8
GEKO
  6
SOLID
 62
        7
100
AcDbLine
 10
1236.069277477
 20
1105.468711437
 30
0.0
 11
1242.946375875
 21
1079.803030805
 31
0.0
  0
LINE
  5
B5
100
AcDbEntity
  8
GEKO
  6
SOLID
 62
        7
100
AcDbLine
 10
1232.205574172
 20
1104.433435257
 30
0.0
 11
1233.259244055
 21
1100.501085716
 31
0.0
  0
LINE
  5
B6
100
AcDbEntity
  8
GEKO
  6
SOLID
 62
        7
100
AcDbLine
 10
1227.815937417
 20
1101.497266126
 30
0.0
 11
1230.075151311
 21
1093.06576509
 31
0.0
  0
LINE
  5
B7
100
AcDbEntity
  8
GEKO
  6
SOLID
 62
        7
100
AcDbLine
 10
1222.606186409
 20
1120.940321582
 30
0.0
 11
1227.815937417
 21
1101.497266126
 31
0.0
  0
LINE
  5
B8
100
AcDbEntity
  8
GEKO
  6
SOLID
 62
        7
100
AcDbLine
 10
1229.247548856
 20
1115.472936024
 30
0.0
 11
1224.417919725
 21
1114.178840798
 31
0.0
  0
LINE
  5
B9
100
AcDbEntity
  8
GEKO
  6
SOLID
 62
        7
100
AcDbLine
 10
1233.259244055
 20
1100.501085716
 30
0.0
 11
1234.904780442
 21
1094.359860315
 31
0.0
  0
LINE
  5
BA
100
AcDbEntity
  8
GEKO
  6
SOLID
 62
        7
100
AcDbLine
 10
1233.388653578
 20
1100.018122803
 30
0.0
 11
1228.559024447
 21
1098.724027578
 31
0.0
  0
ARC
  5
BB
100
AcDbEntity
  8
GEKO
  6
SOLID
 62
        7
100
AcDbCircle
 10
1225.245522179
 20
1091.771669864
 30
0.0
 40
5.0
100
AcDbArc
 50
330.0
 51
15.0
  0
ARC
  5
BC
100
AcDbEntity
  8
GEKO
  6
SOLID
 62
        7
100
AcDbCircle
 10
1225.245522179
 20
1091.771669864
 30
0.0
 40
10.0
100
AcDbArc
 50
330.0
 51
15.0
  0
LINE
  5
BD
100
AcDbEntity
  8
GEKO
  6
SOLID
 62
        7
100
AcDbLine
 10
1227.435815541
 20
1122.234416808
 30
0.0
 11
1230.135021811
 21
1112.160841867
 31
0.0
  0
LINE
  5
BE
100
AcDbEntity
  8
GEKO
  6
SOLID
 62
        7
100
AcDbLine
 10
1227.435815541
 20
1122.234416808
 30
0.0
 11
1222.606186409
 21
1120.940321582
 31
0.0
  0
LINE
  5
BF
100
AcDbEntity
  8
GEKO
  6
SOLID
 62
        7
100
AcDbLine
 10
1233.905776217
 20
1086.771669864
 30
0.0
 11
1230.327141254
 21
1080.573292286
 31
0.0
  0
LINE
  5
C0
100
AcDbEntity
  8
GEKO
  6
SOLID
 62
        7
100
AcDbLine
 10
1229.575649198
 20
1089.271669864
 30
0.0
 11
1225.119715689
 21
1081.55376663
 31
0.0
  0
ARC
  5
C1
100
AcDbEntity
  8
GEKO
  6
SOLID
 62
        7
100
AcDbCircle
 10
1211.006347418
 20
1085.376248942
 30
0.0
 40
0.85
100
AcDbArc
 50
195.0
 51
15.0
  0
LINE
  5
C2
100
AcDbEntity
  8
GEKO
  6
SOLID
 62
        7
100
AcDbLine
 10
1197.860090892
 20
1098.262844476
 30
0.0
 11
1199.154186117
 21
1093.433215345
 31
0.0
  0
LINE
  5
C3
100
AcDbEntity
  8
GEKO
  6
SOLID
 62
        7
100
AcDbLine
 10
1198.213644282
 20
1098.875216912
 30
0.0
 11
1197.860090892
 21
1098.262844476
 31
0.0
  0
LINE
  5
C4
100
AcDbEntity
  8
GEKO
  6
SOLID
 62
        7
100
AcDbLine
 10
1199.154186117
 20
1093.433215345
 30
0.0
 11
1199.766558553
 21
1093.079661954
 31
0.0
  0
LINE
  5
C5
100
AcDbEntity
  8
GEKO
  6
SOLID
 62
        7
100
AcDbLine
 10
1205.953619854
 20
1100.949137116
 30
0.0
 11
1198.213644282
 21
1098.875216912
 31
0.0
  0
LINE
  5
C6
100
AcDbEntity
  8
GEKO
  6
SOLID
 62
        7
100
AcDbLine
 10
1207.506534125
 20
1095.153582158
 30
0.0
 11
1199.766558553
 21
1093.079661954
 31
0.0
  0
LINE
  5
C7
100
AcDbEntity
  8
GEKO
  6
SOLID
 62
        7
100
AcDbLine
 10
1228.041386356
 20
1100.65587923
 30
0.0
 11
1227.461830861
 21
1100.500587803
 31
0.0
  0
LINE
  5
C8
100
AcDbEntity
  8
GEKO
  6
SOLID
 62
        7
100
AcDbLine
 10
1199.016887073
 20
1151.37189228
 30
0.0
 11
1199.047368602
 21
1151.258133665
 31
0.0
  0
LINE
  5
C9
100
AcDbEntity
  8
GEKO
  6
SOLID
 62
        7
100
AcDbLine
 10
1201.122114611
 20
1141.583224495
 30
0.0
 11
1201.475668002
 21
1142.19559693
 31
0.0
  0
LINE
  5
CA
100
AcDbEntity
  8
GEKO
  6
SOLID
 62
        7
100
AcDbLine
 10
1201.60872742
 20
1149.42641903
 30
0.0
 11
1209.606236044
 21
1119.579310515
 31
0.0
  0
ARC
  5
CB
100
AcDbEntity
  8
GEKO
  6
SOLID
 62
        7
100
AcDbCircle
 10
1200.347697962
 20
1150.84849723
 30
0.0
 40
0.85
100
AcDbArc
 50
285.000008
 51
104.999992
  0
LINE
  5
CC
100
AcDbEntity
  8
GEKO
  6
SOLID
 62
        7
100
AcDbLine
 10
1200.209179514
 20
1148.081307307
 30
0.0
 11
1207.76669576
 21
1119.876272696
 31
0.0
  0
ARC
  5
CD
100
AcDbEntity
  8
GEKO
  6
SOLID
 62
        7
100
AcDbCircle
 10
1200.787690468
 20
1149.206422842
 30
0.0
 40
0.85
100
AcDbArc
 50
285.0
 51
116.694511
  0
ARC
  5
CE
100
AcDbEntity
  8
GEKO
  6
SOLID
 62
        7
100
AcDbCircle
 10
1200.347698091
 20
1150.848496747
 30
0.0
 40
0.85
100
AcDbArc
 50
285.0
 51
116.694511
  0
ARC
  5
CF
100
AcDbEntity
  8
GEKO
  6
SOLID
 62
        7
100
AcDbCircle
 10
1209.225191468
 20
1117.717240422
 30
0.0
 40
0.85
100
AcDbArc
 50
285.0
 51
116.694511
  0
ARC
  5
D0
100
AcDbEntity
  8
GEKO
  6
SOLID
 62
        7
100
AcDbCircle
 10
1208.785199091
 20
1119.359314327
 30
0.0
 40
0.85
100
AcDbArc
 50
285.0
 51
116.694511
  0
LINE
  5
D1
100
AcDbEntity
  8
GEKO
  6
SOLID
 62
        7
100
AcDbLine
 10
1199.927353485
 20
1147.973985373
 30
0.0
 11
1201.475668002
 21
1142.19559693
 31
0.0
  0
LINE
  5
D2
100
AcDbEntity
  8
GEKO
  6
SOLID
 62
        7
100
AcDbLine
 10
1190.323554637
 20
1149.042520874
 30
0.0
 11
1189.098809766
 21
1149.749627655
 31
0.0
  0
LINE
  5
D3
100
AcDbEntity
  8
GEKO
  6
SOLID
 62
        7
100
AcDbLine
 10
1193.221332116
 20
1149.818978009
 30
0.0
 11
1193.410847034
 21
1149.111698706
 31
0.0
  0
LINE
  5
D4
100
AcDbEntity
  8
GEKO
  6
SOLID
 62
        7
100
AcDbLine
 10
1195.680113044
 20
1140.64268266
 30
0.0
 11
1196.29248548
 21
1140.289129269
 31
0.0
  0
LINE
  5
D5
100
AcDbEntity
  8
GEKO
  6
SOLID
 62
        7
100
AcDbLine
 10
1200.166973969
 20
1116.170083112
 30
0.0
 11
1192.169465475
 21
1146.017191144
 31
0.0
  0
LINE
  5
D6
100
AcDbEntity
  8
GEKO
  6
SOLID
 62
        7
100
AcDbLine
 10
1202.677672919
 20
1113.17513752
 30
0.0
 11
1210.185310465
 21
1085.156252754
 31
0.0
  0
LINE
  5
D7
100
AcDbEntity
  8
GEKO
  6
SOLID
 62
        7
100
AcDbLine
 10
1204.412219634
 20
1113.270016673
 30
0.0
 11
1211.82738437
 21
1085.596245131
 31
0.0
  0
LINE
  5
D8
100
AcDbEntity
  8
GEKO
  6
SOLID
 62
        7
100
AcDbLine
 10
1201.566522005
 20
1117.515194352
 30
0.0
 11
1194.009005759
 21
1145.720228963
 31
0.0
  0
LINE
  5
D9
100
AcDbEntity
  8
GEKO
  6
SOLID
 62
        7
100
AcDbLine
 10
1202.770145729
 20
1112.830024296
 30
0.0
 11
1204.412219634
 21
1113.270016673
 31
0.0
  0
ARC
  5
DA
100
AcDbEntity
  8
GEKO
  6
SOLID
 62
        7
100
AcDbCircle
 10
1192.990502428
 20
1146.237187332
 30
0.0
 40
0.85
100
AcDbArc
 50
105.0
 51
296.694511
  0
ARC
  5
DB
100
AcDbEntity
  8
GEKO
  6
SOLID
 62
        7
100
AcDbCircle
 10
1192.550509922
 20
1147.87926172
 30
0.0
 40
0.85
100
AcDbArc
 50
105.0
 51
296.694511
  0
ARC
  5
DC
100
AcDbEntity
  8
GEKO
  6
SOLID
 62
        7
100
AcDbCircle
 10
1196.339105783
 20
1149.774398192
 30
0.0
 40
0.85
100
AcDbArc
 50
105.0
 51
171.019275
  0
ARC
  5
DD
100
AcDbEntity
  8
GEKO
  6
SOLID
 62
        7
100
AcDbCircle
 10
1201.428003298
 20
1114.748005395
 30
0.0
 40
0.85
100
AcDbArc
 50
105.0
 51
296.694511
  0
ARC
  5
DE
100
AcDbEntity
  8
GEKO
  6
SOLID
 62
        7
100
AcDbCircle
 10
1200.988010921
 20
1116.3900793
 30
0.0
 40
0.85
100
AcDbArc
 50
105.0
 51
296.694511
  0
ARC
  5
DF
100
AcDbEntity
  8
GEKO
  6
SOLID
 62
        7
100
AcDbCircle
 10
1201.900644491
 20
1112.211343789
 30
0.0
 40
2.7
100
AcDbArc
 50
22.931183
 51
59.685038
  0
ARC
  5
E0
100
AcDbEntity
  8
GEKO
  6
SOLID
 62
        7
100
AcDbCircle
 10
1201.711747093
 20
1112.916318475
 30
0.0
 40
1.0
100
AcDbArc
 50
15.0
 51
96.125531
  0
LINE
  5
E1
100
AcDbEntity
  8
GEKO
  6
SOLID
 62
        7
100
AcDbLine
 10
1194.290831917
 20
1145.827550414
 30
0.0
 11
1195.680113044
 21
1140.64268266
 31
0.0
  0
LINE
  5
E2
100
AcDbEntity
  8
GEKO
  6
SOLID
 62
        7
100
AcDbLine
 10
1206.34605036
 20
1153.335735664
 30
0.0
 11
1190.323554637
 21
1149.042520874
 31
0.0
  0
LINE
  5
E3
100
AcDbEntity
  8
GEKO
  6
SOLID
 62
        7
100
AcDbLine
 10
1201.122114611
 20
1141.583224495
 30
0.0
 11
1196.29248548
 21
1140.289129269
 31
0.0
  0
LINE
  5
E4
100
AcDbEntity
  8
GEKO
  6
SOLID
 62
        7
100
AcDbLine
 10
1196.119109595
 20
1150.595435145
 30
0.0
 11
1200.127701774
 21
1151.669534182
 31
0.0
  0
LINE
  5
E5
100
AcDbEntity
  8
GEKO
  6
SOLID
 62
        7
100
AcDbLine
 10
1192.932358384
 20
1147.119859367
 30
0.0
 11
1200.56769428
 21
1150.027459794
 31
0.0
  0
LINE
  5
E6
100
AcDbEntity
  8
GEKO
  6
SOLID
 62
        7
100
AcDbLine
 10
1192.330513733
 20
1148.700298672
 30
0.0
 11
1200.127701903
 21
1151.669533699
 31
0.0
  0
LINE
  5
E7
100
AcDbEntity
  8
GEKO
  6
SOLID
 62
        7
100
AcDbLine
 10
1209.445187656
 20
1116.89620347
 30
0.0
 11
1201.647999486
 21
1113.926968443
 31
0.0
  0
LINE
  5
E8
100
AcDbEntity
  8
GEKO
  6
SOLID
 62
        7
100
AcDbLine
 10
1201.007686786
 20
1148.385385407
 30
0.0
 11
1193.210498616
 21
1145.41615038
 31
0.0
  0
LINE
  5
E9
100
AcDbEntity
  8
GEKO
  6
SOLID
 62
        7
100
AcDbLine
 10
1201.369859384
 20
1115.630676947
 30
0.0
 11
1209.00519528
 21
1118.538277374
 31
0.0
  0
LINE
  5
EA
100
AcDbEntity
  8
GEKO
  6
SOLID
 62
        7
100
AcDbLine
 10
1200.768014733
 20
1117.211116252
 30
0.0
 11
1208.565202903
 21
1120.180351279
 31
0.0
  0
LINE
  5
EB
100
AcDbEntity
  8
GEKO
  6
SOLID
 62
        7
100
AcDbLine
 10
1183.145971728
 20
1171.96592166
 30
0.0
 11
1189.098809766
 21
1149.749627655
 31
0.0
  0
ARC
  5
EC
100
AcDbEntity
  8
GEKO
  6
SOLID
 62
        7
100
AcDbCircle
 10
1249.873495282
 20
1177.939831634
 30
0.0
 40
50.0
100
AcDbArc
 50
309.398640237
 51
260.601275454
  0
ARC
  5
ED
100
AcDbEntity
  8
GEKO
  6
SOLID
 62
        7
100
AcDbCircle
 10
1249.873495282
 20
1177.939831634
 30
0.0
 40
46.5
100
AcDbArc
 50
310.759226149
 51
259.240682489
  0
LINE
  5
EE
100
AcDbEntity
  8
GEKO
  6
SOLID
 62
        7
100
AcDbLine
 10
1183.853078509
 20
1173.190666531
 30
0.0
 11
1183.145971728
 21
1171.96592166
 31
0.0
  0
LINE
  5
EF
100
AcDbEntity
  8
GEKO
  6
SOLID
 62
        7
100
AcDbLine
 10
1199.875574232
 20
1177.483881321
 30
0.0
 11
1183.853078509
 21
1173.190666531
 31
0.0
  0
LINE
  5
F0
100
AcDbEntity
  8
GEKO
  6
SOLID
 62
        7
100
AcDbLine
 10
1169.502224746
 20
1269.249518264
 30
0.0
 11
1194.478262599
 21
1176.037676027
 31
0.0
  0
LINE
  5
F1
100
AcDbEntity
  8
GEKO
  6
SOLID
 62
        7
100
AcDbLine
 10
1159.842966483
 20
1266.661327813
 30
0.0
 11
1184.819004336
 21
1173.449485576
 31
0.0
  0
LINE
  5
F2
100
AcDbEntity
  8
GEKO
  6
SOLID
 62
        7
100
AcDbLine
 10
1286.874929034
 20
1136.090526907
 30
0.0
 11
1294.121862297
 21
1109.044603771
 31
0.0
  0
LINE
  5
F3
100
AcDbEntity
  8
GEKO
  6
SOLID
 62
        7
100
AcDbLine
 10
1293.047882785
 20
1145.445461172
 30
0.0
 11
1283.130366498
 21
1135.527944886
 31
0.0
  0
LINE
  5
F4
100
AcDbEntity
  8
GEKO
  6
SOLID
 62
        7
100
AcDbLine
 10
1293.047882785
 20
1145.445461172
 30
0.0
 11
1290.21945566
 21
1148.273888297
 31
0.0
  0
LINE
  5
F5
100
AcDbEntity
  8
GEKO
  6
SOLID
 62
        7
100
AcDbLine
 10
1290.21945566
 20
1148.273888297
 30
0.0
 11
1281.505362821
 21
1139.559795458
 31
0.0
  0
LINE
  5
F6
100
AcDbEntity
  8
GEKO
  6
SOLID
 62
        7
100
AcDbLine
 10
1294.121862297
 20
1109.044603771
 30
0.0
 11
1293.125376745
 21
1107.318640164
 31
0.0
  0
LINE
  5
F7
100
AcDbEntity
  8
GEKO
  6
SOLID
 62
        7
100
AcDbLine
 10
1291.987222613
 20
1144.384801
 30
0.0
 11
1289.158795488
 21
1147.213228125
 31
0.0
  0
LINE
  5
F8
100
AcDbEntity
  8
GEKO
  6
SOLID
 62
        7
100
AcDbLine
 10
1227.953453631
 20
1120.302565155
 30
0.0
 11
1231.817156936
 21
1121.337841336
 31
0.0
  0
LINE
  5
F9
100
AcDbEntity
  8
GEKO
  6
SOLID
 62
        7
100
AcDbLine
 10
1229.590512004
 20
1132.028411806
 30
0.0
 11
1241.683248153
 21
1128.788172921
 31
0.0
  0
LINE
  5
FA
100
AcDbEntity
  8
GEKO
  6
SOLID
 62
        7
100
AcDbLine
 10
1228.555235823
 20
1128.164708501
 30
0.0
 11
1242.291878973
 21
1124.483986062
 31
0.0
  0
LINE
  5
FB
100
AcDbEntity
  8
GEKO
  6
SOLID
 62
        7
100
AcDbLine
 10
1228.555235823
 20
1128.164708501
 30
0.0
 11
1229.590512004
 21
1132.028411806
 31
0.0
  0
LINE
  5
FC
100
AcDbEntity
  8
GEKO
  6
SOLID
 62
        7
100
AcDbLine
 10
1233.129834533
 20
1100.98404863
 30
0.0
 11
1239.08267257
 21
1078.767754625
 31
0.0
  0
LINE
  5
FD
100
AcDbEntity
  8
GEKO
  6
SOLID
 62
        7
100
AcDbLine
 10
1227.953453631
 20
1120.302565155
 30
0.0
 11
1230.135021811
 21
1112.160841867
 31
0.0
  0
LINE
  5
FE
100
AcDbEntity
  8
GEKO
  6
SOLID
 62
        7
100
AcDbLine
 10
1231.817156936
 20
1121.337841336
 30
0.0
 11
1233.628890252
 21
1114.576360552
 31
0.0
  0
LINE
  5
FF
100
AcDbEntity
  8
GEKO
  6
SOLID
 62
        7
100
AcDbLine
 10
1236.646786067
 20
1122.631936561
 30
0.0
 11
1237.800929956
 21
1118.32461293
 31
0.0
  0
LINE
  5
100
100
AcDbEntity
  8
GEKO
  6
SOLID
 62
        7
100
AcDbLine
 10
1233.628890252
 20
1114.576360552
 30
0.0
 11
1233.998725116
 21
1113.196118047
 31
0.0
  0
LINE
  5
101
100
AcDbEntity
  8
GEKO
  6
SOLID
 62
        7
100
AcDbLine
 10
1230.004124563
 20
1127.776479933
 30
0.0
 11
1231.039400743
 21
1131.640183239
 31
0.0
  0
ARC
  5
102
100
AcDbEntity
  8
GEKO
  6
SOLID
 62
        7
100
AcDbCircle
 10
1231.125252968
 20
1099.13105764
 30
0.0
 40
32.574919576
100
AcDbArc
 50
277.555459522
 51
312.43101346
  0
LINE
  5
103
100
AcDbEntity
  8
GEKO
  6
SOLID
 62
        7
100
AcDbLine
 10
1236.217080703
 20
1104.917102289
 30
0.0
 11
1232.353377398
 21
1103.881826109
 31
0.0
  0
LINE
  5
104
100
AcDbEntity
  8
GEKO
  6
SOLID
 62
        7
100
AcDbLine
 10
1233.887709297
 20
1113.610434726
 30
0.0
 11
1230.024005992
 21
1112.575158545
 31
0.0
  0
LINE
  5
105
100
AcDbEntity
  8
GEKO
  6
SOLID
 62
        7
100
AcDbLine
 10
1237.682062248
 20
1118.768233256
 30
0.0
 11
1242.902320064
 21
1120.166997122
 31
0.0
  0
LINE
  5
106
100
AcDbEntity
  8
GEKO
  6
SOLID
 62
        7
100
AcDbLine
 10
1239.08267257
 20
1078.767754625
 30
0.0
 11
1251.244409559
 21
1082.02648223
 31
0.0
  0
LINE
  5
107
100
AcDbEntity
  8
GEKO
  6
SOLID
 62
        7
100
AcDbLine
 10
1236.646786067
 20
1122.631936561
 30
0.0
 11
1242.338126601
 21
1124.156926661
 31
0.0
  0
LINE
  5
108
100
AcDbEntity
  8
GEKO
  6
SOLID
 62
        7
100
AcDbLine
 10
1279.50139944
 20
1098.274774342
 30
0.0
 11
1277.110531514
 21
1107.197614916
 31
0.0
  0
LINE
  5
109
100
AcDbEntity
  8
GEKO
  6
SOLID
 62
        7
100
AcDbLine
 10
1277.110531514
 20
1107.197614916
 30
0.0
 11
1268.187690941
 21
1109.588482841
 31
0.0
  0
LINE
  5
10A
100
AcDbEntity
  8
GEKO
  6
SOLID
 62
        7
100
AcDbLine
 10
1268.187690941
 20
1109.588482841
 30
0.0
 11
1261.655718293
 21
1103.056510194
 31
0.0
  0
LINE
  5
10B
100
AcDbEntity
  8
GEKO
  6
SOLID
 62
        7
100
AcDbLine
 10
1168.88985231
 20
1269.603071655
 30
0.0
 11
1169.502224746
 21
1269.249518264
 31
0.0
  0
LINE
  5
10C
100
AcDbEntity
  8
GEKO
  6
SOLID
 62
        7
100
AcDbLine
 10
1159.842966483
 20
1266.661327813
 30
0.0
 11
1160.196519874
 21
1267.273700249
 31
0.0
  0
LINE
  5
10D
100
AcDbEntity
  8
GEKO
  6
SOLID
 62
        7
100
AcDbLine
 10
1168.88985231
 20
1269.603071655
 30
0.0
 11
1160.196519874
 21
1267.273700249
 31
0.0
  0
CIRCLE
  5
10E
100
AcDbEntity
  8
GEKO
  6
SOLID
 62
        7
100
AcDbCircle
 10
1160.660900416
 20
1282.927273346
 30
0.0
 40
15.0
  0
LINE
  5
10F
100
AcDbEntity
  8
GEKO
  6
SOLID
 62
        7
100
AcDbLine
 10
1169.132818881
 20
125.356793757
 30
0.0
 11
1178.672210895
 21
125.356793757
 31
0.0
  0
LINE
  5
110
100
AcDbEntity
  8
GEKO
  6
SOLID
 62
        7
100
AcDbLine
 10
1214.99541984
 20
1076.996190852
 30
0.0
 11
1216.989300444
 21
1077.236442026
 31
0.0
  0
LINE
  5
111
100
AcDbEntity
  8
GEKO
  6
SOLID
 62
        7
100
AcDbLine
 10
1216.205893888
 20
1070.173535128
 30
0.0
 11
1214.99541984
 21
1076.996190852
 31
0.0
  0
LINE
  5
112
100
AcDbEntity
  8
GEKO
  6
SOLID
 62
        7
100
AcDbLine
 10
1153.086272104
 20
1043.30185018
 30
0.0
 11
1151.792177187
 21
1048.131478159
 31
0.0
  0
LINE
  5
113
100
AcDbEntity
  8
GEKO
  6
SOLID
 62
        7
100
AcDbLine
 10
1137.9140849
 20
1044.412779996
 30
0.0
 11
1111.377235357
 21
1037.302252592
 31
0.0
  0
ARC
  5
114
100
AcDbEntity
  8
GEKO
  6
L_DASH
 62
        7
100
AcDbCircle
 10
1349.336657525
 20
1119.698421972
 30
0.0
 40
25.0
100
AcDbArc
 50
64.458404964
 51
141.869904483
  0
INSERT
  5
125
100
AcDbEntity
  8
GEKO
100
AcDbBlockReference
  2
*D0
 10
0.0
 20
0.0
 30
0.0
  0
ARC
  5
126
100
AcDbEntity
  8
GEKO
  6
SOLID
 62
        7
100
AcDbCircle
 10
1261.642426932
 20
1074.130179535
 30
0.0
 40
2.0
100
AcDbArc
 50
71.387625402
 51
195.0
  0
ARC
  5
127
100
AcDbEntity
  8
GEKO
  6
SOLID
 62
        7
100
AcDbCircle
 10
1268.278195072
 20
1128.571073445
 30
0.0
 40
2.0
100
AcDbArc
 50
195.0
 51
274.713439389
  0
ARC
  5
128
100
AcDbEntity
  8
GEKO
  6
SOLID
 62
        7
100
AcDbCircle
 10
1249.873495282
 20
1177.939831634
 30
0.0
 40
15.0
100
AcDbArc
 50
302.104635177
 51
267.895364823
  0
ARC
  5
129
100
AcDbEntity
  8
GEKO
  6
SOLID
 62
        7
100
AcDbCircle
 10
1293.259191414
 20
956.134808116
 30
0.0
 40
2.0
100
AcDbArc
 50
33.0
 51
195.0
  0
LINE
  5
12A
100
AcDbEntity
  8
GEKO
  6
SOLID
 62
        7
100
AcDbLine
 10
1266.346343419
 20
1128.053435355
 30
0.0
 11
1256.976584485
 21
1163.021851752
 31
0.0
  0
LINE
  5
12B
100
AcDbEntity
  8
GEKO
  6
SOLID
 62
        7
100
AcDbLine
 10
1260.550788462
 20
1126.500521084
 30
0.0
 11
1251.181029527
 21
1161.468937481
 31
0.0
  0
ARC
  5
12C
100
AcDbEntity
  8
GEKO
  6
SOLID
 62
        7
100
AcDbCircle
 10
1283.695183207
 20
991.828172671
 30
0.0
 40
2.0
100
AcDbArc
 50
195.0
 51
357.0
  0
ARC
  5
12D
100
AcDbEntity
  8
GEKO
  6
SOLID
 62
        7
100
AcDbCircle
 10
1258.618936809
 20
1125.982882994
 30
0.0
 40
2.0
100
AcDbArc
 50
-64.713439389
 51
15.0
  0
ARC
  5
12E
100
AcDbEntity
  8
GEKO
  6
SOLID
 62
        7
100
AcDbCircle
 10
1288.26133277
 20
1078.955496628
 30
0.0
 40
2.0
100
AcDbArc
 50
357.0
 51
129.161705081
  0
ARC
  5
12F
100
AcDbEntity
  8
GEKO
  6
SOLID
 62
        7
100
AcDbCircle
 10
1297.320987519
 20
1060.750781143
 30
0.0
 40
2.0
100
AcDbArc
 50
15.0
 51
177.0
  0
ARC
  5
130
100
AcDbEntity
  8
GEKO
  6
SOLID
 62
        7
100
AcDbCircle
 10
1249.873495282
 20
1177.939831634
 30
0.0
 40
6.0
100
AcDbArc
 50
143.0
 51
93.0
  0
ARC
  5
131
100
AcDbEntity
  8
GEKO
  6
SOLID
 62
        7
100
AcDbCircle
 10
1258.908436138
 20
1163.539489842
 30
0.0
 40
2.0
100
AcDbArc
 50
122.104635177
 51
195.0
  0
CIRCLE
  5
132
100
AcDbEntity
  8
GEKO
  6
SOLID
 62
        7
100
AcDbCircle
 10
1249.873495282
 20
1177.939831634
 30
0.0
 40
5.0
  0
ARC
  5
133
100
AcDbEntity
  8
GEKO
  6
SOLID
 62
        7
100
AcDbCircle
 10
1249.249177875
 20
1160.951299391
 30
0.0
 40
2.0
100
AcDbArc
 50
15.0
 51
87.895364823
  0
LINE
  5
134
100
AcDbEntity
  8
GEKO
  6
SOLID
 62
        7
100
AcDbLine
 10
1290.25859184
 20
1078.850824716
 30
0.0
 11
1285.692442276
 21
991.723500759
 31
0.0
  0
LINE
  5
135
100
AcDbEntity
  8
GEKO
  6
SOLID
 62
        7
100
AcDbLine
 10
1235.101378987
 20
1175.335108969
 30
0.0
 11
1245.000581856
 21
1105.328764449
 31
0.0
  0
LINE
  5
136
100
AcDbEntity
  8
GEKO
  6
SOLID
 62
        7
100
AcDbLine
 10
1263.968884594
 20
1183.070133784
 30
0.0
 11
1290.399095692
 21
1117.493259569
 31
0.0
  0
ARC
  5
137
100
AcDbEntity
  8
GEKO
  6
SOLID
 62
        7
100
AcDbCircle
 10
1270.57901889
 20
1100.665765531
 30
0.0
 40
26.0
100
AcDbArc
 50
40.331675017
 51
169.668324983
  0
LINE
  5
138
100
AcDbEntity
  8
GEKO
  6
SOLID
 62
        7
100
AcDbLine
 10
1027.689325286
 20
1088.62150086
 30
0.0
 11
1051.819159304
 21
998.567734324
 31
0.0
  0
LINE
  5
139
100
AcDbEntity
  8
GEKO
  6
SOLID
 62
        7
100
AcDbLine
 10
1040.948777438
 20
1039.13657819
 30
0.0
 11
1043.846554917
 21
1039.913035326
 31
0.0
  0
ARC
  5
13A
100
AcDbEntity
  8
GEKO
  6
SOLID
 62
        7
100
AcDbCircle
 10
1043.587735872
 20
1040.878961152
 30
0.0
 40
1.0
100
AcDbArc
 50
285.0
 51
15.0
  0
LINE
  5
13B
100
AcDbEntity
  8
GEKO
  6
SOLID
 62
        7
100
AcDbLine
 10
1038.342004616
 20
1064.320000028
 30
0.0
 11
1044.553661698
 21
1041.137780197
 31
0.0
  0
ARC
  5
13C
100
AcDbEntity
  8
GEKO
  6
SOLID
 62
        7
100
AcDbCircle
 10
1037.376078789
 20
1064.061180983
 30
0.0
 40
1.0
100
AcDbArc
 50
15.0
 51
105.0
  0
LINE
  5
13D
100
AcDbEntity
  8
GEKO
  6
SOLID
 62
        7
100
AcDbLine
 10
1034.219482265
 20
1064.250649674
 30
0.0
 11
1037.117259744
 21
1065.027106809
 31
0.0
  0
LINE
  5
13E
100
AcDbEntity
  8
GEKO
  6
SOLID
 62
        7
100
AcDbLine
 10
1071.707443005
 20
979.534980214
 30
0.0
 11
1065.636700156
 21
977.908751382
 31
0.0
  0
LINE
  5
13F
100
AcDbEntity
  8
GEKO
  6
SOLID
 62
        7
100
AcDbLine
 10
1064.44126619
 20
982.370171681
 30
0.0
 11
1070.51229815
 21
983.99647796
 31
0.0
  0
LINE
  5
140
100
AcDbEntity
  8
GEKO
  6
SOLID
 62
        7
100
AcDbLine
 10
1062.050398258
 20
991.293012278
 30
0.0
 11
1068.122008691
 21
992.919473518
 31
0.0
  0
LINE
  5
141
100
AcDbEntity
  8
GEKO
  6
SOLID
 62
        7
100
AcDbLine
 10
1060.854964292
 20
995.754432576
 30
0.0
 11
1066.926863961
 21
997.380971297
 31
0.0
  0
ARC
  5
142
100
AcDbEntity
  8
GEKO
  6
SOLID
 62
        7
100
AcDbCircle
 10
1064.264647211
 20
994.276928085
 30
0.0
 40
4.089315873
100
AcDbArc
 50
340.612033752
 51
49.380537346
  0
ARC
  5
143
100
AcDbEntity
  8
GEKO
  6
SOLID
 62
        7
100
AcDbCircle
 10
1055.242525295
 20
984.687605614
 30
0.0
 40
15.285466596
100
AcDbArc
 50
357.408329459
 51
32.584241639
  0
LINE
  5
144
100
AcDbEntity
  8
GEKO
  6
SOLID
 62
        7
100
AcDbLine
 10
1068.214632651
 20
995.335111999
 30
0.0
 11
1071.800066774
 21
981.950618909
 31
0.0
  0
ARC
  5
145
100
AcDbEntity
  8
GEKO
  6
SOLID
 62
        7
100
AcDbCircle
 10
1067.850081334
 20
980.892434996
 30
0.0
 40
4.089315873
100
AcDbArc
 50
340.612033752
 51
49.380537346
  0
LINE
  5
146
100
AcDbEntity
  8
GEKO
  6
SOLID
 62
        7
100
AcDbLine
 10
1060.84066114
 20
995.808657553
 30
0.0
 11
1048.283625399
 21
992.444009967
 31
0.0
  0
ARC
  5
147
100
AcDbEntity
  8
GEKO
  6
SOLID
 62
        7
100
AcDbCircle
 10
1048.801263489
 20
990.512158314
 30
0.0
 40
2.0
100
AcDbArc
 50
105.0
 51
195.0
  0
LINE
  5
148
100
AcDbEntity
  8
GEKO
  6
SOLID
 62
        7
100
AcDbLine
 10
1046.869411836
 20
989.994520224
 30
0.0
 11
1079.998235382
 21
866.356067556
 31
0.0
  0
LINE
  5
149
100
AcDbEntity
  8
GEKO
  6
SOLID
 62
        7
100
AcDbLine
 10
1128.119038927
 20
744.721724237
 30
0.0
 11
1134.190727456
 21
746.349050944
 31
0.0
  0
LINE
  5
14A
100
AcDbEntity
  8
GEKO
  6
SOLID
 62
        7
100
AcDbLine
 10
1124.532707808
 20
758.105914294
 30
0.0
 11
1130.603528658
 21
759.733008447
 31
0.0
  0
ARC
  5
14B
100
AcDbEntity
  8
GEKO
  6
SOLID
 62
        7
100
AcDbCircle
 10
1126.745959621
 20
761.09007964
 30
0.0
 40
4.089315873
100
AcDbArc
 50
340.619469491
 51
49.387973086
  0
ARC
  5
14C
100
AcDbEntity
  8
GEKO
  6
SOLID
 62
        7
100
AcDbCircle
 10
1130.333130728
 20
747.706051974
 30
0.0
 40
4.089315873
100
AcDbArc
 50
340.619469491
 51
49.387973086
  0
LINE
  5
14D
100
AcDbEntity
  8
GEKO
  6
SOLID
 62
        7
100
AcDbLine
 10
1126.923576805
 20
749.183073982
 30
0.0
 11
1132.994976107
 21
750.810323171
 31
0.0
  0
ARC
  5
14E
100
AcDbEntity
  8
GEKO
  6
SOLID
 62
        7
100
AcDbCircle
 10
1117.725082265
 20
751.499586376
 30
0.0
 40
15.285466596
100
AcDbArc
 50
357.415765198
 51
32.591677379
  0
LINE
  5
14F
100
AcDbEntity
  8
GEKO
  6
SOLID
 62
        7
100
AcDbLine
 10
1134.283010294
 20
748.764631014
 30
0.0
 11
1130.695839187
 21
762.14865868
 31
0.0
  0
LINE
  5
150
100
AcDbEntity
  8
GEKO
  6
SOLID
 62
        7
100
AcDbLine
 10
1128.133584412
 20
744.668048913
 30
0.0
 11
1117.273400848
 21
741.758071497
 31
0.0
  0
LINE
  5
151
100
AcDbEntity
  8
GEKO
  6
SOLID
 62
        7
100
AcDbLine
 10
1112.626293041
 20
744.586498622
 30
0.0
 11
1079.998235382
 21
866.356067556
 31
0.0
  0
ARC
  5
152
100
AcDbEntity
  8
GEKO
  6
SOLID
 62
        7
100
AcDbCircle
 10
1116.489996346
 20
745.621774802
 30
0.0
 40
4.0
100
AcDbArc
 50
195.0
 51
274.64173526
  0
LINE
  5
153
100
AcDbEntity
  8
GEKO
  6
SOLID
 62
        7
100
AcDbLine
 10
1129.407805058
 20
764.194351118
 30
0.0
 11
1123.337273309
 21
762.56733445
 31
0.0
  0
LINE
  5
154
100
AcDbEntity
  8
GEKO
  6
SOLID
 62
        7
100
AcDbLine
 10
1200.611765023
 20
1040.507176957
 30
0.0
 11
1270.751757484
 21
778.741286403
 31
0.0
  0
ARC
  5
155
100
AcDbEntity
  8
GEKO
  6
SOLID
 62
        7
100
AcDbCircle
 10
1270.57901889
 20
1100.665765531
 30
0.0
 40
26.0
100
AcDbArc
 50
220.331675017
 51
349.668324983
  0
CIRCLE
  5
156
100
AcDbEntity
  8
GEKO
  6
SOLID
 62
        7
100
AcDbCircle
 10
1270.57901889
 20
1100.665765531
 30
0.0
 40
19.0
  0
CIRCLE
  5
157
100
AcDbEntity
  8
GEKO
  6
SOLID
 62
        7
100
AcDbCircle
 10
1270.57901889
 20
1100.665765531
 30
0.0
 40
12.0
  0
LINE
  5
158
100
AcDbEntity
  8
GEKO
  6
SOLID
 62
        7
100
AcDbLine
 10
1380.153542237
 20
801.843621383
 30
0.0
 11
1390.506304041
 21
763.206588332
 31
0.0
  0
ARC
  5
159
100
AcDbEntity
  8
GEKO
  6
SOLID
 62
        7
100
AcDbCircle
 10
1291.586127547
 20
1082.153569933
 30
0.0
 40
2.0
100
AcDbArc
 50
15.0
 51
138.612374598
  0
ARC
  5
15A
100
AcDbEntity
  8
GEKO
  6
SOLID
 62
        7
100
AcDbCircle
 10
1321.663764523
 20
879.346188916
 30
0.0
 40
20.0
100
AcDbArc
 50
357.0
 51
33.0
  0
ARC
  5
15B
100
AcDbEntity
  8
GEKO
  6
SOLID
 62
        7
100
AcDbCircle
 10
1339.520788332
 20
903.25898044
 30
0.0
 40
2.0
100
AcDbArc
 50
213.0
 51
15.0
  0
ARC
  5
15C
100
AcDbEntity
  8
GEKO
  6
SOLID
 62
        7
100
AcDbCircle
 10
1349.08479654
 20
867.565615885
 30
0.0
 40
2.0
100
AcDbArc
 50
15.0
 51
177.0
  0
ARC
  5
15D
100
AcDbEntity
  8
GEKO
  6
SOLID
 62
        7
100
AcDbCircle
 10
1368.291784735
 20
795.88416008
 30
0.0
 40
2.0
100
AcDbArc
 50
-75.0
 51
15.0
  0
ARC
  5
15E
100
AcDbEntity
  8
GEKO
  6
SOLID
 62
        7
100
AcDbCircle
 10
1345.001067889
 20
789.64343131
 30
0.0
 40
2.0
100
AcDbArc
 50
177.0
 51
285.0
  0
ARC
  5
15F
100
AcDbEntity
  8
GEKO
  6
SOLID
 62
        7
100
AcDbCircle
 10
1335.458992227
 20
798.643007413
 30
0.0
 40
2.0
100
AcDbArc
 50
195.0
 51
357.0
  0
ARC
  5
160
100
AcDbEntity
  8
GEKO
  6
SOLID
 62
        7
100
AcDbCircle
 10
1338.34808412
 20
787.860769682
 30
0.0
 40
2.0
100
AcDbArc
 50
195.0
 51
285.0
  0
LINE
  5
161
100
AcDbEntity
  8
GEKO
  6
SOLID
 62
        7
100
AcDbLine
 10
1347.08753747
 20
867.670287798
 30
0.0
 11
1343.00380882
 21
789.748103222
 31
0.0
  0
LINE
  5
162
100
AcDbEntity
  8
GEKO
  6
SOLID
 62
        7
100
AcDbLine
 10
1338.437175882
 20
890.238969616
 30
0.0
 11
1294.93653255
 21
957.224086186
 31
0.0
  0
LINE
  5
163
100
AcDbEntity
  8
GEKO
  6
SOLID
 62
        7
100
AcDbLine
 10
1341.636355218
 20
878.299469791
 30
0.0
 11
1337.456251297
 21
798.538335501
 31
0.0
  0
LINE
  5
164
100
AcDbEntity
  8
GEKO
  6
SOLID
 62
        7
100
AcDbLine
 10
1370.223636388
 20
796.40179817
 30
0.0
 11
1293.5179792
 21
1082.671208023
 31
0.0
  0
LINE
  5
165
100
AcDbEntity
  8
GEKO
  6
SOLID
 62
        7
100
AcDbLine
 10
1336.416232467
 20
787.343131592
 30
0.0
 11
1259.71057528
 21
1073.612541445
 31
0.0
  0
LINE
  5
166
100
AcDbEntity
  8
GEKO
  6
SOLID
 62
        7
100
AcDbLine
 10
1368.809422825
 20
793.952308427
 30
0.0
 11
1338.86572221
 21
785.928918029
 31
0.0
  0
LINE
  5
167
100
AcDbEntity
  8
GEKO
  6
SOLID
 62
        7
100
AcDbLine
 10
1386.323722522
 20
759.49767854
 30
0.0
 11
1340.925208687
 21
747.33318342
 31
0.0
  0
LINE
  5
168
100
AcDbEntity
  8
GEKO
  6
SOLID
 62
        7
100
AcDbLine
 10
1340.925208687
 20
747.33318342
 30
0.0
 11
1245.000581856
 21
1105.328764449
 31
0.0
  0
LINE
  5
169
100
AcDbEntity
  8
GEKO
  6
SOLID
 62
        7
100
AcDbLine
 10
1386.323722522
 20
759.49767854
 30
0.0
 11
1290.399095692
 21
1117.493259569
 31
0.0
  0
LINE
  5
16A
100
AcDbEntity
  8
GEKO
  6
SOLID
 62
        7
100
AcDbLine
 10
1295.32372845
 20
1060.855453055
 30
0.0
 11
1291.143624528
 21
981.094318765
 31
0.0
  0
ARC
  5
16B
100
AcDbEntity
  8
GEKO
  6
SOLID
 62
        7
100
AcDbCircle
 10
1311.116215223
 20
980.04759964
 30
0.0
 40
20.0
100
AcDbArc
 50
177.0
 51
213.0
  0
LINE
  5
16C
100
AcDbEntity
  8
GEKO
  6
SOLID
 62
        7
100
AcDbLine
 10
1337.843447196
 20
902.16970237
 30
0.0
 11
1294.342803864
 21
969.15481894
 31
0.0
  0
LINE
  5
16D
100
AcDbEntity
  8
GEKO
  6
SOLID
 62
        7
100
AcDbLine
 10
1160.529286103
 20
1297.940156572
 30
0.0
 11
1160.766110667
 21
1297.940156572
 31
0.0
  0
LINE
  5
16E
100
AcDbEntity
  8
GEKO
  6
SOLID
 62
        7
100
AcDbLine
 10
1385.279182626
 20
771.123361115
 30
0.0
 11
1377.255764758
 21
801.067164248
 31
0.0
  0
LINE
  5
16F
100
AcDbEntity
  8
GEKO
  6
SOLID
 62
        7
100
AcDbLine
 10
1169.132818881
 20
122.356793757
 30
0.0
 11
1178.672210895
 21
122.356793757
 31
0.0
  0
LINE
  5
170
100
AcDbEntity
  8
GEKO
  6
SOLID
 62
        7
100
AcDbLine
 10
1377.394492936
 20
792.82201703
 30
0.0
 11
1379.326344588
 21
793.33965512
 31
0.0
  0
LINE
  5
171
100
AcDbEntity
  8
GEKO
  6
L_DASH
 62
        7
100
AcDbLine
 10
1461.192311612
 20
771.79417798
 30
0.0
 11
1461.243734855
 21
771.602263825
 31
0.0
  0
LINE
  5
172
100
AcDbEntity
  8
GEKO
  6
L_DASH
 62
        7
100
AcDbLine
 10
1412.016693042
 20
955.320084975
 30
0.0
 11
1461.243734855
 21
771.602263825
 31
0.0
  0
INSERT
  5
181
100
AcDbEntity
  8
GEKO
100
AcDbBlockReference
  2
*D1
 10
0.0
 20
0.0
 30
0.0
  0
LINE
  5
182
100
AcDbEntity
  8
GEKO
  6
SOLID
 62
        7
100
AcDbLine
 10
1169.132818881
 20
-44.643206243
 30
0.0
 11
1178.672210895
 21
-44.643206243
 31
0.0
  0
LINE
  5
183
100
AcDbEntity
  8
GEKO
  6
SOLID
 62
        7
100
AcDbLine
 10
1384.790813194
 20
788.400769261
 30
0.0
 11
1383.824893519
 21
788.141951865
 31
0.0
  0
LINE
  5
184
100
AcDbEntity
  8
GEKO
  6
SOLID
 62
        7
100
AcDbLine
 10
1387.800878719
 20
777.167051791
 30
0.0
 11
1386.834959043
 21
776.908234394
 31
0.0
  0
LINE
  5
185
100
AcDbEntity
  8
GEKO
  6
SOLID
 62
        7
100
AcDbLine
 10
1169.132818881
 20
-41.643206243
 30
0.0
 11
1178.672210895
 21
-41.643206243
 31
0.0
  0
ARC
  5
186
100
AcDbEntity
  8
GEKO
  6
SOLID
 62
        7
100
AcDbCircle
 10
1387.048279443
 20
778.430309179
 30
0.0
 40
0.400000006
100
AcDbArc
 50
15.0
 51
105.0
  0
ARC
  5
187
100
AcDbEntity
  8
GEKO
  6
SOLID
 62
        7
100
AcDbCircle
 10
1384.770671797
 20
786.930456634
 30
0.0
 40
0.400000006
100
AcDbArc
 50
285.0
 51
15.0
  0
LINE
  5
188
100
AcDbEntity
  8
GEKO
  6
SOLID
 62
        7
100
AcDbLine
 10
1387.800878719
 20
777.167051791
 30
0.0
 11
1388.187249055
 21
777.270579411
 31
0.0
  0
LINE
  5
189
100
AcDbEntity
  8
GEKO
  6
SOLID
 62
        7
100
AcDbLine
 10
1384.790813194
 20
788.400769261
 30
0.0
 11
1387.800878719
 21
777.167051791
 31
0.0
  0
LINE
  5
18A
100
AcDbEntity
  8
GEKO
  6
SOLID
 62
        7
100
AcDbLine
 10
1385.177183531
 20
788.504296881
 30
0.0
 11
1384.790813194
 21
788.400769261
 31
0.0
  0
LINE
  5
18B
100
AcDbEntity
  8
GEKO
  6
SOLID
 62
        7
100
AcDbLine
 10
1389.958317834
 20
789.59300765
 30
0.0
 11
1392.872188206
 21
778.718295379
 31
0.0
  0
ARC
  5
18C
100
AcDbEntity
  8
GEKO
  6
SOLID
 62
        7
100
AcDbCircle
 10
1386.748962117
 20
788.733063378
 30
0.0
 40
3.322569529
100
AcDbArc
 50
340.615750846
 51
49.384249154
  0
LINE
  5
18D
100
AcDbEntity
  8
GEKO
  6
SOLID
 62
        7
100
AcDbLine
 10
1389.883188253
 20
787.630296492
 30
0.0
 11
1385.710926169
 21
786.512342236
 31
0.0
  0
ARC
  5
18E
100
AcDbEntity
  8
GEKO
  6
SOLID
 62
        7
100
AcDbCircle
 10
1379.418992115
 20
780.941263093
 30
0.0
 40
12.419443168
100
AcDbArc
 50
357.412045324
 51
32.587954676
  0
LINE
  5
18F
100
AcDbEntity
  8
GEKO
  6
SOLID
 62
        7
100
AcDbLine
 10
1391.8257685
 20
780.380488311
 30
0.0
 11
1387.653506416
 21
779.262534055
 31
0.0
  0
ARC
  5
190
100
AcDbEntity
  8
GEKO
  6
SOLID
 62
        7
100
AcDbCircle
 10
1389.662832488
 20
777.858351106
 30
0.0
 40
3.322569529
100
AcDbArc
 50
340.615750846
 51
49.384249154
  0
LINE
  5
191
100
AcDbEntity
  8
GEKO
  6
SOLID
 62
        7
100
AcDbLine
 10
1388.62479654
 20
775.637629965
 30
0.0
 11
1392.797058624
 21
776.755584221
 31
0.0
  0
LINE
  5
192
100
AcDbEntity
  8
GEKO
  6
SOLID
 62
        7
100
AcDbLine
 10
1384.739636045
 20
790.137246327
 30
0.0
 11
1388.62479654
 21
775.637629965
 31
0.0
  0
LINE
  5
193
100
AcDbEntity
  8
GEKO
  6
SOLID
 62
        7
100
AcDbLine
 10
1388.911898129
 20
791.255200583
 30
0.0
 11
1384.739636045
 21
790.137246327
 31
0.0
  0
LINE
  5
195
100
AcDbEntity
  8
GEKO
  6
CENTER
 62
        7
100
AcDbLine
 10
862.886706264
 20
38.856793757
 30
0.0
 11
1492.417351666
 21
38.856793757
 31
0.0
  0
LINE
  5
196
100
AcDbEntity
  8
GEKO
  6
SOLID
 62
        7
100
AcDbLine
 10
1120.409278225
 20
-58.589662103
 30
0.0
 11
1120.409278225
 21
-91.143206243
 31
0.0
  0
LINE
  5
197
100
AcDbEntity
  8
GEKO
  6
SOLID
 62
        7
100
AcDbLine
 10
583.722574693
 20
38.856793757
 30
0.0
 11
567.778907909
 21
38.856793757
 31
0.0
  0
LINE
  5
198
100
AcDbEntity
  8
GEKO
  6
SOLID
 62
        7
100
AcDbLine
 10
1379.585163633
 20
792.373729293
 30
0.0
 11
1378.360418762
 21
793.080836075
 31
0.0
  0
LINE
  5
199
100
AcDbEntity
  8
GEKO
  6
SOLID
 62
        7
100
AcDbLine
 10
1387.331143299
 20
778.920128243
 30
0.0
 11
1386.365223624
 21
778.661310846
 31
0.0
  0
ARC
  5
19A
100
AcDbEntity
  8
GEKO
  6
L_DASH
 62
        7
100
AcDbCircle
 10
1456.414105723
 20
770.3081686
 30
0.0
 40
5.0
100
AcDbArc
 50
325.541601874
 51
15.0
  0
ARC
  5
19B
100
AcDbEntity
  8
GEKO
  6
L_DASH
 62
        7
100
AcDbCircle
 10
1439.923361062
 20
781.624322563
 30
0.0
 40
25.0
100
AcDbArc
 50
248.130102354
 51
325.541601874
  0
INSERT
  5
1AA
100
AcDbEntity
  8
GEKO
100
AcDbBlockReference
  2
*D2
 10
0.0
 20
0.0
 30
0.0
  0
LINE
  5
1AB
100
AcDbEntity
  8
GEKO
  6
SOLID
 62
        7
100
AcDbLine
 10
1384.294675212
 20
786.388702717
 30
0.0
 11
1385.260594888
 21
786.647520114
 31
0.0
  0
LINE
  5
1AC
100
AcDbEntity
  8
GEKO
  6
SOLID
 62
        7
100
AcDbLine
 10
1384.572048375
 20
769.898718761
 30
0.0
 11
1378.360418762
 21
793.080836075
 31
0.0
  0
LINE
  5
1AD
100
AcDbEntity
  8
GEKO
  6
SOLID
 62
        7
100
AcDbLine
 10
1375.323913105
 20
800.549526158
 30
0.0
 11
1377.255764758
 21
801.067164248
 31
0.0
  0
LINE
  5
1AE
100
AcDbEntity
  8
GEKO
  6
SOLID
 62
        7
100
AcDbLine
 10
1377.255764758
 20
801.067164248
 30
0.0
 11
1380.153542237
 21
801.843621383
 31
0.0
  0
LINE
  5
1AF
100
AcDbEntity
  8
GEKO
  6
SOLID
 62
        7
100
AcDbLine
 10
1385.279182626
 20
771.123361115
 30
0.0
 11
1387.608526562
 21
762.430131196
 31
0.0
  0
LINE
  5
1B0
100
AcDbEntity
  8
GEKO
  6
SOLID
 62
        7
100
AcDbLine
 10
1385.676674909
 20
761.912493106
 30
0.0
 11
1387.608526562
 21
762.430131196
 31
0.0
  0
LINE
  5
1B1
100
AcDbEntity
  8
GEKO
  6
SOLID
 62
        7
100
AcDbLine
 10
1387.608526562
 20
762.430131196
 30
0.0
 11
1390.506304041
 21
763.206588331
 31
0.0
  0
LINE
  5
1B2
100
AcDbEntity
  8
GEKO
  6
SOLID
 62
        7
100
AcDbLine
 10
1385.676674909
 20
761.912493106
 30
0.0
 11
1383.606150018
 21
769.639797199
 31
0.0
  0
LINE
  5
1B3
100
AcDbEntity
  8
GEKO
  6
SOLID
 62
        7
100
AcDbLine
 10
1383.606150018
 20
769.639797199
 30
0.0
 11
1385.538001671
 21
770.157435289
 31
0.0
  0
LINE
  5
1B4
100
AcDbEntity
  8
GEKO
  6
SOLID
 62
        7
100
AcDbLine
 10
1385.279182626
 20
771.123361115
 30
0.0
 11
1384.572075844
 21
769.898616244
 31
0.0
  0
LINE
  5
1B5
100
AcDbEntity
  8
GEKO
  6
SOLID
 62
        7
100
AcDbLine
 10
1427.643726737
 20
761.769585576
 30
0.0
 11
1427.384907692
 21
762.735511402
 31
0.0
  0
LINE
  5
1B6
100
AcDbEntity
  8
GEKO
  6
L_DASH
 62
        7
100
AcDbLine
 10
1427.643726737
 20
761.769585576
 30
0.0
 11
1378.209289122
 21
946.261418397
 31
0.0
  0
INSERT
  5
1C6
100
AcDbEntity
  8
GEKO
100
AcDbBlockReference
  2
*D3
 10
0.0
 20
0.0
 30
0.0
  0
LINE
  5
1C7
100
AcDbEntity
  8
GEKO
  6
SOLID
 62
        7
100
AcDbLine
 10
1129.165868024
 20
1042.068819727
 30
0.0
 11
1120.800704791
 21
1039.827380995
 31
0.0
  0
LINE
  5
1C8
100
AcDbEntity
  8
GEKO
  6
SOLID
 62
        7
100
AcDbLine
 10
1320.596775236
 20
751.721418752
 30
0.0
 11
1338.466403022
 21
756.509571087
 31
0.0
  0
LINE
  5
1C9
100
AcDbEntity
  8
GEKO
  6
SOLID
 62
        7
100
AcDbLine
 10
1313.349822352
 20
778.767415114
 30
0.0
 11
1331.219560298
 21
783.555156329
 31
0.0
  0
LINE
  5
1CA
100
AcDbEntity
  8
GEKO
  6
SOLID
 62
        7
100
AcDbLine
 10
1313.350133473
 20
778.767498471
 30
0.0
 11
1317.102635195
 21
764.761682488
 31
0.0
  0
LINE
  5
1CB
100
AcDbEntity
  8
GEKO
  6
SOLID
 62
        7
100
AcDbLine
 10
1320.596775236
 20
751.721418752
 30
0.0
 11
1316.843951287
 21
765.727148399
 31
0.0
  0
LINE
  5
1CC
100
AcDbEntity
  8
GEKO
  6
SOLID
 62
        7
100
AcDbLine
 10
1313.350810835
 20
778.763726046
 30
0.0
 11
1321.078427425
 21
780.834334671
 31
0.0
  0
LINE
  5
1CD
100
AcDbEntity
  8
GEKO
  6
SOLID
 62
        7
100
AcDbLine
 10
1298.329835445
 20
734.367109312
 30
0.0
 11
1285.906547912
 21
780.731449585
 31
0.0
  0
LINE
  5
1CE
100
AcDbEntity
  8
GEKO
  6
SOLID
 62
        7
100
AcDbLine
 10
1321.807298181
 20
731.750710403
 30
0.0
 11
1323.851107378
 21
724.123110638
 31
0.0
  0
ARC
  5
1CF
100
AcDbEntity
  8
GEKO
  6
SOLID
 62
        7
100
AcDbCircle
 10
1315.640737855
 20
721.923148754
 30
0.0
 40
0.5
100
AcDbArc
 50
285.0
 51
15.0
  0
ARC
  5
1D0
100
AcDbEntity
  8
GEKO
  6
SOLID
 62
        7
100
AcDbCircle
 10
1324.334070291
 20
724.25252016
 30
0.0
 40
0.5
100
AcDbArc
 50
195.0
 51
285.0
  0
LINE
  5
1D1
100
AcDbEntity
  8
GEKO
  6
SOLID
 62
        7
100
AcDbLine
 10
1314.562740094
 20
721.116662035
 30
0.0
 11
1325.670887097
 21
724.093081054
 31
0.0
  0
LINE
  5
1D2
100
AcDbEntity
  8
GEKO
  6
SOLID
 62
        7
100
AcDbLine
 10
1325.670887097
 20
724.093081054
 30
0.0
 11
1325.748532813
 21
723.803303294
 31
0.0
  0
LINE
  5
1D3
100
AcDbEntity
  8
GEKO
  6
SOLID
 62
        7
100
AcDbLine
 10
1314.562740094
 20
721.116662035
 30
0.0
 11
1314.640385811
 21
720.826884275
 31
0.0
  0
LINE
  5
1D4
100
AcDbEntity
  8
GEKO
  6
SOLID
 62
        7
100
AcDbLine
 10
1326.92591072
 20
718.942399666
 30
0.0
 11
1316.051198448
 21
716.028529295
 31
0.0
  0
ARC
  5
1D5
100
AcDbEntity
  8
GEKO
  6
SOLID
 62
        7
100
AcDbCircle
 10
1326.065966447
 20
722.151755384
 30
0.0
 40
3.322569529
100
AcDbArc
 50
250.615750846
 51
319.384249154
  0
LINE
  5
1D6
100
AcDbEntity
  8
GEKO
  6
SOLID
 62
        7
100
AcDbLine
 10
1324.963199561
 20
719.017529248
 30
0.0
 11
1323.819363403
 21
723.286383909
 31
0.0
  0
ARC
  5
1D7
100
AcDbEntity
  8
GEKO
  6
SOLID
 62
        7
100
AcDbCircle
 10
1318.274166162
 20
729.481725385
 30
0.0
 40
12.419443168
100
AcDbArc
 50
267.412045324
 51
302.587954676
  0
LINE
  5
1D8
100
AcDbEntity
  8
GEKO
  6
SOLID
 62
        7
100
AcDbLine
 10
1317.71339138
 20
717.074949001
 30
0.0
 11
1316.569555221
 21
721.343803661
 31
0.0
  0
ARC
  5
1D9
100
AcDbEntity
  8
GEKO
  6
SOLID
 62
        7
100
AcDbCircle
 10
1315.191254175
 20
719.237885013
 30
0.0
 40
3.322569529
100
AcDbArc
 50
250.615750846
 51
319.384249154
  0
LINE
  5
1DA
100
AcDbEntity
  8
GEKO
  6
SOLID
 62
        7
100
AcDbLine
 10
1312.944651131
 20
720.372513537
 30
0.0
 11
1314.08848729
 21
716.103658877
 31
0.0
  0
LINE
  5
1DB
100
AcDbEntity
  8
GEKO
  6
SOLID
 62
        7
100
AcDbLine
 10
1327.444267493
 20
724.257674032
 30
0.0
 11
1312.944651131
 21
720.372513537
 31
0.0
  0
LINE
  5
1DC
100
AcDbEntity
  8
GEKO
  6
SOLID
 62
        7
100
AcDbLine
 10
1328.588103652
 20
719.988819372
 30
0.0
 11
1327.444267493
 21
724.257674032
 31
0.0
  0
LINE
  5
1DD
100
AcDbEntity
  8
GEKO
  6
SOLID
 62
        7
100
AcDbLine
 10
1316.123700768
 20
722.052558277
 30
0.0
 11
1314.079891571
 21
729.680158042
 31
0.0
  0
LINE
  5
1DE
100
AcDbEntity
  8
GEKO
  6
SOLID
 62
        7
100
AcDbLine
 10
1323.380851394
 20
732.172342715
 30
0.0
 11
1312.506139122
 21
729.258472344
 31
0.0
  0
LINE
  5
1DF
100
AcDbEntity
  8
GEKO
  6
SOLID
 62
        7
100
AcDbLine
 10
1319.958688864
 20
737.694218966
 30
0.0
 11
1321.418140277
 21
732.247472143
 31
0.0
  0
LINE
  5
1E0
100
AcDbEntity
  8
GEKO
  6
SOLID
 62
        7
100
AcDbLine
 10
1312.708880683
 20
735.751638719
 30
0.0
 11
1314.168332096
 21
730.304891896
 31
0.0
  0
ARC
  5
1E1
100
AcDbEntity
  8
GEKO
  6
SOLID
 62
        7
100
AcDbCircle
 10
1311.646194655
 20
732.467828787
 30
0.0
 40
3.32257028
100
AcDbArc
 50
250.615759711
 51
319.384240289
  0
ARC
  5
1E2
100
AcDbEntity
  8
GEKO
  6
SOLID
 62
        7
100
AcDbCircle
 10
1314.729105997
 20
742.711671567
 30
0.0
 40
12.419446412
100
AcDbArc
 50
267.412050067
 51
302.587949933
  0
ARC
  5
1E3
100
AcDbEntity
  8
GEKO
  6
SOLID
 62
        7
100
AcDbCircle
 10
1322.520906927
 20
735.381699158
 30
0.0
 40
3.32257028
100
AcDbArc
 50
250.615759711
 51
319.384240289
  0
LINE
  5
1E4
100
AcDbEntity
  8
GEKO
  6
SOLID
 62
        7
100
AcDbLine
 10
1323.583592955
 20
738.66550909
 30
0.0
 11
1325.043044367
 21
733.218762267
 31
0.0
  0
LINE
  5
1E5
100
AcDbEntity
  8
GEKO
  6
SOLID
 62
        7
100
AcDbLine
 10
1310.543428005
 20
729.333601772
 30
0.0
 11
1309.083976593
 21
734.780348595
 31
0.0
  0
ARC
  5
1E6
100
AcDbEntity
  8
GEKO
  6
SOLID
 62
        7
100
AcDbCircle
 10
1322.480826305
 20
735.531282075
 30
0.0
 40
3.32257028
100
AcDbArc
 50
70.615759711
 51
139.384240289
  0
LINE
  5
1E7
100
AcDbEntity
  8
GEKO
  6
SOLID
 62
        7
100
AcDbLine
 10
1310.746169566
 20
735.826768147
 30
0.0
 11
1321.620881838
 21
738.740638518
 31
0.0
  0
ARC
  5
1E8
100
AcDbEntity
  8
GEKO
  6
SOLID
 62
        7
100
AcDbCircle
 10
1319.397914963
 20
725.287439295
 30
0.0
 40
12.419446412
100
AcDbArc
 50
87.412050067
 51
122.587949933
  0
LINE
  5
1E9
100
AcDbEntity
  8
GEKO
  6
SOLID
 62
        7
100
AcDbLine
 10
1228.926030692
 20
1068.799422049
 30
0.0
 11
1151.792177187
 21
1048.131478159
 31
0.0
  0
ARC
  5
1EA
100
AcDbEntity
  8
GEKO
  6
SOLID
 62
        7
100
AcDbCircle
 10
1311.606114033
 20
732.617411704
 30
0.0
 40
3.32257028
100
AcDbArc
 50
70.615759711
 51
139.384240289
  0
LINE
  5
1EB
100
AcDbEntity
  8
GEKO
  6
SOLID
 62
        7
100
AcDbLine
 10
1134.514782054
 20
739.130852173
 30
0.0
 11
1279.403655998
 21
777.953708939
 31
0.0
  0
LINE
  5
1EC
100
AcDbEntity
  8
GEKO
  6
SOLID
 62
        7
100
AcDbLine
 10
1292.396372074
 20
729.464232413
 30
0.0
 11
1278.627198862
 21
780.851486418
 31
0.0
  0
LINE
  5
1ED
100
AcDbEntity
  8
GEKO
  6
SOLID
 62
        7
100
AcDbLine
 10
1146.161639084
 20
695.66418999
 30
0.0
 11
1291.050513027
 21
734.487046756
 31
0.0
  0
LINE
  5
1EE
100
AcDbEntity
  8
GEKO
  6
SOLID
 62
        7
100
AcDbLine
 10
1144.349905768
 20
702.425670774
 30
0.0
 11
1289.238779711
 21
741.24852754
 31
0.0
  0
LINE
  5
1EF
100
AcDbEntity
  8
GEKO
  6
SOLID
 62
        7
100
AcDbLine
 10
1216.209345973
 20
704.701820288
 30
0.0
 11
1293.483412076
 21
725.407343897
 31
0.0
  0
LINE
  5
1F0
100
AcDbEntity
  8
GEKO
  6
SOLID
 62
        7
100
AcDbLine
 10
1293.483412076
 20
725.407343897
 30
0.0
 11
1292.396372074
 21
729.464232413
 31
0.0
  0
LINE
  5
1F1
100
AcDbEntity
  8
GEKO
  6
SOLID
 62
        7
100
AcDbLine
 10
1222.400429006
 20
720.233416904
 30
0.0
 11
1223.435705187
 21
716.369713599
 31
0.0
  0
LINE
  5
1F2
100
AcDbEntity
  8
GEKO
  6
SOLID
 62
        7
100
AcDbLine
 10
1212.741170744
 20
717.645226453
 30
0.0
 11
1222.400429006
 21
720.233416904
 31
0.0
  0
LINE
  5
1F3
100
AcDbEntity
  8
GEKO
  6
SOLID
 62
        7
100
AcDbLine
 10
1212.741170744
 20
717.645226453
 30
0.0
 11
1213.776446924
 21
713.781523148
 31
0.0
  0
LINE
  5
1F4
100
AcDbEntity
  8
GEKO
  6
SOLID
 62
        7
100
AcDbLine
 10
1225.868604236
 20
707.290010739
 30
0.0
 11
1148.594538132
 21
686.584487131
 31
0.0
  0
LINE
  5
1F5
100
AcDbEntity
  8
GEKO
  6
SOLID
 62
        7
100
AcDbLine
 10
1206.062593745
 20
754.160925815
 30
0.0
 11
1215.638898414
 21
718.421670242
 31
0.0
  0
LINE
  5
1F6
100
AcDbEntity
  8
GEKO
  6
SOLID
 62
        7
100
AcDbLine
 10
1221.883741557
 20
710.570411567
 30
0.0
 11
1220.537877899
 21
715.593243117
 31
0.0
  0
LINE
  5
1F7
100
AcDbEntity
  8
GEKO
  6
SOLID
 62
        7
100
AcDbLine
 10
1216.571149512
 20
709.146906818
 30
0.0
 11
1223.332630296
 21
710.958640134
 31
0.0
  0
LINE
  5
1F8
100
AcDbEntity
  8
GEKO
  6
SOLID
 62
        7
100
AcDbLine
 10
1217.375696277
 20
706.670766504
 30
0.0
 11
1216.571149512
 21
709.146906818
 31
0.0
  0
LINE
  5
1F9
100
AcDbEntity
  8
GEKO
  6
SOLID
 62
        7
100
AcDbLine
 10
1220.141856484
 20
707.411956898
 30
0.0
 11
1217.375696277
 21
706.670766504
 31
0.0
  0
LINE
  5
1FA
100
AcDbEntity
  8
GEKO
  6
SOLID
 62
        7
100
AcDbLine
 10
1219.831273617
 20
708.571067935
 30
0.0
 11
1220.141856484
 21
707.411956898
 31
0.0
  0
LINE
  5
1FB
100
AcDbEntity
  8
GEKO
  6
SOLID
 62
        7
100
AcDbLine
 10
1220.797199444
 20
708.82988698
 30
0.0
 11
1219.831273617
 21
708.571067935
 31
0.0
  0
LINE
  5
1FC
100
AcDbEntity
  8
GEKO
  6
SOLID
 62
        7
100
AcDbLine
 10
1221.10778231
 20
707.670775943
 30
0.0
 11
1220.797199444
 21
708.82988698
 31
0.0
  0
LINE
  5
1FD
100
AcDbEntity
  8
GEKO
  6
SOLID
 62
        7
100
AcDbLine
 10
1223.873942517
 20
708.411966336
 30
0.0
 11
1221.10778231
 21
707.670775943
 31
0.0
  0
LINE
  5
1FE
100
AcDbEntity
  8
GEKO
  6
SOLID
 62
        7
100
AcDbLine
 10
1223.332630296
 20
710.958640134
 30
0.0
 11
1223.873942517
 21
708.411966336
 31
0.0
  0
LINE
  5
1FF
100
AcDbEntity
  8
GEKO
  6
SOLID
 62
        7
100
AcDbLine
 10
1203.164866075
 20
753.384482025
 30
0.0
 11
1212.824124338
 21
755.972672476
 31
0.0
  0
LINE
  5
200
100
AcDbEntity
  8
GEKO
  6
SOLID
 62
        7
100
AcDbLine
 10
1212.824124338
 20
755.972672476
 30
0.0
 11
1211.788848157
 21
759.836375782
 31
0.0
  0
LINE
  5
201
100
AcDbEntity
  8
GEKO
  6
SOLID
 62
        7
100
AcDbLine
 10
1203.164866075
 20
753.384482025
 30
0.0
 11
1202.129589894
 21
757.248185331
 31
0.0
  0
LINE
  5
202
100
AcDbEntity
  8
GEKO
  6
SOLID
 62
        7
100
AcDbLine
 10
1148.594538132
 20
686.584487131
 30
0.0
 11
1147.507498131
 21
690.641375648
 31
0.0
  0
LINE
  5
203
100
AcDbEntity
  8
GEKO
  6
SOLID
 62
        7
100
AcDbLine
 10
1147.507498131
 20
690.641375648
 30
0.0
 11
1133.738324919
 21
742.028629652
 31
0.0
  0
ARC
  5
204
100
AcDbEntity
  8
GEKO
  6
SOLID
 62
        7
100
AcDbCircle
 10
1300.261687098
 20
734.884747402
 30
0.0
 40
2.0
100
AcDbArc
 50
195.0
 51
285.000006837
  0
ARC
  5
205
100
AcDbEntity
  8
GEKO
  6
SOLID
 62
        7
100
AcDbCircle
 10
1283.974696259
 20
780.213811495
 30
0.0
 40
2.0
100
AcDbArc
 50
15.0
 51
105.000006837
  0
LINE
  5
206
100
AcDbEntity
  8
GEKO
  6
SOLID
 62
        7
100
AcDbLine
 10
1245.387482263
 20
873.40200504
 30
0.0
 11
1103.804619454
 21
835.464982234
 31
0.0
  0
LINE
  5
207
100
AcDbEntity
  8
GEKO
  6
SOLID
 62
        7
100
AcDbLine
 10
1226.752502716
 20
942.948662309
 30
0.0
 11
1085.169648206
 21
905.011641726
 31
0.0
  0
LINE
  5
208
100
AcDbEntity
  8
GEKO
  6
SOLID
 62
        7
100
AcDbLine
 10
1242.540471499
 20
884.027188789
 30
0.0
 11
1100.957609957
 21
846.090166323
 31
0.0
  0
LINE
  5
209
100
AcDbEntity
  8
GEKO
  6
SOLID
 62
        7
100
AcDbLine
 10
773.3946583
 20
737.560230616
 30
0.0
 11
751.32760463
 21
819.915596086
 31
0.0
  0
ARC
  5
20A
100
AcDbEntity
  8
GEKO
  6
SOLID
 62
        7
100
AcDbCircle
 10
959.730749973
 20
874.044575535
 30
0.0
 40
5.0
100
AcDbArc
 50
210.0
 51
305.296380912
  0
ARC
  5
20B
100
AcDbEntity
  8
GEKO
  6
SOLID
 62
        7
100
AcDbCircle
 10
944.142292704
 20
865.044575535
 30
0.0
 40
5.0
100
AcDbArc
 50
294.703619088
 51
30.0
  0
ARC
  5
20C
100
AcDbEntity
  8
GEKO
  6
SOLID
 62
        7
100
AcDbCircle
 10
862.647023221
 20
865.044575535
 30
0.0
 40
5.0
100
AcDbArc
 50
150.0
 51
245.296380912
  0
ARC
  5
20D
100
AcDbEntity
  8
GEKO
  6
SOLID
 62
        7
100
AcDbCircle
 10
847.058565953
 20
874.044575535
 30
0.0
 40
5.0
100
AcDbArc
 50
234.703619088
 51
330.0
  0
ARC
  5
20E
100
AcDbEntity
  8
GEKO
  6
SOLID
 62
        7
100
AcDbCircle
 10
806.310931211
 20
944.621549196
 30
0.0
 40
5.0
100
AcDbArc
 50
90.0
 51
185.296380912
  0
ARC
  5
20F
100
AcDbEntity
  8
GEKO
  6
SOLID
 62
        7
100
AcDbCircle
 10
806.310931211
 20
962.621549196
 30
0.0
 40
5.0
100
AcDbArc
 50
174.703619088
 51
270.0
  0
ARC
  5
210
100
AcDbEntity
  8
GEKO
  6
SOLID
 62
        7
100
AcDbCircle
 10
847.058565953
 20
1033.198522857
 30
0.0
 40
5.0
100
AcDbArc
 50
30.0
 51
125.296380912
  0
LINE
  5
211
100
AcDbEntity
  8
GEKO
  6
SOLID
 62
        7
100
AcDbLine
 10
743.394922713
 20
823.62150086
 30
0.0
 11
746.497975499
 21
823.62150086
 31
0.0
  0
ARC
  5
212
100
AcDbEntity
  8
GEKO
  6
SOLID
 62
        7
100
AcDbCircle
 10
862.647023221
 20
1042.198522857
 30
0.0
 40
5.0
100
AcDbArc
 50
114.703619088
 51
210.0
  0
CIRCLE
  5
213
100
AcDbEntity
  8
GEKO
  6
SOLID
 62
        7
100
AcDbCircle
 10
642.177972954
 20
953.62142382
 30
0.0
 40
3.49999994
  0
LINE
  5
214
100
AcDbEntity
  8
GEKO
  6
SOLID
 62
        7
100
AcDbLine
 10
1233.926030234
 20
1064.962786512
 30
0.0
 11
1143.427013841
 21
1040.713659729
 31
0.0
  0
LINE
  5
215
100
AcDbEntity
  8
GEKO
  6
SOLID
 62
        7
100
AcDbLine
 10
1235.408394065
 20
1081.056701785
 30
0.0
 11
1235.408392375
 21
1066.894637988
 31
0.0
  0
ARC
  5
216
100
AcDbEntity
  8
GEKO
  6
SOLID
 62
        7
100
AcDbCircle
 10
1233.408392374
 20
1066.894638227
 30
0.0
 40
2.0
100
AcDbArc
 50
284.999993163
 51
359.999993163
  0
ARC
  5
217
100
AcDbEntity
  8
GEKO
  6
SOLID
 62
        7
100
AcDbCircle
 10
1228.408392831
 20
1070.731273763
 30
0.0
 40
2.0
100
AcDbArc
 50
284.999993163
 51
359.999993163
  0
LINE
  5
218
100
AcDbEntity
  8
GEKO
  6
CENTER
 62
        7
100
AcDbLine
 10
903.3946583
 20
606.058317006
 30
0.0
 11
903.3946583
 21
1370.958305754
 31
0.0
  0
LINE
  5
219
100
AcDbEntity
  8
GEKO
  6
SOLID
 62
        7
100
AcDbLine
 10
1230.408394007
 20
1080.569976032
 30
0.0
 11
1230.408392833
 21
1070.731273525
 31
0.0
  0
ARC
  5
21A
100
AcDbEntity
  8
GEKO
  6
SOLID
 62
        7
100
AcDbCircle
 10
1214.7817146
 20
1057.762532753
 30
0.0
 40
2.0
100
AcDbArc
 50
15.000006837
 51
104.999993163
  0
LINE
  5
21B
100
AcDbEntity
  8
GEKO
  6
SOLID
 62
        7
100
AcDbLine
 10
660.677972954
 20
926.12142382
 30
0.0
 11
660.677972954
 21
941.12142382
 31
0.0
  0
LINE
  5
21C
100
AcDbEntity
  8
GEKO
  6
SOLID
 62
        7
100
AcDbLine
 10
654.677972715
 20
926.12142382
 30
0.0
 11
654.677972715
 21
941.12142382
 31
0.0
  0
LINE
  5
21D
100
AcDbEntity
  8
GEKO
  6
SOLID
 62
        7
100
AcDbLine
 10
660.677972954
 20
981.12142382
 30
0.0
 11
660.677972954
 21
966.12142382
 31
0.0
  0
LINE
  5
21E
100
AcDbEntity
  8
GEKO
  6
SOLID
 62
        7
100
AcDbLine
 10
654.677972715
 20
981.12142382
 30
0.0
 11
654.677972715
 21
966.12142382
 31
0.0
  0
ARC
  5
21F
100
AcDbEntity
  8
GEKO
  6
SOLID
 62
        7
100
AcDbCircle
 10
746.497975499
 20
818.62150086
 30
0.0
 40
5.0
100
AcDbArc
 50
15.0
 51
90.0
  0
LINE
  5
220
100
AcDbEntity
  8
GEKO
  6
SOLID
 62
        7
100
AcDbLine
 10
936.519339477
 20
1002.995180565
 30
0.0
 11
955.400622953
 21
1035.698522858
 31
0.0
  0
LINE
  5
221
100
AcDbEntity
  8
GEKO
  6
SOLID
 62
        7
100
AcDbLine
 10
929.591136247
 20
1006.995180565
 30
0.0
 11
948.472419723
 21
1039.698522858
 31
0.0
  0
LINE
  5
222
100
AcDbEntity
  8
GEKO
  6
SOLID
 62
        7
100
AcDbLine
 10
962.715817763
 20
949.621549196
 30
0.0
 11
1000.478384714
 21
949.621549196
 31
0.0
  0
LINE
  5
223
100
AcDbEntity
  8
GEKO
  6
SOLID
 62
        7
100
AcDbLine
 10
962.715817763
 20
957.621549196
 30
0.0
 11
1000.478384714
 21
957.621549196
 31
0.0
  0
LINE
  5
224
100
AcDbEntity
  8
GEKO
  6
SOLID
 62
        7
100
AcDbLine
 10
929.591136248
 20
900.247917828
 30
0.0
 11
948.472419724
 21
867.544575535
 31
0.0
  0
LINE
  5
225
100
AcDbEntity
  8
GEKO
  6
SOLID
 62
        7
100
AcDbLine
 10
936.519339478
 20
904.247917828
 30
0.0
 11
955.400622954
 21
871.544575535
 31
0.0
  0
LINE
  5
226
100
AcDbEntity
  8
GEKO
  6
SOLID
 62
        7
100
AcDbLine
 10
870.269976448
 20
904.247917828
 30
0.0
 11
851.388692972
 21
871.544575535
 31
0.0
  0
LINE
  5
227
100
AcDbEntity
  8
GEKO
  6
SOLID
 62
        7
100
AcDbLine
 10
877.198179678
 20
900.247917828
 30
0.0
 11
858.316896202
 21
867.544575535
 31
0.0
  0
LINE
  5
228
100
AcDbEntity
  8
GEKO
  6
SOLID
 62
        7
100
AcDbLine
 10
844.073498163
 20
957.621549196
 30
0.0
 11
806.310931211
 21
957.621549196
 31
0.0
  0
LINE
  5
229
100
AcDbEntity
  8
GEKO
  6
SOLID
 62
        7
100
AcDbLine
 10
844.073498163
 20
949.621549196
 30
0.0
 11
806.310931211
 21
949.621549196
 31
0.0
  0
LINE
  5
22A
100
AcDbEntity
  8
GEKO
  6
SOLID
 62
        7
100
AcDbLine
 10
877.198179678
 20
1006.995180565
 30
0.0
 11
858.316896202
 21
1039.698522858
 31
0.0
  0
LINE
  5
22B
100
AcDbEntity
  8
GEKO
  6
SOLID
 62
        7
100
AcDbLine
 10
870.269976448
 20
1002.995180565
 30
0.0
 11
851.388692972
 21
1035.698522858
 31
0.0
  0
LINE
  5
22C
100
AcDbEntity
  8
GEKO
  6
SOLID
 62
        7
100
AcDbLine
 10
963.84575867
 20
832.998247634
 30
0.0
 11
973.08301146
 21
833.078815397
 31
0.0
  0
LINE
  5
22D
100
AcDbEntity
  8
GEKO
  6
SOLID
 62
        7
100
AcDbLine
 10
959.15735845
 20
840.957659351
 30
0.0
 11
963.845758636
 21
832.998247692
 31
0.0
  0
LINE
  5
22E
100
AcDbEntity
  8
GEKO
  6
SOLID
 62
        7
100
AcDbLine
 10
973.083011649
 20
833.078815542
 30
0.0
 11
977.63186419
 21
841.118795072
 31
0.0
  0
LINE
  5
22F
100
AcDbEntity
  8
GEKO
  6
SOLID
 62
        7
100
AcDbLine
 10
977.631864409
 20
841.118795167
 30
0.0
 11
972.943464223
 21
849.078206827
 31
0.0
  0
LINE
  5
230
100
AcDbEntity
  8
GEKO
  6
SOLID
 62
        7
100
AcDbLine
 10
972.943464189
 20
849.078206884
 30
0.0
 11
963.706211399
 21
848.997639121
 31
0.0
  0
LINE
  5
231
100
AcDbEntity
  8
GEKO
  6
SOLID
 62
        7
100
AcDbLine
 10
963.70621121
 20
848.997638976
 30
0.0
 11
959.157358669
 21
840.957659447
 31
0.0
  0
LINE
  5
232
100
AcDbEntity
  8
GEKO
  6
SOLID
 62
        7
100
AcDbLine
 10
829.157364875
 20
840.957709516
 30
0.0
 11
833.845765
 21
832.998297821
 31
0.0
  0
LINE
  5
233
100
AcDbEntity
  8
GEKO
  6
SOLID
 62
        7
100
AcDbLine
 10
833.706217511
 20
848.997689068
 30
0.0
 11
829.157364908
 21
840.957709574
 31
0.0
  0
LINE
  5
234
100
AcDbEntity
  8
GEKO
  6
SOLID
 62
        7
100
AcDbLine
 10
833.84576522
 20
832.998297729
 30
0.0
 11
843.083018009
 21
833.078865635
 31
0.0
  0
LINE
  5
235
100
AcDbEntity
  8
GEKO
  6
SOLID
 62
        7
100
AcDbLine
 10
843.083018201
 20
833.078865493
 30
0.0
 11
847.631870804
 21
841.118844987
 31
0.0
  0
LINE
  5
236
100
AcDbEntity
  8
GEKO
  6
SOLID
 62
        7
100
AcDbLine
 10
847.631870837
 20
841.118845045
 30
0.0
 11
842.943470713
 21
849.078256741
 31
0.0
  0
LINE
  5
237
100
AcDbEntity
  8
GEKO
  6
SOLID
 62
        7
100
AcDbLine
 10
842.943470492
 20
849.078256833
 30
0.0
 11
833.706217703
 21
848.997688926
 31
0.0
  0
LINE
  5
238
100
AcDbEntity
  8
GEKO
  6
SOLID
 62
        7
100
AcDbLine
 10
768.706264168
 20
961.581011078
 30
0.0
 11
764.157411503
 21
953.54103162
 31
0.0
  0
LINE
  5
239
100
AcDbEntity
  8
GEKO
  6
SOLID
 62
        7
100
AcDbLine
 10
777.943517024
 20
961.661578914
 30
0.0
 11
768.706264235
 21
961.581011079
 31
0.0
  0
LINE
  5
23A
100
AcDbEntity
  8
GEKO
  6
SOLID
 62
        7
100
AcDbLine
 10
764.157411534
 20
953.541031383
 30
0.0
 11
768.845811782
 21
945.58161976
 31
0.0
  0
LINE
  5
23B
100
AcDbEntity
  8
GEKO
  6
SOLID
 62
        7
100
AcDbLine
 10
768.845811755
 20
945.581619523
 30
0.0
 11
778.083064544
 21
945.662187357
 31
0.0
  0
LINE
  5
23C
100
AcDbEntity
  8
GEKO
  6
SOLID
 62
        7
100
AcDbLine
 10
778.083064611
 20
945.662187358
 30
0.0
 11
782.631917276
 21
953.702166816
 31
0.0
  0
LINE
  5
23D
100
AcDbEntity
  8
GEKO
  6
SOLID
 62
        7
100
AcDbLine
 10
782.631917245
 20
953.702167053
 30
0.0
 11
777.943516997
 21
961.661578676
 31
0.0
  0
LINE
  5
23E
100
AcDbEntity
  8
GEKO
  6
CENTER
 62
        7
100
AcDbLine
 10
1122.079475708
 20
953.62150086
 30
0.0
 11
700.367604562
 21
953.62150086
 31
0.0
  0
LINE
  5
23F
100
AcDbEntity
  8
GEKO
  6
SOLID
 62
        7
100
AcDbLine
 10
842.943557256
 20
1074.244850758
 30
0.0
 11
833.706304466
 21
1074.164282996
 31
0.0
  0
LINE
  5
240
100
AcDbEntity
  8
GEKO
  6
SOLID
 62
        7
100
AcDbLine
 10
847.631957476
 20
1066.285439042
 30
0.0
 11
842.94355729
 21
1074.244850701
 31
0.0
  0
LINE
  5
241
100
AcDbEntity
  8
GEKO
  6
SOLID
 62
        7
100
AcDbLine
 10
833.706304276
 20
1074.16428285
 30
0.0
 11
829.157451736
 21
1066.124303321
 31
0.0
  0
LINE
  5
242
100
AcDbEntity
  8
GEKO
  6
SOLID
 62
        7
100
AcDbLine
 10
829.157451517
 20
1066.124303226
 30
0.0
 11
833.845851703
 21
1058.164891566
 31
0.0
  0
LINE
  5
243
100
AcDbEntity
  8
GEKO
  6
SOLID
 62
        7
100
AcDbLine
 10
833.845851736
 20
1058.164891509
 30
0.0
 11
843.083104526
 21
1058.245459272
 31
0.0
  0
LINE
  5
244
100
AcDbEntity
  8
GEKO
  6
SOLID
 62
        7
100
AcDbLine
 10
843.083104716
 20
1058.245459417
 30
0.0
 11
847.631957257
 21
1066.285438946
 31
0.0
  0
LINE
  5
245
100
AcDbEntity
  8
GEKO
  6
SOLID
 62
        7
100
AcDbLine
 10
977.63195105
 20
1066.285388876
 30
0.0
 11
972.943550926
 21
1074.244800572
 31
0.0
  0
LINE
  5
246
100
AcDbEntity
  8
GEKO
  6
SOLID
 62
        7
100
AcDbLine
 10
973.083098414
 20
1058.245409324
 30
0.0
 11
977.631951018
 21
1066.285388818
 31
0.0
  0
LINE
  5
247
100
AcDbEntity
  8
GEKO
  6
SOLID
 62
        7
100
AcDbLine
 10
972.943550705
 20
1074.244800664
 30
0.0
 11
963.706297917
 21
1074.164232757
 31
0.0
  0
LINE
  5
248
100
AcDbEntity
  8
GEKO
  6
SOLID
 62
        7
100
AcDbLine
 10
963.706297725
 20
1074.164232899
 30
0.0
 11
959.157445121
 21
1066.124253405
 31
0.0
  0
LINE
  5
249
100
AcDbEntity
  8
GEKO
  6
SOLID
 62
        7
100
AcDbLine
 10
959.157445089
 20
1066.124253347
 30
0.0
 11
963.845845213
 21
1058.164841652
 31
0.0
  0
LINE
  5
24A
100
AcDbEntity
  8
GEKO
  6
SOLID
 62
        7
100
AcDbLine
 10
963.845845434
 20
1058.16484156
 30
0.0
 11
973.083098222
 21
1058.245409466
 31
0.0
  0
LINE
  5
24B
100
AcDbEntity
  8
GEKO
  6
SOLID
 62
        7
100
AcDbLine
 10
1038.083051757
 20
945.662087314
 30
0.0
 11
1042.631904423
 21
953.702066773
 31
0.0
  0
LINE
  5
24C
100
AcDbEntity
  8
GEKO
  6
SOLID
 62
        7
100
AcDbLine
 10
1042.631904392
 20
953.70206701
 30
0.0
 11
1037.943504144
 21
961.661478633
 31
0.0
  0
LINE
  5
24D
100
AcDbEntity
  8
GEKO
  6
SOLID
 62
        7
100
AcDbLine
 10
1037.943504171
 20
961.66147887
 30
0.0
 11
1028.706251381
 21
961.580911036
 31
0.0
  0
LINE
  5
24E
100
AcDbEntity
  8
GEKO
  6
SOLID
 62
        7
100
AcDbLine
 10
1028.706251315
 20
961.580911035
 30
0.0
 11
1024.157398649
 21
953.540931576
 31
0.0
  0
LINE
  5
24F
100
AcDbEntity
  8
GEKO
  6
SOLID
 62
        7
100
AcDbLine
 10
1024.15739868
 20
953.54093134
 30
0.0
 11
1028.845798928
 21
945.581519717
 31
0.0
  0
LINE
  5
250
100
AcDbEntity
  8
GEKO
  6
SOLID
 62
        7
100
AcDbLine
 10
1028.845798901
 20
945.581519479
 30
0.0
 11
1038.083051691
 21
945.662087314
 31
0.0
  0
LINE
  5
251
100
AcDbEntity
  8
GEKO
  6
CENTER
 62
        7
100
AcDbLine
 10
972.319822112
 20
1073.003435423
 30
0.0
 11
964.982308857
 21
1060.294489664
 31
0.0
  0
LINE
  5
252
100
AcDbEntity
  8
GEKO
  6
CENTER
 62
        7
100
AcDbLine
 10
835.651004028
 20
1070.956999702
 30
0.0
 11
840.95352
 21
1061.77277263
 31
0.0
  0
ARC
  5
253
100
AcDbEntity
  8
GEKO
  6
SOLID
 62
        7
100
AcDbCircle
 10
903.394657963
 20
953.621549196
 30
0.0
 40
140.0
100
AcDbArc
 50
111.786789298
 51
68.213210702
  0
LINE
  5
254
100
AcDbEntity
  8
GEKO
  6
CENTER
 62
        7
100
AcDbLine
 10
835.336200975
 20
835.740843808
 30
0.0
 11
842.784358182
 21
848.641430513
 31
0.0
  0
LINE
  5
255
100
AcDbEntity
  8
GEKO
  6
CENTER
 62
        7
100
AcDbLine
 10
971.076437045
 20
836.393269079
 30
0.0
 11
965.360992225
 21
846.292709895
 31
0.0
  0
ARC
  5
256
100
AcDbEntity
  8
GEKO
  6
SOLID
 62
        7
100
AcDbCircle
 10
903.394657963
 20
953.621549196
 30
0.0
 40
102.5
100
AcDbArc
 50
305.296380912
 51
354.703619088
  0
ARC
  5
257
100
AcDbEntity
  8
GEKO
  6
SOLID
 62
        7
100
AcDbCircle
 10
903.394657963
 20
953.621549196
 30
0.0
 40
55.0
100
AcDbArc
 50
308.626926559
 51
351.373073441
  0
ARC
  5
258
100
AcDbEntity
  8
GEKO
  6
SOLID
 62
        7
100
AcDbCircle
 10
903.394657963
 20
953.621549196
 30
0.0
 40
102.5
100
AcDbArc
 50
245.296380912
 51
294.703619088
  0
ARC
  5
259
100
AcDbEntity
  8
GEKO
  6
SOLID
 62
        7
100
AcDbCircle
 10
903.394657963
 20
953.621549196
 30
0.0
 40
55.0
100
AcDbArc
 50
248.626926559
 51
291.373073441
  0
ARC
  5
25A
100
AcDbEntity
  8
GEKO
  6
SOLID
 62
        7
100
AcDbCircle
 10
903.394657963
 20
953.621549196
 30
0.0
 40
102.5
100
AcDbArc
 50
185.296380912
 51
234.703619088
  0
ARC
  5
25B
100
AcDbEntity
  8
GEKO
  6
SOLID
 62
        7
100
AcDbCircle
 10
903.394657963
 20
953.621549196
 30
0.0
 40
55.0
100
AcDbArc
 50
188.626926559
 51
231.373073441
  0
ARC
  5
25C
100
AcDbEntity
  8
GEKO
  6
SOLID
 62
        7
100
AcDbCircle
 10
903.394657963
 20
953.621549196
 30
0.0
 40
102.5
100
AcDbArc
 50
125.296380912
 51
174.703619088
  0
ARC
  5
25D
100
AcDbEntity
  8
GEKO
  6
SOLID
 62
        7
100
AcDbCircle
 10
903.394657963
 20
953.621549196
 30
0.0
 40
55.0
100
AcDbArc
 50
128.626926559
 51
171.373073441
  0
ARC
  5
25E
100
AcDbEntity
  8
GEKO
  6
SOLID
 62
        7
100
AcDbCircle
 10
903.394657963
 20
953.621549196
 30
0.0
 40
102.5
100
AcDbArc
 50
65.296380912
 51
114.703619088
  0
ARC
  5
25F
100
AcDbEntity
  8
GEKO
  6
SOLID
 62
        7
100
AcDbCircle
 10
903.394657963
 20
953.621549196
 30
0.0
 40
55.0
100
AcDbArc
 50
68.626926559
 51
111.373073441
  0
ARC
  5
260
100
AcDbEntity
  8
GEKO
  6
CENTER
 62
        7
100
AcDbCircle
 10
903.394657963
 20
953.621549196
 30
0.0
 40
130.0
100
AcDbArc
 50
295.296871235
 51
305.006955124
  0
ARC
  5
261
100
AcDbEntity
  8
GEKO
  6
CENTER
 62
        7
100
AcDbCircle
 10
903.394657963
 20
953.621549196
 30
0.0
 40
130.0
100
AcDbArc
 50
355.296871235
 51
5.006955124
  0
ARC
  5
262
100
AcDbEntity
  8
GEKO
  6
CENTER
 62
        7
100
AcDbCircle
 10
903.394657963
 20
953.621549196
 30
0.0
 40
130.0
100
AcDbArc
 50
55.296871235
 51
65.006955124
  0
ARC
  5
263
100
AcDbEntity
  8
GEKO
  6
CENTER
 62
        7
100
AcDbCircle
 10
903.394657963
 20
953.621549196
 30
0.0
 40
130.0
100
AcDbArc
 50
115.296871235
 51
125.006955124
  0
ARC
  5
264
100
AcDbEntity
  8
GEKO
  6
CENTER
 62
        7
100
AcDbCircle
 10
903.394657963
 20
953.621549196
 30
0.0
 40
130.0
100
AcDbArc
 50
175.296871235
 51
185.006955124
  0
ARC
  5
265
100
AcDbEntity
  8
GEKO
  6
CENTER
 62
        7
100
AcDbCircle
 10
903.394657963
 20
953.621549196
 30
0.0
 40
130.0
100
AcDbArc
 50
235.296871235
 51
245.006955124
  0
ARC
  5
266
100
AcDbEntity
  8
GEKO
  6
SOLID
 62
        7
100
AcDbCircle
 10
903.394657963
 20
953.621549196
 30
0.0
 40
102.5
100
AcDbArc
 50
5.296380912
 51
54.703619088
  0
ARC
  5
267
100
AcDbEntity
  8
GEKO
  6
SOLID
 62
        7
100
AcDbCircle
 10
903.394657963
 20
953.621549196
 30
0.0
 40
55.0
100
AcDbArc
 50
8.626926559
 51
51.373073441
  0
CIRCLE
  5
268
100
AcDbEntity
  8
GEKO
  6
SOLID
 62
        7
100
AcDbCircle
 10
903.394657963
 20
953.621549196
 30
0.0
 40
40.0
  0
LINE
  5
269
100
AcDbEntity
  8
GEKO
  6
SOLID
 62
        7
100
AcDbLine
 10
851.433133736
 20
1083.621549196
 30
0.0
 11
955.35618219
 21
1083.621549196
 31
0.0
  0
ARC
  5
26A
100
AcDbEntity
  8
GEKO
  6
SOLID
 62
        7
100
AcDbCircle
 10
944.142292705
 20
1042.198522857
 30
0.0
 40
5.0
100
AcDbArc
 50
-30.0
 51
65.296380912
  0
ARC
  5
26B
100
AcDbEntity
  8
GEKO
  6
SOLID
 62
        7
100
AcDbCircle
 10
959.730749973
 20
1033.198522857
 30
0.0
 40
5.0
100
AcDbArc
 50
54.703619088
 51
150.0
  0
ARC
  5
26C
100
AcDbEntity
  8
GEKO
  6
SOLID
 62
        7
100
AcDbCircle
 10
1000.478384714
 20
962.621549196
 30
0.0
 40
5.0
100
AcDbArc
 50
270.0
 51
5.296380912
  0
ARC
  5
26D
100
AcDbEntity
  8
GEKO
  6
SOLID
 62
        7
100
AcDbCircle
 10
1000.478384714
 20
944.621549196
 30
0.0
 40
5.0
100
AcDbArc
 50
-5.296380912
 51
90.0
  0
ARC
  5
26E
100
AcDbEntity
  8
GEKO
  6
SOLID
 62
        7
100
AcDbCircle
 10
940.849466497
 20
906.747917828
 30
0.0
 40
5.0
100
AcDbArc
 50
128.626926559
 51
210.0
  0
ARC
  5
26F
100
AcDbEntity
  8
GEKO
  6
SOLID
 62
        7
100
AcDbCircle
 10
925.261009229
 20
897.747917828
 30
0.0
 40
5.0
100
AcDbArc
 50
30.0
 51
111.373073441
  0
ARC
  5
270
100
AcDbEntity
  8
GEKO
  6
SOLID
 62
        7
100
AcDbCircle
 10
881.528306697
 20
897.747917828
 30
0.0
 40
5.0
100
AcDbArc
 50
68.626926559
 51
150.0
  0
ARC
  5
271
100
AcDbEntity
  8
GEKO
  6
SOLID
 62
        7
100
AcDbCircle
 10
865.939849429
 20
906.747917828
 30
0.0
 40
5.0
100
AcDbArc
 50
-30.0
 51
51.373073441
  0
ARC
  5
272
100
AcDbEntity
  8
GEKO
  6
SOLID
 62
        7
100
AcDbCircle
 10
844.073498163
 20
944.621549196
 30
0.0
 40
5.0
100
AcDbArc
 50
8.626926559
 51
90.0
  0
ARC
  5
273
100
AcDbEntity
  8
GEKO
  6
SOLID
 62
        7
100
AcDbCircle
 10
844.073498163
 20
962.621549196
 30
0.0
 40
5.0
100
AcDbArc
 50
270.0
 51
351.373073441
  0
ARC
  5
274
100
AcDbEntity
  8
GEKO
  6
SOLID
 62
        7
100
AcDbCircle
 10
865.939849429
 20
1000.495180565
 30
0.0
 40
5.0
100
AcDbArc
 50
-51.373073441
 51
30.0
  0
ARC
  5
275
100
AcDbEntity
  8
GEKO
  6
SOLID
 62
        7
100
AcDbCircle
 10
881.528306697
 20
1009.495180565
 30
0.0
 40
5.0
100
AcDbArc
 50
210.0
 51
291.373073441
  0
ARC
  5
276
100
AcDbEntity
  8
GEKO
  6
SOLID
 62
        7
100
AcDbCircle
 10
925.261009229
 20
1009.495180565
 30
0.0
 40
5.0
100
AcDbArc
 50
248.626926559
 51
330.0
  0
ARC
  5
277
100
AcDbEntity
  8
GEKO
  6
SOLID
 62
        7
100
AcDbCircle
 10
940.849466497
 20
1000.495180565
 30
0.0
 40
5.0
100
AcDbArc
 50
150.0
 51
231.373073441
  0
ARC
  5
278
100
AcDbEntity
  8
GEKO
  6
SOLID
 62
        7
100
AcDbCircle
 10
962.715817763
 20
962.621549196
 30
0.0
 40
5.0
100
AcDbArc
 50
188.626926559
 51
270.0
  0
ARC
  5
279
100
AcDbEntity
  8
GEKO
  6
SOLID
 62
        7
100
AcDbCircle
 10
962.715817763
 20
944.621549196
 30
0.0
 40
5.0
100
AcDbArc
 50
90.0
 51
171.373073441
  0
LINE
  5
27A
100
AcDbEntity
  8
GEKO
  6
SOLID
 62
        7
100
AcDbLine
 10
866.394675435
 20
1087.621727695
 30
0.0
 11
865.394675364
 21
1088.621727624
 31
0.0
  0
LINE
  5
27B
100
AcDbEntity
  8
GEKO
  6
SOLID
 62
        7
100
AcDbLine
 10
841.394674648
 20
1088.621725951
 30
0.0
 11
840.394674719
 21
1087.62172588
 31
0.0
  0
LINE
  5
27C
100
AcDbEntity
  8
GEKO
  6
SOLID
 62
        7
100
AcDbLine
 10
841.39467467
 20
1088.621725951
 30
0.0
 11
865.39467467
 21
1088.621727652
 31
0.0
  0
LINE
  5
27D
100
AcDbEntity
  8
GEKO
  6
SOLID
 62
        7
100
AcDbLine
 10
840.39467469
 20
1087.621719412
 30
0.0
 11
840.394674973
 21
1083.621719412
 31
0.0
  0
LINE
  5
27E
100
AcDbEntity
  8
GEKO
  6
SOLID
 62
        7
100
AcDbLine
 10
866.394675436
 20
1087.621721255
 30
0.0
 11
866.394675719
 21
1083.621721255
 31
0.0
  0
ARC
  5
27F
100
AcDbEntity
  8
GEKO
  6
SOLID
 62
        7
100
AcDbCircle
 10
903.3946583
 20
953.62150086
 30
0.0
 40
180.0
100
AcDbArc
 50
17.228621392
 51
23.626780801
  0
LINE
  5
280
100
AcDbEntity
  8
GEKO
  6
SOLID
 62
        7
100
AcDbLine
 10
707.38616906
 20
953.62150086
 30
0.0
 11
634.323528635
 21
953.62150086
 31
0.0
  0
LINE
  5
281
100
AcDbEntity
  8
GEKO
  6
SOLID
 62
        7
100
AcDbLine
 10
768.3946583
 20
1083.62150086
 30
0.0
 11
743.394922713
 21
1083.62150086
 31
0.0
  0
LINE
  5
282
100
AcDbEntity
  8
GEKO
  6
SOLID
 62
        7
100
AcDbLine
 10
1033.3946583
 20
736.621774802
 30
0.0
 11
1033.3946583
 21
733.601788917
 31
0.0
  0
ARC
  5
283
100
AcDbEntity
  8
GEKO
  6
SOLID
 62
        7
100
AcDbCircle
 10
1038.3946583
 20
736.621774802
 30
0.0
 40
5.0
100
AcDbArc
 50
90.0
 51
180.0
  0
ARC
  5
284
100
AcDbEntity
  8
GEKO
  6
SOLID
 62
        7
100
AcDbCircle
 10
768.3946583
 20
1088.62150086
 30
0.0
 40
5.0
100
AcDbArc
 50
270.0
 51
0.0
  0
LINE
  5
285
100
AcDbEntity
  8
GEKO
  6
SOLID
 62
        7
100
AcDbLine
 10
743.394922713
 20
1083.62150086
 30
0.0
 11
743.394922713
 21
1023.62150086
 31
0.0
  0
LINE
  5
286
100
AcDbEntity
  8
GEKO
  6
SOLID
 62
        7
100
AcDbLine
 10
833.3946583
 20
1088.62150086
 30
0.0
 11
773.3946583
 21
1088.62150086
 31
0.0
  0
ARC
  5
287
100
AcDbEntity
  8
GEKO
  6
SOLID
 62
        7
100
AcDbCircle
 10
838.3946583
 20
1088.62150086
 30
0.0
 40
5.0
100
AcDbArc
 50
180.0
 51
270.0
  0
LINE
  5
288
100
AcDbEntity
  8
GEKO
  6
SOLID
 62
        7
100
AcDbLine
 10
968.3946583
 20
1083.62150086
 30
0.0
 11
838.3946583
 21
1083.62150086
 31
0.0
  0
LINE
  5
289
100
AcDbEntity
  8
GEKO
  6
SOLID
 62
        7
100
AcDbLine
 10
1116.764999476
 20
741.621774802
 30
0.0
 11
1038.3946583
 21
741.621774802
 31
0.0
  0
ARC
  5
28A
100
AcDbEntity
  8
GEKO
  6
SOLID
 62
        7
100
AcDbCircle
 10
743.394922713
 20
1018.62150086
 30
0.0
 40
5.0
100
AcDbArc
 50
0.0
 51
90.0
  0
LINE
  5
28B
100
AcDbEntity
  8
GEKO
  6
SOLID
 62
        7
100
AcDbLine
 10
973.3946583
 20
1088.62150086
 30
0.0
 11
1003.394643041
 21
1088.62150086
 31
0.0
  0
LINE
  5
28C
100
AcDbEntity
  8
GEKO
  6
SOLID
 62
        7
100
AcDbLine
 10
968.3946583
 20
741.621774802
 30
0.0
 11
838.3946583
 21
741.621774802
 31
0.0
  0
LINE
  5
28D
100
AcDbEntity
  8
GEKO
  6
SOLID
 62
        7
100
AcDbLine
 10
791.8946583
 20
1053.62150086
 30
0.0
 11
791.8946583
 21
1088.62150086
 31
0.0
  0
LINE
  5
28E
100
AcDbEntity
  8
GEKO
  6
SOLID
 62
        7
100
AcDbLine
 10
809.8946583
 20
1053.62150086
 30
0.0
 11
809.8946583
 21
1088.62150086
 31
0.0
  0
ARC
  5
28F
100
AcDbEntity
  8
GEKO
  6
SOLID
 62
        7
100
AcDbCircle
 10
968.3946583
 20
1088.62150086
 30
0.0
 40
5.0
100
AcDbArc
 50
270.0
 51
0.0
  0
LINE
  5
290
100
AcDbEntity
  8
GEKO
  6
SOLID
 62
        7
100
AcDbLine
 10
1027.689325286
 20
1088.62150086
 30
0.0
 11
1003.3946583
 21
1088.62150086
 31
0.0
  0
LINE
  5
291
100
AcDbEntity
  8
GEKO
  6
SOLID
 62
        7
100
AcDbLine
 10
833.3946583
 20
733.601788917
 30
0.0
 11
773.3946583
 21
733.601788917
 31
0.0
  0
LINE
  5
292
100
AcDbEntity
  8
GEKO
  6
SOLID
 62
        7
100
AcDbLine
 10
743.394922713
 20
883.62150086
 30
0.0
 11
743.394922713
 21
823.62150086
 31
0.0
  0
ARC
  5
293
100
AcDbEntity
  8
GEKO
  6
SOLID
 62
        7
100
AcDbCircle
 10
743.394922713
 20
888.62150086
 30
0.0
 40
5.0
100
AcDbArc
 50
270.0
 51
0.0
  0
LINE
  5
294
100
AcDbEntity
  8
GEKO
  6
SOLID
 62
        7
100
AcDbLine
 10
973.3946583
 20
736.621774802
 30
0.0
 11
973.3946583
 21
733.601788917
 31
0.0
  0
LINE
  5
295
100
AcDbEntity
  8
GEKO
  6
SOLID
 62
        7
100
AcDbLine
 10
748.394922713
 20
1018.62150086
 30
0.0
 11
748.394922713
 21
888.62150086
 31
0.0
  0
LINE
  5
296
100
AcDbEntity
  8
GEKO
  6
SOLID
 62
        7
100
AcDbLine
 10
773.3946583
 20
737.560230616
 30
0.0
 11
773.3946583
 21
733.601788917
 31
0.0
  0
ARC
  5
297
100
AcDbEntity
  8
GEKO
  6
SOLID
 62
        7
100
AcDbCircle
 10
968.3946583
 20
736.621774802
 30
0.0
 40
5.0
100
AcDbArc
 50
360.0
 51
90.0
  0
LINE
  5
298
100
AcDbEntity
  8
GEKO
  6
SOLID
 62
        7
100
AcDbLine
 10
833.3946583
 20
736.621774802
 30
0.0
 11
833.3946583
 21
733.601788917
 31
0.0
  0
ARC
  5
299
100
AcDbEntity
  8
GEKO
  6
SOLID
 62
        7
100
AcDbCircle
 10
838.3946583
 20
736.621774802
 30
0.0
 40
5.0
100
AcDbArc
 50
90.0
 51
180.0
  0
LINE
  5
29A
100
AcDbEntity
  8
GEKO
  6
SOLID
 62
        7
100
AcDbLine
 10
793.8946583
 20
1045.62150086
 30
0.0
 11
793.8946583
 21
1088.62150086
 31
0.0
  0
LINE
  5
29B
100
AcDbEntity
  8
GEKO
  6
SOLID
 62
        7
100
AcDbLine
 10
1033.3946583
 20
733.601788917
 30
0.0
 11
973.3946583
 21
733.601788917
 31
0.0
  0
LINE
  5
29C
100
AcDbEntity
  8
GEKO
  6
SOLID
 62
        7
100
AcDbLine
 10
807.8946583
 20
1045.62150086
 30
0.0
 11
807.8946583
 21
1088.62150086
 31
0.0
  0
LINE
  5
29D
100
AcDbEntity
  8
GEKO
  6
SOLID
 62
        7
100
AcDbLine
 10
808.8946583
 20
1053.62150086
 30
0.0
 11
792.8946583
 21
1053.62150086
 31
0.0
  0
LINE
  5
29E
100
AcDbEntity
  8
GEKO
  6
SOLID
 62
        7
100
AcDbLine
 10
807.8946583
 20
1045.62150086
 30
0.0
 11
793.8946583
 21
1045.62150086
 31
0.0
  0
LINE
  5
29F
100
AcDbEntity
  8
GEKO
  6
SOLID
 62
        7
100
AcDbLine
 10
793.8946583
 20
1045.62150086
 30
0.0
 11
800.8946583
 21
1041.580048976
 31
0.0
  0
LINE
  5
2A0
100
AcDbEntity
  8
GEKO
  6
SOLID
 62
        7
100
AcDbLine
 10
807.8946583
 20
1045.62150086
 30
0.0
 11
800.8946583
 21
1041.580048976
 31
0.0
  0
LINE
  5
2A1
100
AcDbEntity
  8
GEKO
  6
SOLID
 62
        7
100
AcDbLine
 10
778.394904992
 20
1065.121484781
 30
0.0
 11
743.394904992
 21
1065.121484781
 31
0.0
  0
LINE
  5
2A2
100
AcDbEntity
  8
GEKO
  6
SOLID
 62
        7
100
AcDbLine
 10
778.394904992
 20
1047.121484781
 30
0.0
 11
743.394904992
 21
1047.121484781
 31
0.0
  0
LINE
  5
2A3
100
AcDbEntity
  8
GEKO
  6
SOLID
 62
        7
100
AcDbLine
 10
786.394904992
 20
1049.121484781
 30
0.0
 11
743.394904992
 21
1049.121484781
 31
0.0
  0
LINE
  5
2A4
100
AcDbEntity
  8
GEKO
  6
SOLID
 62
        7
100
AcDbLine
 10
786.394904992
 20
1063.121484781
 30
0.0
 11
743.394904992
 21
1063.121484781
 31
0.0
  0
LINE
  5
2A5
100
AcDbEntity
  8
GEKO
  6
SOLID
 62
        7
100
AcDbLine
 10
778.394904992
 20
1064.121484781
 30
0.0
 11
778.394904992
 21
1048.121484781
 31
0.0
  0
LINE
  5
2A6
100
AcDbEntity
  8
GEKO
  6
SOLID
 62
        7
100
AcDbLine
 10
786.394904992
 20
1063.121484781
 30
0.0
 11
786.394904992
 21
1049.121484781
 31
0.0
  0
LINE
  5
2A7
100
AcDbEntity
  8
GEKO
  6
SOLID
 62
        7
100
AcDbLine
 10
786.394904992
 20
1049.121484781
 30
0.0
 11
790.436356876
 21
1056.121484781
 31
0.0
  0
LINE
  5
2A8
100
AcDbEntity
  8
GEKO
  6
SOLID
 62
        7
100
AcDbLine
 10
786.394904992
 20
1063.121484781
 30
0.0
 11
790.436356876
 21
1056.121484781
 31
0.0
  0
LINE
  5
2A9
100
AcDbEntity
  8
GEKO
  6
CENTER
 62
        7
100
AcDbLine
 10
794.849824066
 20
1056.121484781
 30
0.0
 11
737.675367148
 21
1056.121484781
 31
0.0
  0
LINE
  5
2AA
100
AcDbEntity
  8
GEKO
  6
SOLID
 62
        7
100
AcDbLine
 10
996.894646413
 20
768.601788235
 30
0.0
 11
996.894646413
 21
733.601788235
 31
0.0
  0
LINE
  5
2AB
100
AcDbEntity
  8
GEKO
  6
SOLID
 62
        7
100
AcDbLine
 10
1014.894646413
 20
768.601788235
 30
0.0
 11
1014.894646413
 21
733.601788235
 31
0.0
  0
LINE
  5
2AC
100
AcDbEntity
  8
GEKO
  6
SOLID
 62
        7
100
AcDbLine
 10
1012.894646413
 20
776.601788235
 30
0.0
 11
1012.894646413
 21
733.601788235
 31
0.0
  0
LINE
  5
2AD
100
AcDbEntity
  8
GEKO
  6
SOLID
 62
        7
100
AcDbLine
 10
998.894646413
 20
776.601788235
 30
0.0
 11
998.894646413
 21
733.601788235
 31
0.0
  0
LINE
  5
2AE
100
AcDbEntity
  8
GEKO
  6
SOLID
 62
        7
100
AcDbLine
 10
997.894646413
 20
768.601788235
 30
0.0
 11
1013.894646413
 21
768.601788235
 31
0.0
  0
LINE
  5
2AF
100
AcDbEntity
  8
GEKO
  6
SOLID
 62
        7
100
AcDbLine
 10
998.894646413
 20
776.601788235
 30
0.0
 11
1012.894646413
 21
776.601788235
 31
0.0
  0
LINE
  5
2B0
100
AcDbEntity
  8
GEKO
  6
SOLID
 62
        7
100
AcDbLine
 10
1012.894646413
 20
776.601788235
 30
0.0
 11
1005.894646413
 21
780.64324012
 31
0.0
  0
LINE
  5
2B1
100
AcDbEntity
  8
GEKO
  6
SOLID
 62
        7
100
AcDbLine
 10
998.894646413
 20
776.601788235
 30
0.0
 11
1005.894646413
 21
780.64324012
 31
0.0
  0
LINE
  5
2B2
100
AcDbEntity
  8
GEKO
  6
CENTER
 62
        7
100
AcDbLine
 10
1005.894646413
 20
785.05670731
 30
0.0
 11
1005.894646413
 21
727.882250391
 31
0.0
  0
LINE
  5
2B3
100
AcDbEntity
  8
GEKO
  6
SOLID
 62
        7
100
AcDbLine
 10
791.894661671
 20
768.601788235
 30
0.0
 11
791.894661671
 21
733.601788235
 31
0.0
  0
LINE
  5
2B4
100
AcDbEntity
  8
GEKO
  6
SOLID
 62
        7
100
AcDbLine
 10
809.894661671
 20
768.601788235
 30
0.0
 11
809.894661671
 21
733.601788235
 31
0.0
  0
LINE
  5
2B5
100
AcDbEntity
  8
GEKO
  6
SOLID
 62
        7
100
AcDbLine
 10
807.894661671
 20
776.601788235
 30
0.0
 11
807.894661671
 21
733.601788235
 31
0.0
  0
LINE
  5
2B6
100
AcDbEntity
  8
GEKO
  6
SOLID
 62
        7
100
AcDbLine
 10
793.894661671
 20
776.601788235
 30
0.0
 11
793.894661671
 21
733.601788235
 31
0.0
  0
LINE
  5
2B7
100
AcDbEntity
  8
GEKO
  6
SOLID
 62
        7
100
AcDbLine
 10
792.894661671
 20
768.601788235
 30
0.0
 11
808.894661671
 21
768.601788235
 31
0.0
  0
LINE
  5
2B8
100
AcDbEntity
  8
GEKO
  6
SOLID
 62
        7
100
AcDbLine
 10
793.894661671
 20
776.601788235
 30
0.0
 11
807.894661671
 21
776.601788235
 31
0.0
  0
LINE
  5
2B9
100
AcDbEntity
  8
GEKO
  6
SOLID
 62
        7
100
AcDbLine
 10
807.894661671
 20
776.601788235
 30
0.0
 11
800.894661671
 21
780.64324012
 31
0.0
  0
LINE
  5
2BA
100
AcDbEntity
  8
GEKO
  6
SOLID
 62
        7
100
AcDbLine
 10
793.894661671
 20
776.601788235
 30
0.0
 11
800.894661671
 21
780.64324012
 31
0.0
  0
LINE
  5
2BB
100
AcDbEntity
  8
GEKO
  6
CENTER
 62
        7
100
AcDbLine
 10
800.894661671
 20
785.05670731
 30
0.0
 11
800.894661671
 21
727.882250391
 31
0.0
  0
LINE
  5
2BC
100
AcDbEntity
  8
GEKO
  6
SOLID
 62
        7
100
AcDbLine
 10
1014.894643041
 20
1053.62150086
 30
0.0
 11
1014.894643041
 21
1088.62150086
 31
0.0
  0
LINE
  5
2BD
100
AcDbEntity
  8
GEKO
  6
SOLID
 62
        7
100
AcDbLine
 10
996.894643041
 20
1053.62150086
 30
0.0
 11
996.894643041
 21
1088.62150086
 31
0.0
  0
LINE
  5
2BE
100
AcDbEntity
  8
GEKO
  6
SOLID
 62
        7
100
AcDbLine
 10
998.894643041
 20
1045.62150086
 30
0.0
 11
998.894643041
 21
1088.62150086
 31
0.0
  0
LINE
  5
2BF
100
AcDbEntity
  8
GEKO
  6
SOLID
 62
        7
100
AcDbLine
 10
1012.894643041
 20
1045.62150086
 30
0.0
 11
1012.894643041
 21
1088.62150086
 31
0.0
  0
LINE
  5
2C0
100
AcDbEntity
  8
GEKO
  6
SOLID
 62
        7
100
AcDbLine
 10
1013.894643041
 20
1053.62150086
 30
0.0
 11
997.894643041
 21
1053.62150086
 31
0.0
  0
LINE
  5
2C1
100
AcDbEntity
  8
GEKO
  6
SOLID
 62
        7
100
AcDbLine
 10
1012.894643041
 20
1045.62150086
 30
0.0
 11
998.894643041
 21
1045.62150086
 31
0.0
  0
LINE
  5
2C2
100
AcDbEntity
  8
GEKO
  6
SOLID
 62
        7
100
AcDbLine
 10
998.894643041
 20
1045.62150086
 30
0.0
 11
1005.894643041
 21
1041.580048976
 31
0.0
  0
LINE
  5
2C3
100
AcDbEntity
  8
GEKO
  6
SOLID
 62
        7
100
AcDbLine
 10
1012.894643041
 20
1045.62150086
 30
0.0
 11
1005.894643041
 21
1041.580048976
 31
0.0
  0
LINE
  5
2C4
100
AcDbEntity
  8
GEKO
  6
CENTER
 62
        7
100
AcDbLine
 10
1005.894643041
 20
1037.166581786
 30
0.0
 11
1005.894643041
 21
1094.341038704
 31
0.0
  0
LINE
  5
2C5
100
AcDbEntity
  8
GEKO
  6
SOLID
 62
        7
100
AcDbLine
 10
778.394904992
 20
860.121484781
 30
0.0
 11
743.394904992
 21
860.121484781
 31
0.0
  0
LINE
  5
2C6
100
AcDbEntity
  8
GEKO
  6
SOLID
 62
        7
100
AcDbLine
 10
778.394904992
 20
842.121484781
 30
0.0
 11
743.394904992
 21
842.121484781
 31
0.0
  0
LINE
  5
2C7
100
AcDbEntity
  8
GEKO
  6
SOLID
 62
        7
100
AcDbLine
 10
786.394904992
 20
844.121484781
 30
0.0
 11
743.394904992
 21
844.121484781
 31
0.0
  0
LINE
  5
2C8
100
AcDbEntity
  8
GEKO
  6
SOLID
 62
        7
100
AcDbLine
 10
786.394904992
 20
858.121484781
 30
0.0
 11
743.394904992
 21
858.121484781
 31
0.0
  0
LINE
  5
2C9
100
AcDbEntity
  8
GEKO
  6
SOLID
 62
        7
100
AcDbLine
 10
778.394904992
 20
859.121484781
 30
0.0
 11
778.394904992
 21
843.121484781
 31
0.0
  0
LINE
  5
2CA
100
AcDbEntity
  8
GEKO
  6
SOLID
 62
        7
100
AcDbLine
 10
786.394904992
 20
858.121484781
 30
0.0
 11
786.394904992
 21
844.121484781
 31
0.0
  0
LINE
  5
2CB
100
AcDbEntity
  8
GEKO
  6
SOLID
 62
        7
100
AcDbLine
 10
786.394904992
 20
844.121484781
 30
0.0
 11
790.436356876
 21
851.121484781
 31
0.0
  0
LINE
  5
2CC
100
AcDbEntity
  8
GEKO
  6
SOLID
 62
        7
100
AcDbLine
 10
786.394904992
 20
858.121484781
 30
0.0
 11
790.436356876
 21
851.121484781
 31
0.0
  0
LINE
  5
2CD
100
AcDbEntity
  8
GEKO
  6
CENTER
 62
        7
100
AcDbLine
 10
794.849824066
 20
851.121484781
 30
0.0
 11
737.675367148
 21
851.121484781
 31
0.0
  0
LINE
  5
2CE
100
AcDbEntity
  8
GEKO
  6
CENTER
 62
        7
100
AcDbLine
 10
800.894673559
 20
1037.166581786
 30
0.0
 11
800.894673559
 21
1094.341038704
 31
0.0
  0
ARC
  5
2CF
100
AcDbEntity
  8
GEKO
  6
L_DASH
 62
        7
100
AcDbCircle
 10
903.3946583
 20
953.62150086
 30
0.0
 40
180.0
100
AcDbArc
 50
23.626780801
 51
45.558431786
  0
ARC
  5
2D0
100
AcDbEntity
  8
GEKO
  6
L_DASH
 62
        7
100
AcDbCircle
 10
903.3946583
 20
953.62150086
 30
0.0
 40
180.0
100
AcDbArc
 50
207.266228167
 51
17.228621392
  0
LINE
  5
2D1
100
AcDbEntity
  8
GEKO
  6
SOLID
 62
        7
100
AcDbLine
 10
743.394922713
 20
883.62150086
 30
0.0
 11
743.394922713
 21
823.62150086
 31
0.0
  0
ARC
  5
2D2
100
AcDbEntity
  8
GEKO
  6
SOLID
 62
        7
100
AcDbCircle
 10
743.394922713
 20
888.62150086
 30
0.0
 40
5.0
100
AcDbArc
 50
270.0
 51
0.0
  0
LINE
  5
2D3
100
AcDbEntity
  8
GEKO
  6
SOLID
 62
        7
100
AcDbLine
 10
748.394922713
 20
1018.62150086
 30
0.0
 11
748.394922713
 21
888.62150086
 31
0.0
  0
CIRCLE
  5
2D4
100
AcDbEntity
  8
GEKO
  6
SOLID
 62
        7
100
AcDbCircle
 10
903.394220696
 20
479.079653128
 30
0.0
 40
3.49999994
  0
LINE
  5
2D5
100
AcDbEntity
  8
GEKO
  6
SOLID
 62
        7
100
AcDbLine
 10
930.894215119
 20
471.579632678
 30
0.0
 11
915.894215119
 21
471.579643833
 31
0.0
  0
LINE
  5
2D6
100
AcDbEntity
  8
GEKO
  6
SOLID
 62
        7
100
AcDbLine
 10
930.894210657
 20
465.57963244
 30
0.0
 11
915.894210657
 21
465.579643594
 31
0.0
  0
LINE
  5
2D7
100
AcDbEntity
  8
GEKO
  6
SOLID
 62
        7
100
AcDbLine
 10
930.89427461
 20
551.579632678
 30
0.0
 11
915.89427461
 21
551.579643833
 31
0.0
  0
LINE
  5
2D8
100
AcDbEntity
  8
GEKO
  6
SOLID
 62
        7
100
AcDbLine
 10
930.894270148
 20
545.57963244
 30
0.0
 11
915.894270148
 21
545.579643594
 31
0.0
  0
CIRCLE
  5
2D9
100
AcDbEntity
  8
GEKO
  6
SOLID
 62
        7
100
AcDbCircle
 10
903.394280187
 20
559.079653128
 30
0.0
 40
3.49999994
  0
LINE
  5
2DA
100
AcDbEntity
  8
GEKO
  6
CENTER
 62
        7
100
AcDbLine
 10
903.394559642
 20
443.729922519
 30
0.0
 11
903.394559642
 21
490.760675071
 31
0.0
  0
LINE
  5
2DB
100
AcDbEntity
  8
GEKO
  6
CENTER
 62
        7
100
AcDbLine
 10
903.394559642
 20
532.015721169
 30
0.0
 11
903.394559642
 21
565.050301052
 31
0.0
  0
LINE
  5
2DC
100
AcDbEntity
  8
GEKO
  6
SOLID
 62
        7
100
AcDbLine
 10
875.894215119
 20
471.579673578
 30
0.0
 11
890.894215119
 21
471.579662424
 31
0.0
  0
LINE
  5
2DD
100
AcDbEntity
  8
GEKO
  6
SOLID
 62
        7
100
AcDbLine
 10
875.894210657
 20
465.57967334
 30
0.0
 11
890.894210657
 21
465.579662185
 31
0.0
  0
LINE
  5
2DE
100
AcDbEntity
  8
GEKO
  6
SOLID
 62
        7
100
AcDbLine
 10
875.89427461
 20
551.579673578
 30
0.0
 11
890.89427461
 21
551.579662423
 31
0.0
  0
LINE
  5
2DF
100
AcDbEntity
  8
GEKO
  6
SOLID
 62
        7
100
AcDbLine
 10
875.894270148
 20
545.57967334
 30
0.0
 11
890.894270148
 21
545.579662185
 31
0.0
  0
LINE
  5
2E0
100
AcDbEntity
  8
GEKO
  6
SOLID
 62
        7
100
AcDbLine
 10
1134.869949831
 20
1036.350293034
 30
0.0
 11
1138.234598915
 21
1023.793257694
 31
0.0
  0
LINE
  5
2E1
100
AcDbEntity
  8
GEKO
  6
SOLID
 62
        7
100
AcDbLine
 10
1066.414278547
 20
1004.549051665
 30
0.0
 11
1200.611765023
 21
1040.507176957
 31
0.0
  0
LINE
  5
2E2
100
AcDbEntity
  8
GEKO
  6
SOLID
 62
        7
100
AcDbLine
 10
1211.578152173
 20
1050.692546435
 30
0.0
 11
1216.334613728
 21
1051.967037076
 31
0.0
  0
LINE
  5
2E3
100
AcDbEntity
  8
GEKO
  6
SOLID
 62
        7
100
AcDbLine
 10
1216.713566191
 20
1058.280171073
 30
0.0
 11
1290.735803715
 21
782.025551611
 31
0.0
  0
LINE
  5
2E4
100
AcDbEntity
  8
GEKO
  6
SOLID
 62
        7
100
AcDbLine
 10
1323.443565117
 20
741.096315799
 30
0.0
 11
1317.231905268
 21
764.278534889
 31
0.0
  0
LINE
  5
2E5
100
AcDbEntity
  8
GEKO
  6
SOLID
 62
        7
100
AcDbLine
 10
1216.195912036
 20
1060.21208176
 30
0.0
 11
1136.284163101
 21
1038.799782946
 31
0.0
  0
LINE
  5
2E6
100
AcDbEntity
  8
GEKO
  6
SOLID
 62
        7
100
AcDbLine
 10
1294.410038583
 20
779.904231706
 30
0.0
 11
1309.864851309
 21
784.045338272
 31
0.0
  0
ARC
  5
2E7
100
AcDbEntity
  8
GEKO
  6
SOLID
 62
        7
100
AcDbCircle
 10
1310.38248963
 20
782.113486681
 30
0.0
 40
2.0
100
AcDbArc
 50
15.000006837
 51
105.000006837
  0
LINE
  5
2E8
100
AcDbEntity
  8
GEKO
  6
SOLID
 62
        7
100
AcDbLine
 10
1312.314341221
 20
782.631125002
 30
0.0
 11
1317.231905268
 21
764.278534889
 31
0.0
  0
LINE
  5
2E9
100
AcDbEntity
  8
GEKO
  6
SOLID
 62
        7
100
AcDbLine
 10
1196.783707862
 20
758.92159778
 30
0.0
 11
1283.940020851
 21
782.275072608
 31
0.0
  0
ARC
  5
2EA
100
AcDbEntity
  8
GEKO
  6
SOLID
 62
        7
100
AcDbCircle
 10
1293.633581101
 20
782.802009092
 30
0.0
 40
3.0
100
AcDbArc
 50
195.000006837
 51
285.000006837
  0
LINE
  5
2EB
100
AcDbEntity
  8
GEKO
  6
SOLID
 62
        7
100
AcDbLine
 10
1266.3301391
 20
777.556516762
 30
0.0
 11
1266.869471812
 21
777.701030596
 31
0.0
  0
ARC
  5
2EC
100
AcDbEntity
  8
GEKO
  6
SOLID
 62
        7
100
AcDbCircle
 10
1321.511713526
 20
740.578677479
 30
0.0
 40
2.0
100
AcDbArc
 50
300.395819753
 51
15.000006837
  0
LINE
  5
2ED
100
AcDbEntity
  8
GEKO
  6
SOLID
 62
        7
100
AcDbLine
 10
1300.779325434
 20
732.952895753
 30
0.0
 11
1309.710097311
 21
735.345890008
 31
0.0
  0
ARC
  5
2EE
100
AcDbEntity
  8
GEKO
  6
SOLID
 62
        7
100
AcDbCircle
 10
1136.801801421
 20
1036.867931355
 30
0.0
 40
2.0
100
AcDbArc
 50
105.000006837
 51
195.000006837
  0
ARC
  5
2EF
100
AcDbEntity
  8
GEKO
  6
SOLID
 62
        7
100
AcDbCircle
 10
1199.058850061
 20
1046.30273173
 30
0.0
 40
6.0
100
AcDbArc
 50
-74.999993163
 51
-19.437360058
  0
ARC
  5
2F0
100
AcDbEntity
  8
GEKO
  6
SOLID
 62
        7
100
AcDbCircle
 10
1216.852252075
 20
1050.035185385
 30
0.0
 40
2.0
100
AcDbArc
 50
15.000006837
 51
105.000006837
  0
LINE
  5
2F1
100
AcDbEntity
  8
GEKO
  6
SOLID
 62
        7
100
AcDbLine
 10
1204.736285079
 20
1044.361049433
 30
0.0
 11
1204.71688528
 21
1044.306075158
 31
0.0
  0
ARC
  5
2F2
100
AcDbEntity
  8
GEKO
  6
SOLID
 62
        7
100
AcDbCircle
 10
1214.166343777
 20
1041.033288481
 30
0.0
 40
10.0
100
AcDbArc
 50
105.000006837
 51
160.562639942
  0
LINE
  5
2F3
100
AcDbEntity
  8
GEKO
  6
SOLID
 62
        7
100
AcDbLine
 10
1129.168885642
 20
740.804252122
 30
0.0
 11
1196.783707862
 21
758.92159778
 31
0.0
  0
LINE
  5
2F4
100
AcDbEntity
  8
GEKO
  6
SOLID
 62
        7
100
AcDbLine
 10
1229.59951348
 20
932.32347856
 30
0.0
 11
1088.016657702
 21
894.386457637
 31
0.0
  0
LINE
  5
2F5
100
AcDbEntity
  8
GEKO
  6
SOLID
 62
        7
100
AcDbLine
 10
1220.595840491
 20
1043.791333052
 30
0.0
 11
1258.75013202
 21
1054.014744655
 31
0.0
  0
LINE
  5
2F6
100
AcDbEntity
  8
GEKO
  6
SOLID
 62
        7
100
AcDbLine
 10
1322.98400976
 20
1071.226160322
 30
0.0
 11
1325.972594667
 21
1082.379711039
 31
0.0
  0
LINE
  5
2F7
100
AcDbEntity
  8
GEKO
  6
SOLID
 62
        7
100
AcDbLine
 10
1290.477013792
 20
782.991368293
 30
0.0
 11
1328.631274198
 21
793.214771557
 31
0.0
  0
LINE
  5
2F8
100
AcDbEntity
  8
GEKO
  6
SOLID
 62
        7
100
AcDbLine
 10
1392.865151937
 20
810.426187224
 30
0.0
 11
1401.030117747
 21
802.261221415
 31
0.0
  0
LINE
  5
2F9
100
AcDbEntity
  8
GEKO
  6
SOLID
 62
        7
100
AcDbLine
 10
1325.972594667
 20
1082.379711039
 30
0.0
 11
1335.850632529
 21
1085.026523307
 31
0.0
  0
LINE
  5
2FA
100
AcDbEntity
  8
GEKO
  6
SOLID
 62
        7
100
AcDbLine
 10
1401.030117747
 20
802.261221415
 30
0.0
 11
1410.908155609
 21
804.908033683
 31
0.0
  0
LINE
  5
2FB
100
AcDbEntity
  8
GEKO
  6
CENTER
 62
        7
100
AcDbLine
 10
1482.803913321
 20
974.287504286
 30
0.0
 11
747.007812166
 21
777.131486132
 31
0.0
  0
LINE
  5
2FC
100
AcDbEntity
  8
GEKO
  6
SOLID
 62
        7
100
AcDbLine
 10
1038.708137388
 20
1086.67648364
 30
0.0
 11
1055.143154072
 21
1025.340195632
 31
0.0
  0
ARC
  5
2FD
100
AcDbEntity
  8
GEKO
  6
L_DASH
 62
        7
100
AcDbCircle
 10
1432.473355868
 20
763.063680801
 30
0.0
 40
5.0
100
AcDbArc
 50
195.0
 51
248.130102354
  0
ARC
  5
2FE
100
AcDbEntity
  8
GEKO
  6
L_DASH
 62
        7
100
AcDbCircle
 10
1357.959982186
 20
1137.743872146
 30
0.0
 40
5.0
100
AcDbArc
 50
15.000006838
 51
64.458404964
  0
INSERT
  5
30D
100
AcDbEntity
  8
GEKO
100
AcDbBlockReference
  2
*D4
 10
0.0
 20
0.0
 30
0.0
  0
LINE
  5
30E
100
AcDbEntity
  8
GEKO
  6
L_DASH
 62
        7
100
AcDbLine
 10
1412.016674905
 20
955.320152666
 30
0.0
 11
1362.789611168
 21
1139.037967942
 31
0.0
  0
LINE
  5
30F
100
AcDbEntity
  8
GEKO
  6
L_DASH
 62
        7
100
AcDbLine
 10
1328.774812435
 20
1130.753308975
 30
0.0
 11
1378.209272065
 21
946.261482053
 31
0.0
  0
INSERT
  5
31E
100
AcDbEntity
  8
GEKO
100
AcDbBlockReference
  2
*D5
 10
0.0
 20
0.0
 30
0.0
  0
ARC
  5
31F
100
AcDbEntity
  8
GEKO
  6
L_DASH
 62
        7
100
AcDbCircle
 10
1333.604441407
 20
1132.047404783
 30
0.0
 40
5.0
100
AcDbArc
 50
141.869904483
 51
195.000006838
  0
LINE
  5
320
100
AcDbEntity
  8
GEKO
  6
SOLID
 62
        7
100
AcDbLine
 10
1365.172757276
 20
-159.632939214
 30
0.0
 11
1389.095196798
 21
-159.632939214
 31
0.0
  0
INSERT
  5
329
100
AcDbEntity
  8
0
100
AcDbBlockReference
  2
*H6
 10
0.0
 20
0.0
 30
0.0
  0
INSERT
  5
338
100
AcDbEntity
  8
GEKO
100
AcDbBlockReference
  2
*D7
 10
0.0
 20
0.0
 30
0.0
  0
INSERT
  5
349
100
AcDbEntity
  8
GEKO
100
AcDbBlockReference
  2
*D8
 10
0.0
 20
0.0
 30
0.0
  0
INSERT
  5
358
100
AcDbEntity
  8
GEKO
100
AcDbBlockReference
  2
*D9
 10
0.0
 20
0.0
 30
0.0
  0
INSERT
  5
369
100
AcDbEntity
  8
GEKO
100
AcDbBlockReference
  2
*D10
 10
0.0
 20
0.0
 30
0.0
  0
INSERT
  5
372
100
AcDbEntity
  8
0
100
AcDbBlockReference
  2
*H11
 10
0.0
 20
0.0
 30
0.0
  0
INSERT
  5
37B
100
AcDbEntity
  8
0
100
AcDbBlockReference
  2
*H12
 10
0.0
 20
0.0
 30
0.0
  0
INSERT
  5
38A
100
AcDbEntity
  8
GEKO
100
AcDbBlockReference
  2
*D13
 10
0.0
 20
0.0
 30
0.0
  0
INSERT
  5
39C
100
AcDbEntity
  8
GEKO
100
AcDbBlockReference
  2
*D14
 10
0.0
 20
0.0
 30
0.0
  0
INSERT
  5
3AB
100
AcDbEntity
  8
GEKO
100
AcDbBlockReference
  2
*D15
 10
0.0
 20
0.0
 30
0.0
  0
LINE
  5
3AC
100
AcDbEntity
  8
GEKO
  6
SOLID
 62
        7
100
AcDbLine
 10
903.3946583
 20
1368.852345202
 30
0.0
 11
903.3946583
 21
1407.722540215
 31
0.0
  0
LINE
  5
3AD
100
AcDbEntity
  8
GEKO
  6
SOLID
 62
        7
100
AcDbLine
 10
1221.402514888
 20
-48.143208243
 30
0.0
 11
1221.402514888
 21
34.300122643
 31
0.0
  0
LINE
  5
3AE
100
AcDbEntity
  8
GEKO
  6
SOLID
 62
        7
100
AcDbLine
 10
1231.402514888
 20
-38.143208243
 30
0.0
 11
1231.402514888
 21
26.800122643
 31
0.0
  0
LINE
  5
3AF
100
AcDbEntity
  8
GEKO
  6
SOLID
 62
        7
100
AcDbLine
 10
1116.402514888
 20
118.856793757
 30
0.0
 11
1231.402514888
 21
118.856793757
 31
0.0
  0
LINE
  5
3B0
100
AcDbEntity
  8
GEKO
  6
SOLID
 62
        7
100
AcDbLine
 10
1221.402514888
 20
44.300122643
 30
0.0
 11
1221.402514888
 21
118.856793757
 31
0.0
  0
LINE
  5
3B1
100
AcDbEntity
  8
GEKO
  6
SOLID
 62
        7
100
AcDbLine
 10
1126.402514888
 20
128.856793757
 30
0.0
 11
1231.402514888
 21
128.856793757
 31
0.0
  0
LINE
  5
3B2
100
AcDbEntity
  8
GEKO
  6
SOLID
 62
        7
100
AcDbLine
 10
1126.402514888
 20
128.856793757
 30
0.0
 11
1126.402514888
 21
118.856793757
 31
0.0
  0
LINE
  5
3B3
100
AcDbEntity
  8
GEKO
  6
SOLID
 62
        7
100
AcDbLine
 10
1389.737053453
 20
240.346856624
 30
0.0
 11
1365.108585622
 21
240.346856624
 31
0.0
  0
LINE
  5
3B4
100
AcDbEntity
  8
GEKO
  6
SOLID
 62
        7
100
AcDbLine
 10
1224.402514888
 20
26.800122643
 30
0.0
 11
1224.402514888
 21
51.800122643
 31
0.0
  0
LINE
  5
3B5
100
AcDbEntity
  8
GEKO
  6
SOLID
 62
        7
100
AcDbLine
 10
1231.402514888
 20
51.800122643
 30
0.0
 11
1231.402514888
 21
128.856793757
 31
0.0
  0
LINE
  5
3B6
100
AcDbEntity
  8
GEKO
  6
SOLID
 62
        7
100
AcDbLine
 10
1309.402514888
 20
-24.699877357
 30
0.0
 11
1309.402514888
 21
111.300122643
 31
0.0
  0
INSERT
  5
3C5
100
AcDbEntity
  8
GEKO
100
AcDbBlockReference
  2
*D16
 10
0.0
 20
0.0
 30
0.0
  0
INSERT
  5
3D4
100
AcDbEntity
  8
GEKO
100
AcDbBlockReference
  2
*D17
 10
0.0
 20
0.0
 30
0.0
  0
LINE
  5
3D5
100
AcDbEntity
  8
GEKO
  6
SOLID
 62
        7
100
AcDbLine
 10
1192.598111603
 20
1059.065329438
 30
0.0
 11
1057.368500246
 21
1022.830646986
 31
0.0
  0
LINE
  5
3D6
100
AcDbEntity
  8
GEKO
  6
SOLID
 62
        7
100
AcDbLine
 10
1038.708137388
 20
1086.67648364
 30
0.0
 11
1176.835526131
 21
1123.687623573
 31
0.0
  0
LINE
  5
3D7
100
AcDbEntity
  8
GEKO
  6
SOLID
 62
        7
100
AcDbLine
 10
1056.980271506
 20
1024.27953568
 30
0.0
 11
1192.209882862
 21
1060.514218132
 31
0.0
  0
LINE
  5
3D8
100
AcDbEntity
  8
GEKO
  6
SOLID
 62
        7
100
AcDbLine
 10
1040.157026082
 20
1087.064712381
 30
0.0
 11
1057.368500246
 21
1022.830646987
 31
0.0
  0
ARC
  5
3D9
100
AcDbEntity
  8
GEKO
  6
SOLID
 62
        7
100
AcDbCircle
 10
1108.973580054
 20
1105.019875425
 30
0.0
 40
4.0
100
AcDbArc
 50
29.000006837
 51
112.287617311
  0
ARC
  5
3DA
100
AcDbEntity
  8
GEKO
  6
SOLID
 62
        7
100
AcDbCircle
 10
1106.812202436
 20
1104.440753707
 30
0.0
 40
4.0
100
AcDbArc
 50
97.711505219
 51
180.999115693
  0
LINE
  5
3DB
100
AcDbEntity
  8
GEKO
  6
SOLID
 62
        7
100
AcDbLine
 10
1106.866047059
 20
1108.562815958
 30
0.0
 11
1106.275461527
 21
1108.404578779
 31
0.0
  0
LINE
  5
3DC
100
AcDbEntity
  8
GEKO
  6
SOLID
 62
        7
100
AcDbLine
 10
1102.812810582
 20
1104.371005602
 30
0.0
 11
1102.942212675
 21
1103.888040699
 31
0.0
  0
LINE
  5
3DD
100
AcDbEntity
  8
GEKO
  6
SOLID
 62
        7
100
AcDbLine
 10
1106.865972191
 20
1108.562795898
 30
0.0
 11
1107.45655527
 21
1108.721042233
 31
0.0
  0
LINE
  5
3DE
100
AcDbEntity
  8
GEKO
  6
SOLID
 62
        7
100
AcDbLine
 10
1112.472058649
 20
1106.959114314
 30
0.0
 11
1112.601468229
 21
1106.476151416
 31
0.0
  0
LINE
  5
3DF
100
AcDbEntity
  8
GEKO
  6
SOLID
 62
        7
100
AcDbLine
 10
1124.380225559
 20
1033.539459744
 30
0.0
 11
1129.209854536
 21
1034.833555545
 31
0.0
  0
LINE
  5
3E0
100
AcDbEntity
  8
GEKO
  6
SOLID
 62
        7
100
AcDbLine
 10
1123.431358778
 20
1035.148826295
 30
0.0
 11
1123.767853081
 21
1033.893013061
 31
0.0
  0
LINE
  5
3E1
100
AcDbEntity
  8
GEKO
  6
SOLID
 62
        7
100
AcDbLine
 10
1123.914321676
 20
1035.278235875
 30
0.0
 11
1124.380225558
 21
1033.539459744
 31
0.0
  0
LINE
  5
3E2
100
AcDbEntity
  8
GEKO
  6
SOLID
 62
        7
100
AcDbLine
 10
1123.767853081
 20
1033.893013061
 30
0.0
 11
1129.563407853
 21
1035.445928023
 31
0.0
  0
LINE
  5
3E3
100
AcDbEntity
  8
GEKO
  6
SOLID
 62
        7
100
AcDbLine
 10
1124.380225558
 20
1033.539459744
 30
0.0
 11
1123.767853081
 21
1033.893013061
 31
0.0
  0
LINE
  5
3E4
100
AcDbEntity
  8
GEKO
  6
SOLID
 62
        7
100
AcDbLine
 10
1130.511708626
 20
1037.046001224
 30
0.0
 11
1122.146545661
 21
1034.804561493
 31
0.0
  0
LINE
  5
3E5
100
AcDbEntity
  8
GEKO
  6
SOLID
 62
        7
100
AcDbLine
 10
1122.310463862
 20
1039.769583737
 30
0.0
 11
1123.425155531
 21
1035.609499778
 31
0.0
  0
ARC
  5
3E6
100
AcDbEntity
  8
GEKO
  6
SOLID
 62
        7
100
AcDbCircle
 10
1121.485049653
 20
1037.273297027
 30
0.0
 40
2.555823176
100
AcDbArc
 50
250.615765014
 51
319.384248661
  0
ARC
  5
3E7
100
AcDbEntity
  8
GEKO
  6
SOLID
 62
        7
100
AcDbCircle
 10
1123.856519046
 20
1045.153176001
 30
0.0
 40
9.553419824
100
AcDbArc
 50
267.412056083
 51
302.587957591
  0
LINE
  5
3E8
100
AcDbEntity
  8
GEKO
  6
SOLID
 62
        7
100
AcDbLine
 10
1120.636767876
 20
1034.862353201
 30
0.0
 11
1119.522076207
 21
1039.02243716
 31
0.0
  0
ARC
  5
3E9
100
AcDbEntity
  8
GEKO
  6
SOLID
 62
        7
100
AcDbCircle
 10
1121.462182085
 20
1037.358639911
 30
0.0
 40
2.555823176
100
AcDbArc
 50
70.615765014
 51
139.384248661
  0
ARC
  5
3EA
100
AcDbEntity
  8
GEKO
  6
SOLID
 62
        7
100
AcDbCircle
 10
1127.455875657
 20
1031.720200668
 30
0.0
 40
9.553419824
100
AcDbArc
 50
87.412056083
 51
122.587957591
  0
LINE
  5
3EB
100
AcDbEntity
  8
GEKO
  6
SOLID
 62
        7
100
AcDbLine
 10
1120.800686077
 20
1039.827375445
 30
0.0
 11
1129.165849042
 21
1042.068815176
 31
0.0
  0
ARC
  5
3EC
100
AcDbEntity
  8
GEKO
  6
SOLID
 62
        7
100
AcDbCircle
 10
1129.82734505
 20
1039.600079642
 30
0.0
 40
2.555823176
100
AcDbArc
 50
70.615765014
 51
139.384248661
  0
LINE
  5
3ED
100
AcDbEntity
  8
GEKO
  6
SOLID
 62
        7
100
AcDbLine
 10
1130.675626827
 20
1042.011023468
 30
0.0
 11
1131.790318496
 21
1037.850939509
 31
0.0
  0
LINE
  5
3EE
100
AcDbEntity
  8
GEKO
  6
SOLID
 62
        7
100
AcDbLine
 10
1129.226913551
 20
1036.701741257
 30
0.0
 11
1129.563407853
 21
1035.445928023
 31
0.0
  0
ARC
  5
3EF
100
AcDbEntity
  8
GEKO
  6
SOLID
 62
        7
100
AcDbCircle
 10
1129.850212618
 20
1039.514736758
 30
0.0
 40
2.555823176
100
AcDbArc
 50
250.615765014
 51
319.384248661
  0
LINE
  5
3F0
100
AcDbEntity
  8
GEKO
  6
SOLID
 62
        7
100
AcDbLine
 10
1127.887239172
 20
1041.263876891
 30
0.0
 11
1129.001930841
 21
1037.103792932
 31
0.0
  0
LINE
  5
3F1
100
AcDbEntity
  8
GEKO
  6
SOLID
 62
        7
100
AcDbLine
 10
1128.743950653
 20
1036.572331677
 30
0.0
 11
1129.209854536
 21
1034.833555546
 31
0.0
  0
LINE
  5
3F2
100
AcDbEntity
  8
GEKO
  6
SOLID
 62
        7
100
AcDbLine
 10
1129.209854536
 20
1034.833555546
 30
0.0
 11
1129.563407853
 21
1035.445928023
 31
0.0
  0
ARC
  5
3F3
100
AcDbEntity
  8
GEKO
  6
SOLID
 62
        7
100
AcDbCircle
 10
1123.247211627
 20
1043.104463692
 30
0.0
 40
4.0
100
AcDbArc
 50
97.711505219
 51
180.999115693
  0
LINE
  5
3F4
100
AcDbEntity
  8
GEKO
  6
SOLID
 62
        7
100
AcDbLine
 10
1119.247819773
 20
1043.034715587
 30
0.0
 11
1119.377221866
 21
1042.551750683
 31
0.0
  0
LINE
  5
3F5
100
AcDbEntity
  8
GEKO
  6
SOLID
 62
        7
100
AcDbLine
 10
1123.30105625
 20
1047.226525943
 30
0.0
 11
1122.710470718
 21
1047.068288763
 31
0.0
  0
LINE
  5
3F6
100
AcDbEntity
  8
GEKO
  6
SOLID
 62
        7
100
AcDbLine
 10
1123.300981382
 20
1047.226505883
 30
0.0
 11
1123.891564461
 21
1047.384752217
 31
0.0
  0
ARC
  5
3F7
100
AcDbEntity
  8
GEKO
  6
SOLID
 62
        7
100
AcDbCircle
 10
1125.408589245
 20
1043.683585409
 30
0.0
 40
4.0
100
AcDbArc
 50
29.000006837
 51
112.287617311
  0
LINE
  5
3F8
100
AcDbEntity
  8
GEKO
  6
SOLID
 62
        7
100
AcDbLine
 10
1128.90706784
 20
1045.622824298
 30
0.0
 11
1129.03647742
 21
1045.139861401
 31
0.0
  0
LINE
  5
3F9
100
AcDbEntity
  8
GEKO
  6
SOLID
 62
        7
100
AcDbLine
 10
1055.143154072
 20
1025.340195632
 30
0.0
 11
1193.270542815
 21
1062.351335565
 31
0.0
  0
LINE
  5
3FA
100
AcDbEntity
  8
GEKO
  6
SOLID
 62
        7
100
AcDbLine
 10
1191.821654294
 20
1061.963106871
 30
0.0
 11
1056.592038614
 21
1025.728440557
 31
0.0
  0
LINE
  5
3FB
100
AcDbEntity
  8
GEKO
  6
SOLID
 62
        7
100
AcDbLine
 10
1056.980267182
 20
1024.279551817
 30
0.0
 11
1040.15702925
 21
1087.064730526
 31
0.0
  0
LINE
  5
3FC
100
AcDbEntity
  8
GEKO
  6
SOLID
 62
        7
100
AcDbLine
 10
1040.15702925
 20
1087.064730526
 30
0.0
 11
1175.38664493
 21
1123.29939684
 31
0.0
  0
LINE
  5
3FD
100
AcDbEntity
  8
GEKO
  6
SOLID
 62
        7
100
AcDbLine
 10
1192.209882862
 20
1060.514218132
 30
0.0
 11
1056.980267182
 21
1024.279551817
 31
0.0
  0
LINE
  5
3FE
100
AcDbEntity
  8
GEKO
  6
SOLID
 62
        7
100
AcDbLine
 10
1040.545257818
 20
1085.615841787
 30
0.0
 11
1175.774873498
 21
1121.850508101
 31
0.0
  0
CIRCLE
  5
3FF
100
AcDbEntity
  8
GEKO
  6
SOLID
 62
        7
100
AcDbCircle
 10
1116.183456056
 20
1073.789474329
 30
0.0
 40
16.5
  0
LINE
  5
400
100
AcDbEntity
  8
GEKO
  6
SOLID
 62
        7
100
AcDbLine
 10
1113.688448687
 20
1099.831080497
 30
0.0
 11
1105.323285455
 21
1097.589641764
 31
0.0
  0
LINE
  5
401
100
AcDbEntity
  8
GEKO
  6
SOLID
 62
        7
100
AcDbLine
 10
1111.063979736
 20
1104.048956478
 30
0.0
 11
1112.178670909
 21
1099.888872385
 31
0.0
  0
LINE
  5
402
100
AcDbEntity
  8
GEKO
  6
SOLID
 62
        7
100
AcDbLine
 10
1103.97742647
 20
1102.612455877
 30
0.0
 11
1112.342589702
 21
1104.85389461
 31
0.0
  0
LINE
  5
403
100
AcDbEntity
  8
GEKO
  6
SOLID
 62
        7
100
AcDbLine
 10
1105.487204248
 20
1102.554663989
 30
0.0
 11
1106.601895421
 21
1098.394579897
 31
0.0
  0
ARC
  5
404
100
AcDbEntity
  8
GEKO
  6
SOLID
 62
        7
100
AcDbCircle
 10
1104.661789741
 20
1100.058377378
 30
0.0
 40
2.555823176
100
AcDbArc
 50
250.615758176
 51
319.384241824
  0
ARC
  5
405
100
AcDbEntity
  8
GEKO
  6
SOLID
 62
        7
100
AcDbCircle
 10
1107.033260075
 20
1107.938256068
 30
0.0
 40
9.553419824
100
AcDbArc
 50
267.412049246
 51
302.587950754
  0
ARC
  5
406
100
AcDbEntity
  8
GEKO
  6
SOLID
 62
        7
100
AcDbCircle
 10
1113.026952974
 20
1102.29981611
 30
0.0
 40
2.555823176
100
AcDbArc
 50
250.615758176
 51
319.384241824
  0
LINE
  5
407
100
AcDbEntity
  8
GEKO
  6
SOLID
 62
        7
100
AcDbLine
 10
1113.85236748
 20
1104.796102722
 30
0.0
 11
1114.967058654
 21
1100.636018629
 31
0.0
  0
ARC
  5
408
100
AcDbEntity
  8
GEKO
  6
SOLID
 62
        7
100
AcDbCircle
 10
1113.004085416
 20
1102.385158996
 30
0.0
 40
2.555823176
100
AcDbArc
 50
70.615758176
 51
139.384241824
  0
ARC
  5
409
100
AcDbEntity
  8
GEKO
  6
SOLID
 62
        7
100
AcDbCircle
 10
1110.632615082
 20
1094.505280306
 30
0.0
 40
9.553419824
100
AcDbArc
 50
87.412049246
 51
122.587950754
  0
ARC
  5
40A
100
AcDbEntity
  8
GEKO
  6
SOLID
 62
        7
100
AcDbCircle
 10
1104.638922183
 20
1100.143720264
 30
0.0
 40
2.555823176
100
AcDbArc
 50
70.615758176
 51
139.384241824
  0
LINE
  5
40B
100
AcDbEntity
  8
GEKO
  6
SOLID
 62
        7
100
AcDbLine
 10
1103.813507677
 20
1097.647433652
 30
0.0
 11
1102.698816504
 21
1101.807517745
 31
0.0
  0
LINE
  5
40C
100
AcDbEntity
  8
GEKO
  6
SOLID
 62
        7
100
AcDbLine
 10
1104.779325266
 20
1102.827308286
 30
0.0
 11
1104.391096698
 21
1104.276197025
 31
0.0
  0
LINE
  5
40D
100
AcDbEntity
  8
GEKO
  6
SOLID
 62
        7
100
AcDbLine
 10
1111.54080605
 20
1104.639041602
 30
0.0
 11
1111.152577482
 21
1106.087930341
 31
0.0
  0
LINE
  5
40E
100
AcDbEntity
  8
GEKO
  6
SOLID
 62
        7
100
AcDbLine
 10
1121.21433463
 20
1041.491018316
 30
0.0
 11
1120.826106062
 21
1042.939907056
 31
0.0
  0
LINE
  5
40F
100
AcDbEntity
  8
GEKO
  6
SOLID
 62
        7
100
AcDbLine
 10
1127.975815414
 20
1043.302751632
 30
0.0
 11
1127.587586846
 21
1044.751640372
 31
0.0
  0
LINE
  5
410
100
AcDbEntity
  8
GEKO
  6
SOLID
 62
        7
100
AcDbLine
 10
1097.733490473
 20
1078.733127707
 30
0.0
 11
1111.239802678
 21
1092.239439912
 31
0.0
  0
LINE
  5
411
100
AcDbEntity
  8
GEKO
  6
SOLID
 62
        7
100
AcDbLine
 10
1102.677143851
 20
1060.283162124
 30
0.0
 11
1097.733490473
 21
1078.733127707
 31
0.0
  0
LINE
  5
412
100
AcDbEntity
  8
GEKO
  6
SOLID
 62
        7
100
AcDbLine
 10
1121.127109434
 20
1055.339508746
 30
0.0
 11
1102.677143851
 21
1060.283162124
 31
0.0
  0
LINE
  5
413
100
AcDbEntity
  8
GEKO
  6
SOLID
 62
        7
100
AcDbLine
 10
1134.633421639
 20
1068.84582095
 30
0.0
 11
1121.127109434
 21
1055.339508746
 31
0.0
  0
LINE
  5
414
100
AcDbEntity
  8
GEKO
  6
SOLID
 62
        7
100
AcDbLine
 10
1129.689768261
 20
1087.295786534
 30
0.0
 11
1134.633421639
 21
1068.84582095
 31
0.0
  0
LINE
  5
415
100
AcDbEntity
  8
GEKO
  6
SOLID
 62
        7
100
AcDbLine
 10
1111.239802678
 20
1092.239439912
 30
0.0
 11
1129.689768261
 21
1087.295786534
 31
0.0
  0
CIRCLE
  5
416
100
AcDbEntity
  8
GEKO
  6
SOLID
 62
        7
100
AcDbCircle
 10
1116.183456056
 20
1073.789474329
 30
0.0
 40
10.0
  0
LINE
  5
417
100
AcDbEntity
  8
GEKO
  6
SOLID
 62
        7
100
AcDbLine
 10
1161.408689969
 20
1098.19176884
 30
0.0
 11
1172.870032225
 21
1095.120711438
 31
0.0
  0
LINE
  5
418
100
AcDbEntity
  8
GEKO
  6
SOLID
 62
        7
100
AcDbLine
 10
1153.018405114
 20
1089.801483986
 30
0.0
 11
1161.408689969
 21
1098.19176884
 31
0.0
  0
LINE
  5
419
100
AcDbEntity
  8
GEKO
  6
SOLID
 62
        7
100
AcDbLine
 10
1156.089462516
 20
1078.340141729
 30
0.0
 11
1153.018405114
 21
1089.801483986
 31
0.0
  0
LINE
  5
41A
100
AcDbEntity
  8
GEKO
  6
SOLID
 62
        7
100
AcDbLine
 10
1167.550804772
 20
1075.269084328
 30
0.0
 11
1156.089462516
 21
1078.340141729
 31
0.0
  0
LINE
  5
41B
100
AcDbEntity
  8
GEKO
  6
SOLID
 62
        7
100
AcDbLine
 10
1175.941089627
 20
1083.659369182
 30
0.0
 11
1167.550804772
 21
1075.269084328
 31
0.0
  0
CIRCLE
  5
41C
100
AcDbEntity
  8
GEKO
  6
SOLID
 62
        7
100
AcDbCircle
 10
1164.47974737
 20
1086.730426584
 30
0.0
 40
6.0
  0
LINE
  5
41D
100
AcDbEntity
  8
GEKO
  6
SOLID
 62
        7
100
AcDbLine
 10
1068.698393016
 20
1057.820976936
 30
0.0
 11
1080.159735273
 21
1054.749919534
 31
0.0
  0
LINE
  5
41E
100
AcDbEntity
  8
GEKO
  6
SOLID
 62
        7
100
AcDbLine
 10
1060.308108162
 20
1049.430692081
 30
0.0
 11
1068.698393016
 21
1057.820976936
 31
0.0
  0
LINE
  5
41F
100
AcDbEntity
  8
GEKO
  6
SOLID
 62
        7
100
AcDbLine
 10
1063.379165564
 20
1037.969349825
 30
0.0
 11
1060.308108162
 21
1049.430692081
 31
0.0
  0
LINE
  5
420
100
AcDbEntity
  8
GEKO
  6
SOLID
 62
        7
100
AcDbLine
 10
1074.84050782
 20
1034.898292423
 30
0.0
 11
1063.379165564
 21
1037.969349825
 31
0.0
  0
LINE
  5
421
100
AcDbEntity
  8
GEKO
  6
SOLID
 62
        7
100
AcDbLine
 10
1083.230792674
 20
1043.288577278
 30
0.0
 11
1074.84050782
 21
1034.898292423
 31
0.0
  0
LINE
  5
422
100
AcDbEntity
  8
GEKO
  6
SOLID
 62
        7
100
AcDbLine
 10
1080.159735273
 20
1054.749919534
 30
0.0
 11
1083.230792674
 21
1043.288577278
 31
0.0
  0
CIRCLE
  5
423
100
AcDbEntity
  8
GEKO
  6
SOLID
 62
        7
100
AcDbCircle
 10
1071.769450418
 20
1046.359634679
 30
0.0
 40
6.0
  0
LINE
  5
424
100
AcDbEntity
  8
GEKO
  6
SOLID
 62
        7
100
AcDbLine
 10
1068.097700945
 20
1079.430231348
 30
0.0
 11
1069.595777727
 21
1073.839332687
 31
0.0
  0
LINE
  5
425
100
AcDbEntity
  8
GEKO
  6
SOLID
 62
        7
100
AcDbLine
 10
1069.595777727
 20
1073.839332687
 30
0.0
 11
1065.502955846
 21
1069.746510806
 31
0.0
  0
LINE
  5
426
100
AcDbEntity
  8
GEKO
  6
SOLID
 62
        7
100
AcDbLine
 10
1062.506802284
 20
1080.92830813
 30
0.0
 11
1068.097700945
 21
1079.430231348
 31
0.0
  0
LINE
  5
427
100
AcDbEntity
  8
GEKO
  6
SOLID
 62
        7
100
AcDbLine
 10
1058.413980403
 20
1076.835486249
 30
0.0
 11
1062.506802284
 21
1080.92830813
 31
0.0
  0
LINE
  5
428
100
AcDbEntity
  8
GEKO
  6
SOLID
 62
        7
100
AcDbLine
 10
1059.912057185
 20
1071.244587588
 30
0.0
 11
1058.413980403
 21
1076.835486249
 31
0.0
  0
LINE
  5
429
100
AcDbEntity
  8
GEKO
  6
SOLID
 62
        7
100
AcDbLine
 10
1065.502955846
 20
1069.746510806
 30
0.0
 11
1059.912057185
 21
1071.244587588
 31
0.0
  0
LINE
  5
42A
100
AcDbEntity
  8
GEKO
  6
SOLID
 62
        7
100
AcDbLine
 10
1175.386637438
 20
1123.299394833
 30
0.0
 11
1192.598111603
 21
1059.065329438
 31
0.0
  0
LINE
  5
42B
100
AcDbEntity
  8
GEKO
  6
SOLID
 62
        7
100
AcDbLine
 10
1176.835526131
 20
1123.687623573
 30
0.0
 11
1193.270542815
 21
1062.351335565
 31
0.0
  0
LINE
  5
42C
100
AcDbEntity
  8
GEKO
  6
SOLID
 62
        7
100
AcDbLine
 10
1175.38664493
 20
1123.29939684
 30
0.0
 11
1192.209882862
 21
1060.514218132
 31
0.0
  0
LINE
  5
42D
100
AcDbEntity
  8
GEKO
  6
SOLID
 62
        7
100
AcDbLine
 10
1172.870032225
 20
1095.120711438
 30
0.0
 11
1175.941089627
 21
1083.659369182
 31
0.0
  0
LINE
  5
42E
100
AcDbEntity
  8
GEKO
  6
SOLID
 62
        7
100
AcDbLine
 10
1223.336161607
 20
-54.400716954
 30
0.0
 11
1223.336161607
 21
-57.932636817
 31
0.0
  0
ARC
  5
42F
100
AcDbEntity
  8
GEKO
  6
SOLID
 62
        7
100
AcDbCircle
 10
1220.608181733
 20
-53.946172996
 30
0.0
 40
4.830503906
100
AcDbArc
 50
235.615745828
 51
304.384254172
  0
ARC
  5
430
100
AcDbEntity
  8
GEKO
  6
SOLID
 62
        7
100
AcDbCircle
 10
1212.424242112
 20
-40.720721404
 30
0.0
 40
18.055955498
100
AcDbArc
 50
252.412042639
 51
287.587957361
  0
ARC
  5
431
100
AcDbEntity
  8
GEKO
  6
SOLID
 62
        7
100
AcDbCircle
 10
1204.24030249
 20
-53.946172996
 30
0.0
 40
4.830503906
100
AcDbArc
 50
235.615745828
 51
304.384254172
  0
LINE
  5
432
100
AcDbEntity
  8
GEKO
  6
SOLID
 62
        7
100
AcDbLine
 10
1201.512322616
 20
-57.932636817
 30
0.0
 11
1201.512322616
 21
-54.400716954
 31
0.0
  0
LINE
  5
433
100
AcDbEntity
  8
GEKO
  6
SOLID
 62
        7
100
AcDbLine
 10
1217.880201859
 20
-57.932636817
 30
0.0
 11
1217.880201859
 21
-54.400716954
 31
0.0
  0
LINE
  5
434
100
AcDbEntity
  8
GEKO
  6
SOLID
 62
        7
100
AcDbLine
 10
1220.608181733
 20
-58.776676902
 30
0.0
 11
1204.24030249
 21
-58.776676902
 31
0.0
  0
LINE
  5
435
100
AcDbEntity
  8
GEKO
  6
SOLID
 62
        7
100
AcDbLine
 10
1206.968282364
 20
-57.932636817
 30
0.0
 11
1206.968282364
 21
-54.400716954
 31
0.0
  0
ARC
  5
436
100
AcDbEntity
  8
GEKO
  6
SOLID
 62
        7
100
AcDbCircle
 10
1204.24030249
 20
-58.387180775
 30
0.0
 40
4.830503906
100
AcDbArc
 50
55.615745822
 51
124.384254178
  0
ARC
  5
437
100
AcDbEntity
  8
GEKO
  6
SOLID
 62
        7
100
AcDbCircle
 10
1212.424242112
 20
-71.612632364
 30
0.0
 40
18.055955495
100
AcDbArc
 50
72.412042636
 51
107.587957364
  0
ARC
  5
438
100
AcDbEntity
  8
GEKO
  6
SOLID
 62
        7
100
AcDbCircle
 10
1220.608181733
 20
-58.387180775
 30
0.0
 40
4.830503906
100
AcDbArc
 50
55.615745822
 51
124.384254178
  0
LINE
  5
439
100
AcDbEntity
  8
GEKO
  6
SOLID
 62
        7
100
AcDbLine
 10
1204.24030249
 20
-48.356676791
 30
0.0
 11
1221.424269101
 21
-48.356676791
 31
0.0
  0
LINE
  5
43A
100
AcDbEntity
  8
GEKO
  6
SOLID
 62
        7
100
AcDbLine
 10
1203.424269577
 20
-48.356676791
 30
0.0
 11
1221.424269101
 21
-48.356676791
 31
0.0
  0
LINE
  5
43B
100
AcDbEntity
  8
GEKO
  6
SOLID
 62
        7
100
AcDbLine
 10
1221.424269101
 20
-48.100767674
 30
0.0
 11
1221.424269101
 21
-53.556676869
 31
0.0
  0
LINE
  5
43C
100
AcDbEntity
  8
GEKO
  6
SOLID
 62
        7
100
AcDbLine
 10
1203.424269577
 20
-48.100767674
 30
0.0
 11
1203.424269577
 21
-53.556676869
 31
0.0
  0
LINE
  5
43D
100
AcDbEntity
  8
GEKO
  6
SOLID
 62
        7
100
AcDbLine
 10
1158.946183052
 20
-50.226677129
 30
0.0
 11
1190.902520801
 21
-50.226677129
 31
0.0
  0
LINE
  5
43E
100
AcDbEntity
  8
GEKO
  6
SOLID
 62
        7
100
AcDbLine
 10
1196.228574999
 20
-61.476861019
 30
0.0
 11
1153.620124666
 21
-61.476861019
 31
0.0
  0
ARC
  5
43F
100
AcDbEntity
  8
GEKO
  6
SOLID
 62
        7
100
AcDbCircle
 10
1174.924351927
 20
-14.974554877
 30
0.0
 40
35.252122252
100
AcDbArc
 50
252.412051068
 51
287.587948932
  0
LINE
  5
440
100
AcDbEntity
  8
GEKO
  6
SOLID
 62
        7
100
AcDbLine
 10
1158.946180957
 20
-67.776676664
 30
0.0
 11
1190.902518707
 21
-67.776676664
 31
0.0
  0
ARC
  5
441
100
AcDbEntity
  8
GEKO
  6
SOLID
 62
        7
100
AcDbCircle
 10
1174.924349832
 20
-32.524554412
 30
0.0
 40
35.252122252
100
AcDbArc
 50
252.412051068
 51
287.587948932
  0
LINE
  5
442
100
AcDbEntity
  8
GEKO
  6
SOLID
 62
        7
100
AcDbLine
 10
1193.374267841
 20
-61.476861019
 30
0.0
 11
1193.374269223
 21
-49.897007415
 31
0.0
  0
LINE
  5
443
100
AcDbEntity
  8
GEKO
  6
SOLID
 62
        7
100
AcDbLine
 10
1196.228574999
 20
-66.128789573
 30
0.0
 11
1196.228574999
 21
-61.476861019
 31
0.0
  0
LINE
  5
444
100
AcDbEntity
  8
GEKO
  6
SOLID
 62
        7
100
AcDbLine
 10
1185.576462415
 20
-66.128789573
 30
0.0
 11
1185.576462415
 21
-61.476861019
 31
0.0
  0
LINE
  5
445
100
AcDbEntity
  8
GEKO
  6
SOLID
 62
        7
100
AcDbLine
 10
1195.624268172
 20
-58.200518462
 30
0.0
 11
1195.091890281
 21
-59.858738939
 31
0.0
  0
LINE
  5
446
100
AcDbEntity
  8
GEKO
  6
SOLID
 62
        7
100
AcDbLine
 10
1195.624268172
 20
-58.200518462
 30
0.0
 11
1195.624269275
 21
-48.959550138
 31
0.0
  0
LINE
  5
447
100
AcDbEntity
  8
GEKO
  6
SOLID
 62
        7
100
AcDbLine
 10
1195.091890281
 20
-59.858738939
 30
0.0
 11
1194.377341607
 21
-60.940320551
 31
0.0
  0
LINE
  5
448
100
AcDbEntity
  8
GEKO
  6
SOLID
 62
        7
100
AcDbLine
 10
1194.377341607
 20
-60.940320551
 30
0.0
 11
1193.394925775
 21
-61.456088863
 31
0.0
  0
ARC
  5
449
100
AcDbEntity
  8
GEKO
  6
SOLID
 62
        7
100
AcDbCircle
 10
1190.902520801
 20
-40.795688907
 30
0.0
 40
9.430988222
100
AcDbArc
 50
235.615761582
 51
304.384238418
  0
ARC
  5
44A
100
AcDbEntity
  8
GEKO
  6
SOLID
 62
        7
100
AcDbCircle
 10
1190.902518707
 20
-58.345688442
 30
0.0
 40
9.430988222
100
AcDbArc
 50
235.615761582
 51
304.384238418
  0
LINE
  5
44B
100
AcDbEntity
  8
GEKO
  6
SOLID
 62
        7
100
AcDbLine
 10
1185.57646451
 20
-48.578790038
 30
0.0
 11
1185.57646451
 21
-48.100767674
 31
0.0
  0
LINE
  5
44C
100
AcDbEntity
  8
GEKO
  6
SOLID
 62
        7
100
AcDbLine
 10
1196.228577093
 20
-48.578790038
 30
0.0
 11
1196.228577093
 21
-48.100767674
 31
0.0
  0
ARC
  5
44D
100
AcDbEntity
  8
GEKO
  6
SOLID
 62
        7
100
AcDbCircle
 10
1121.740359329
 20
-53.946172996
 30
0.0
 40
4.830503906
100
AcDbArc
 50
235.615745828
 51
304.384254172
  0
ARC
  5
44E
100
AcDbEntity
  8
GEKO
  6
SOLID
 62
        7
100
AcDbCircle
 10
1129.924298951
 20
-40.720721404
 30
0.0
 40
18.055955498
100
AcDbArc
 50
252.412042639
 51
287.587957361
  0
ARC
  5
44F
100
AcDbEntity
  8
GEKO
  6
SOLID
 62
        7
100
AcDbCircle
 10
1138.108238572
 20
-53.946172996
 30
0.0
 40
4.830503906
100
AcDbArc
 50
235.615745828
 51
304.384254172
  0
LINE
  5
450
100
AcDbEntity
  8
GEKO
  6
SOLID
 62
        7
100
AcDbLine
 10
1140.836218446
 20
-57.932636817
 30
0.0
 11
1140.836218446
 21
-54.400716954
 31
0.0
  0
LINE
  5
451
100
AcDbEntity
  8
GEKO
  6
SOLID
 62
        7
100
AcDbLine
 10
1124.468339203
 20
-57.932636817
 30
0.0
 11
1124.468339203
 21
-54.400716954
 31
0.0
  0
LINE
  5
452
100
AcDbEntity
  8
GEKO
  6
SOLID
 62
        7
100
AcDbLine
 10
1121.740359329
 20
-58.776676902
 30
0.0
 11
1138.108238572
 21
-58.776676902
 31
0.0
  0
LINE
  5
453
100
AcDbEntity
  8
GEKO
  6
SOLID
 62
        7
100
AcDbLine
 10
1135.380258698
 20
-57.932636817
 30
0.0
 11
1135.380258698
 21
-54.400716954
 31
0.0
  0
ARC
  5
454
100
AcDbEntity
  8
GEKO
  6
SOLID
 62
        7
100
AcDbCircle
 10
1138.108238572
 20
-58.387180775
 30
0.0
 40
4.830503906
100
AcDbArc
 50
55.615745822
 51
124.384254178
  0
ARC
  5
455
100
AcDbEntity
  8
GEKO
  6
SOLID
 62
        7
100
AcDbCircle
 10
1129.924298951
 20
-71.612632364
 30
0.0
 40
18.055955495
100
AcDbArc
 50
72.412042636
 51
107.587957364
  0
ARC
  5
456
100
AcDbEntity
  8
GEKO
  6
SOLID
 62
        7
100
AcDbCircle
 10
1121.740359329
 20
-58.387180775
 30
0.0
 40
4.830503906
100
AcDbArc
 50
55.615745822
 51
124.384254178
  0
LINE
  5
457
100
AcDbEntity
  8
GEKO
  6
SOLID
 62
        7
100
AcDbLine
 10
1138.108238572
 20
-48.356676791
 30
0.0
 11
1120.924271962
 21
-48.356676791
 31
0.0
  0
LINE
  5
458
100
AcDbEntity
  8
GEKO
  6
SOLID
 62
        7
100
AcDbLine
 10
1138.924271485
 20
-48.356676791
 30
0.0
 11
1120.924271962
 21
-48.356676791
 31
0.0
  0
LINE
  5
459
100
AcDbEntity
  8
GEKO
  6
SOLID
 62
        7
100
AcDbLine
 10
1138.924271485
 20
-48.100767674
 30
0.0
 11
1138.924271485
 21
-53.556676869
 31
0.0
  0
LINE
  5
45A
100
AcDbEntity
  8
GEKO
  6
SOLID
 62
        7
100
AcDbLine
 10
1154.22427289
 20
-58.200518462
 30
0.0
 11
1154.756650781
 21
-59.858738939
 31
0.0
  0
LINE
  5
45B
100
AcDbEntity
  8
GEKO
  6
SOLID
 62
        7
100
AcDbLine
 10
1154.756650781
 20
-59.858738939
 30
0.0
 11
1155.471199455
 21
-60.940320551
 31
0.0
  0
LINE
  5
45C
100
AcDbEntity
  8
GEKO
  6
SOLID
 62
        7
100
AcDbLine
 10
1154.22427289
 20
-58.200518462
 30
0.0
 11
1154.224271787
 21
-48.959550138
 31
0.0
  0
LINE
  5
45D
100
AcDbEntity
  8
GEKO
  6
SOLID
 62
        7
100
AcDbLine
 10
1155.471199455
 20
-60.940320551
 30
0.0
 11
1156.453615288
 21
-61.456088863
 31
0.0
  0
LINE
  5
45E
100
AcDbEntity
  8
GEKO
  6
SOLID
 62
        7
100
AcDbLine
 10
1156.474268818
 20
-61.476861019
 30
0.0
 11
1156.4742702
 21
-49.896962757
 31
0.0
  0
ARC
  5
45F
100
AcDbEntity
  8
GEKO
  6
SOLID
 62
        7
100
AcDbCircle
 10
1158.946183052
 20
-40.795688907
 30
0.0
 40
9.430988222
100
AcDbArc
 50
235.615761582
 51
304.384238418
  0
ARC
  5
460
100
AcDbEntity
  8
GEKO
  6
SOLID
 62
        7
100
AcDbCircle
 10
1158.946180957
 20
-58.345688442
 30
0.0
 40
9.430988222
100
AcDbArc
 50
235.615761582
 51
304.384238418
  0
LINE
  5
461
100
AcDbEntity
  8
GEKO
  6
SOLID
 62
        7
100
AcDbLine
 10
1164.272237249
 20
-66.128789573
 30
0.0
 11
1164.272237249
 21
-61.476861019
 31
0.0
  0
LINE
  5
462
100
AcDbEntity
  8
GEKO
  6
SOLID
 62
        7
100
AcDbLine
 10
1153.620124666
 20
-61.476861019
 30
0.0
 11
1153.620124666
 21
-66.128789573
 31
0.0
  0
LINE
  5
463
100
AcDbEntity
  8
GEKO
  6
SOLID
 62
        7
100
AcDbLine
 10
1119.012379455
 20
-54.400716954
 30
0.0
 11
1119.012379455
 21
-57.932636817
 31
0.0
  0
LINE
  5
464
100
AcDbEntity
  8
GEKO
  6
SOLID
 62
        7
100
AcDbLine
 10
1120.924271962
 20
-48.100767674
 30
0.0
 11
1120.924271962
 21
-53.556676869
 31
0.0
  0
LINE
  5
465
100
AcDbEntity
  8
GEKO
  6
SOLID
 62
        7
100
AcDbLine
 10
1153.62012676
 20
-48.100767674
 30
0.0
 11
1153.62012676
 21
-48.578790038
 31
0.0
  0
MTEXT
  5
466
100
AcDbEntity
  8
GEKO
  6
SOLID
 62
        7
100
AcDbMText
 10
1536.757324289
 20
52.451416016
 30
0.0
 40
30.0
 41
0.0
 71
        4
 72
        5
  1
\f|b0|i0|c177|p0;:
 11
-0.000000044
 21
1.0
 31
0.0
 73
        2
 44
1.0
  0
INSERT
  5
475
100
AcDbEntity
  8
GEKO
100
AcDbBlockReference
  2
*D18
 10
0.0
 20
0.0
 30
0.0
  0
LINE
  5
476
100
AcDbEntity
  8
GEKO
  6
SOLID
 62
        7
100
AcDbLine
 10
1264.402514888
 20
-24.699877357
 30
0.0
 11
1272.402514888
 21
-24.699877357
 31
0.0
  0
LINE
  5
477
100
AcDbEntity
  8
GEKO
  6
SOLID
 62
        7
100
AcDbLine
 10
1309.402514888
 20
-21.699877357
 30
0.0
 11
1234.402514888
 21
-21.699877357
 31
0.0
  0
LINE
  5
478
100
AcDbEntity
  8
GEKO
  6
SOLID
 62
        7
100
AcDbLine
 10
1309.402514888
 20
108.300122643
 30
0.0
 11
1234.402514888
 21
108.300122643
 31
0.0
  0
CIRCLE
  5
479
100
AcDbEntity
  8
GEKO
  6
SOLID
 62
        7
100
AcDbCircle
 10
1194.402514888
 20
39.300122643
 30
0.0
 40
15.0
  0
LINE
  5
47A
100
AcDbEntity
  8
GEKO
  6
SOLID
 62
        7
100
AcDbLine
 10
1234.402514888
 20
51.800122643
 30
0.0
 11
1224.402514888
 21
51.800122643
 31
0.0
  0
LINE
  5
47B
100
AcDbEntity
  8
GEKO
  6
SOLID
 62
        7
100
AcDbLine
 10
1234.402514888
 20
26.800122643
 30
0.0
 11
1224.402514888
 21
26.800122643
 31
0.0
  0
LINE
  5
47C
100
AcDbEntity
  8
GEKO
  6
SOLID
 62
        7
100
AcDbLine
 10
1231.402514888
 20
51.800122643
 30
0.0
 11
1231.402514888
 21
55.800122643
 31
0.0
  0
LINE
  5
47D
100
AcDbEntity
  8
GEKO
  6
SOLID
 62
        7
100
AcDbLine
 10
1224.402514888
 20
44.300122643
 30
0.0
 11
1208.544650512
 21
44.300122643
 31
0.0
  0
LINE
  5
47E
100
AcDbEntity
  8
GEKO
  6
SOLID
 62
        7
100
AcDbLine
 10
1224.402514888
 20
34.300122643
 30
0.0
 11
1208.544650512
 21
34.300122643
 31
0.0
  0
LINE
  5
47F
100
AcDbEntity
  8
GEKO
  6
SOLID
 62
        7
100
AcDbLine
 10
1264.402514888
 20
-24.699877357
 30
0.0
 11
1264.402514888
 21
-61.699877357
 31
0.0
  0
LINE
  5
480
100
AcDbEntity
  8
GEKO
  6
SOLID
 62
        7
100
AcDbLine
 10
1264.402514888
 20
-41.699877357
 30
0.0
 11
1272.402514888
 21
-41.699877357
 31
0.0
  0
LINE
  5
481
100
AcDbEntity
  8
GEKO
  6
SOLID
 62
        7
100
AcDbLine
 10
1272.402514888
 20
-24.699877357
 30
0.0
 11
1272.402514888
 21
-61.699877357
 31
0.0
  0
LINE
  5
482
100
AcDbEntity
  8
GEKO
  6
SOLID
 62
        7
100
AcDbLine
 10
1267.069181554
 20
-41.699877357
 30
0.0
 11
1272.402514888
 21
-43.699877357
 31
0.0
  0
LINE
  5
483
100
AcDbEntity
  8
GEKO
  6
SOLID
 62
        7
100
AcDbLine
 10
1264.402514888
 20
-46.699877357
 30
0.0
 11
1272.402514888
 21
-49.699877357
 31
0.0
  0
LINE
  5
484
100
AcDbEntity
  8
GEKO
  6
SOLID
 62
        7
100
AcDbLine
 10
1264.402514888
 20
-52.699877357
 30
0.0
 11
1272.402514888
 21
-55.699877357
 31
0.0
  0
LINE
  5
485
100
AcDbEntity
  8
GEKO
  6
SOLID
 62
        7
100
AcDbLine
 10
1264.402514888
 20
-58.699877357
 30
0.0
 11
1272.402514888
 21
-61.699877357
 31
0.0
  0
ARC
  5
486
100
AcDbEntity
  8
GEKO
  6
SOLID
 62
        7
100
AcDbCircle
 10
1277.902891289
 20
-50.199877
 30
0.0
 40
5.0
100
AcDbArc
 50
90.0
 51
168.552443246
  0
LINE
  5
487
100
AcDbEntity
  8
GEKO
  6
SOLID
 62
        7
100
AcDbLine
 10
1277.902891289
 20
-45.199877
 30
0.0
 11
1309.31902096
 21
-45.199877
 31
0.0
  0
LWPOLYLINE
  5
488
100
AcDbEntity
  8
GEKO
  6
SOLID
 62
        7
100
AcDbPolyline
 90
       10
 70
        0
 10
1318.375666372
 20
193.771817917
 10
1316.866484897
 20
191.816207576
 10
1316.132988352
 20
190.823762063
 10
1315.424804838
 20
189.81374814
 10
1314.473939049
 20
188.341623741
 10
1313.584682885
 20
186.829569101
 10
1312.750567176
 20
185.284903801
 10
1311.965122751
 20
183.714947424
 10
1310.927155236
 20
181.472528545
 10
1309.946489613
 20
179.205708027
  0
LWPOLYLINE
  5
489
100
AcDbEntity
  8
GEKO
  6
SOLID
 62
        7
100
AcDbPolyline
 90
        6
 70
        0
 10
1309.946489613
 20
179.205708027
 10
1309.470376836
 20
177.70797015
 10
1309.002027538
 20
176.166827255
 10
1308.089918962
 20
172.957157936
 10
1307.212562121
 20
169.582396799
 10
1306.372075572
 20
166.048302979
  0
LINE
  5
48A
100
AcDbEntity
  8
GEKO
  6
SOLID
 62
        7
100
AcDbLine
 10
1300.275438496
 20
162.25483991
 30
0.0
 11
1306.456629795
 21
166.100914496
 31
0.0
  0
LWPOLYLINE
  5
48B
100
AcDbEntity
  8
GEKO
  6
SOLID
 62
        7
100
AcDbPolyline
 90
      293
 70
        0
 10
1434.384553923
 20
40.357054157
 10
1434.371130514
 20
36.150196861
 10
1434.330868371
 20
31.945873619
 10
1434.263791748
 20
27.746616957
 10
1434.169941048
 20
23.554956351
 10
1434.049372804
 20
19.373416701
 10
1433.902159642
 20
15.204516809
 10
1433.728390238
 20
11.050767865
 10
1433.528169262
 20
6.914671933
 10
1433.301617323
 20
2.79872044
 10
1433.048870884
 20
-1.294607316
 10
1432.770082192
 20
-5.362845669
 10
1432.465419179
 20
-9.403544064
 10
1432.135065362
 20
-13.414268535
 10
1431.779219734
 20
-17.392603172
 10
1431.398096642
 20
-21.336151575
 10
1430.991925662
 20
-25.242538297
 10
1430.560951456
 20
-29.109410278
 10
1430.105433626
 20
-32.934438259
 10
1429.625646559
 20
-36.715318185
 10
1429.12187926
 20
-40.449772595
 10
1428.594435182
 20
-44.135551995
 10
1428.043632035
 20
-47.770436208
 10
1427.469801604
 20
-51.352235717
 10
1426.873289542
 20
-54.878792978
 10
1426.254455166
 20
-58.347983726
 10
1425.613671239
 20
-61.75771825
 10
1424.951323744
 20
-65.105942654
 10
1424.267811656
 20
-68.390640092
 10
1423.563546696
 20
-71.609831985
 10
1422.838953087
 20
-74.761579212
 10
1422.094467298
 20
-77.84398328
 10
1421.330537778
 20
-80.855187462
 10
1420.547624691
 20
-83.793377923
 10
1419.746199633
 20
-86.656784805
 10
1418.926745354
 20
-89.4436833
 10
1418.089755462
 20
-92.152394684
 10
1417.235734128
 20
-94.781287332
 10
1416.365195783
 20
-97.328777695
 10
1415.478664807
 20
-99.793331262
 10
1414.576675212
 20
-102.173463477
 10
1413.659770324
 20
-104.467740638
 10
1412.728502452
 20
-106.674780758
 10
1411.783432557
 20
-108.793254399
 10
1410.825129913
 20
-110.821885471
 10
1409.854171766
 20
-112.759452002
 10
1408.871142985
 20
-114.604786875
 10
1407.87663571
 20
-116.35677853
 10
1406.871248995
 20
-118.014371632
 10
1405.855588447
 20
-119.576567709
 10
1404.830265863
 20
-121.042425753
 10
1403.795898857
 20
-122.411062784
 10
1402.753110495
 20
-123.681654389
 10
1401.702528912
 20
-124.853435209
 10
1400.64478694
 20
-125.925699408
 10
1399.580521723
 20
-126.897801094
 10
1399.046143091
 20
-127.346105641
 10
1398.510374336
 20
-127.769154709
 10
1397.973296142
 20
-128.166884589
 10
1397.434989393
 20
-128.539235383
 10
1396.895535155
 20
-128.886151017
 10
1396.355014668
 20
-129.207579248
 10
1395.813509332
 20
-129.503471668
 10
1395.271100696
 20
-129.773783717
 10
1394.727870445
 20
-130.018474688
 10
1394.183900387
 20
-130.237507732
 10
1393.639272442
 20
-130.430849861
 10
1393.094068629
 20
-130.598471961
 10
1392.548371054
 20
-130.740348787
 10
1392.002261897
 20
-130.856458974
 10
1391.4558234
 20
-130.946785035
 10
1390.909137854
 20
-131.011313368
 10
1390.362287589
 20
-131.050034256
 10
1389.815354957
 20
-131.062941866
 10
1389.268422326
 20
-131.050034256
 10
1388.72157206
 20
-131.011313368
 10
1388.174886515
 20
-130.946785035
 10
1387.628448017
 20
-130.856458974
 10
1387.08233886
 20
-130.740348787
 10
1386.536641285
 20
-130.598471961
 10
1385.991437473
 20
-130.430849861
 10
1385.446809528
 20
-130.237507732
 10
1384.90283947
 20
-130.018474688
 10
1384.359609219
 20
-129.773783717
 10
1383.817200583
 20
-129.503471668
 10
1383.275695247
 20
-129.207579248
 10
1382.73517476
 20
-128.886151017
 10
1382.195720521
 20
-128.539235383
 10
1381.657413772
 20
-128.166884589
 10
1381.120335579
 20
-127.769154709
 10
1380.584566824
 20
-127.346105641
 10
1380.050188191
 20
-126.897801094
 10
1378.985922974
 20
-125.925699408
 10
1377.928181003
 20
-124.853435209
 10
1376.87759942
 20
-123.681654389
 10
1375.834811057
 20
-122.411062784
 10
1374.800444052
 20
-121.042425753
 10
1373.775121467
 20
-119.576567709
 10
1372.759460919
 20
-118.014371632
 10
1371.754074204
 20
-116.35677853
 10
1370.759566929
 20
-114.604786875
 10
1369.776538148
 20
-112.759452002
 10
1368.805580002
 20
-110.821885471
 10
1367.847277358
 20
-108.793254399
 10
1366.902207462
 20
-106.674780758
 10
1365.97093959
 20
-104.467740638
 10
1365.054034702
 20
-102.173463477
 10
1364.152045108
 20
-99.793331262
 10
1363.265514131
 20
-97.328777695
 10
1362.394975786
 20
-94.781287332
 10
1361.540954453
 20
-92.152394684
 10
1360.70396456
 20
-89.4436833
 10
1359.884510281
 20
-86.656784805
 10
1359.083085224
 20
-83.793377923
 10
1358.300172136
 20
-80.855187462
 10
1357.536242617
 20
-77.84398328
 10
1356.791756827
 20
-74.761579212
 10
1356.067163218
 20
-71.609831985
 10
1355.362898259
 20
-68.390640092
 10
1354.67938617
 20
-65.105942654
 10
1354.017038676
 20
-61.75771825
 10
1353.376254748
 20
-58.347983726
 10
1352.757420372
 20
-54.878792978
 10
1352.16090831
 20
-51.352235717
 10
1351.587077879
 20
-47.770436208
 10
1351.036274733
 20
-44.135551995
 10
1350.508830654
 20
-40.449772595
 10
1350.005063356
 20
-36.715318185
 10
1349.525276289
 20
-32.934438259
 10
1349.069758459
 20
-29.109410278
 10
1348.638784252
 20
-25.242538297
 10
1348.232613272
 20
-21.336151575
 10
1347.851490181
 20
-17.392603172
 10
1347.495644553
 20
-13.414268535
 10
1347.165290735
 20
-9.403544064
 10
1346.860627722
 20
-5.362845669
 10
1346.58183903
 20
-1.294607316
 10
1346.329092592
 20
2.79872044
 10
1346.102540652
 20
6.914671933
 10
1345.902319677
 20
11.050767865
 10
1345.728550272
 20
15.204516809
 10
1345.58133711
 20
19.373416701
 10
1345.460768866
 20
23.554956351
 10
1345.366918167
 20
27.746616957
 10
1345.299841543
 20
31.945873619
 10
1345.259579401
 20
36.150196861
 10
1345.246155991
 20
40.357054157
 10
1345.259579401
 20
44.563911453
 10
1345.299841543
 20
48.768234695
 10
1345.366918167
 20
52.967491357
 10
1345.460768866
 20
57.159151962
 10
1345.58133711
 20
61.340691613
 10
1345.728550272
 20
65.509591504
 10
1345.902319677
 20
69.663340448
 10
1346.102540652
 20
73.799436381
 10
1346.329092592
 20
77.915387873
 10
1346.58183903
 20
82.00871563
 10
1346.860627722
 20
86.076953982
 10
1347.165290735
 20
90.117652377
 10
1347.495644553
 20
94.128376849
 10
1347.851490181
 20
98.106711486
 10
1348.232613272
 20
102.050259888
 10
1348.638784252
 20
105.956646611
 10
1349.069758459
 20
109.823518592
 10
1349.525276289
 20
113.648546572
 10
1350.005063356
 20
117.429426498
 10
1350.508830654
 20
121.163880909
 10
1351.036274733
 20
124.849660309
 10
1351.587077879
 20
128.484544522
 10
1352.16090831
 20
132.06634403
 10
1352.757420372
 20
135.592901292
 10
1353.376254748
 20
139.06209204
 10
1354.017038676
 20
142.471826564
 10
1354.67938617
 20
145.820050967
 10
1355.362898259
 20
149.104748405
 10
1356.067163218
 20
152.323940298
 10
1356.791756827
 20
155.475687526
 10
1357.536242617
 20
158.558091593
 10
1358.300172136
 20
161.569295776
 10
1359.083085224
 20
164.507486236
 10
1359.884510281
 20
167.370893119
 10
1360.70396456
 20
170.157791614
 10
1361.540954453
 20
172.866502998
 10
1362.394975786
 20
175.495395645
 10
1363.265514131
 20
178.042886009
 10
1364.152045108
 20
180.507439576
 10
1365.054034702
 20
182.887571791
 10
1365.97093959
 20
185.181848952
 10
1366.902207462
 20
187.388889072
 10
1367.847277358
 20
189.507362712
 10
1368.805580002
 20
191.535993784
 10
1369.776538148
 20
193.473560316
 10
1370.759566929
 20
195.318895189
 10
1371.754074204
 20
197.070886844
 10
1372.759460919
 20
198.728479946
 10
1373.775121467
 20
200.290676023
 10
1374.800444052
 20
201.756534066
 10
1375.834811057
 20
203.125171098
 10
1376.87759942
 20
204.395762702
 10
1377.928181003
 20
205.567543523
 10
1378.985922974
 20
206.639807722
 10
1380.050188191
 20
207.611909408
 10
1380.584566824
 20
208.060213955
 10
1381.120335579
 20
208.483263023
 10
1381.657413772
 20
208.880992903
 10
1382.195720521
 20
209.253343697
 10
1382.73517476
 20
209.600259331
 10
1383.275695247
 20
209.921687561
 10
1383.817200583
 20
210.217579981
 10
1384.359609219
 20
210.487892031
 10
1384.90283947
 20
210.732583002
 10
1385.446809528
 20
210.951616045
 10
1385.991437473
 20
211.144958175
 10
1386.536641285
 20
211.312580275
 10
1387.08233886
 20
211.454457101
 10
1387.628448017
 20
211.570567287
 10
1388.174886515
 20
211.660893349
 10
1388.72157206
 20
211.725421682
 10
1389.268422326
 20
211.76414257
 10
1389.815354957
 20
211.77705018
 10
1390.362287589
 20
211.76414257
 10
1390.909137854
 20
211.725421682
 10
1391.4558234
 20
211.660893349
 10
1392.002261897
 20
211.570567287
 10
1392.548371054
 20
211.454457101
 10
1393.094068629
 20
211.312580275
 10
1393.639272442
 20
211.144958175
 10
1394.183900387
 20
210.951616045
 10
1394.727870445
 20
210.732583002
 10
1395.271100696
 20
210.487892031
 10
1395.813509332
 20
210.217579981
 10
1396.355014668
 20
209.921687561
 10
1396.895535155
 20
209.600259331
 10
1397.434989393
 20
209.253343697
 10
1397.973296142
 20
208.880992903
 10
1398.510374336
 20
208.483263023
 10
1399.046143091
 20
208.060213955
 10
1399.580521723
 20
207.611909408
 10
1400.64478694
 20
206.639807722
 10
1401.702528912
 20
205.567543523
 10
1402.753110495
 20
204.395762702
 10
1403.795898857
 20
203.125171098
 10
1404.830265863
 20
201.756534066
 10
1405.855588447
 20
200.290676023
 10
1406.871248995
 20
198.728479946
 10
1407.87663571
 20
197.070886844
 10
1408.871142985
 20
195.318895189
 10
1409.854171766
 20
193.473560316
 10
1410.825129913
 20
191.535993784
 10
1411.783432557
 20
189.507362712
 10
1412.728502452
 20
187.388889072
 10
1413.659770324
 20
185.181848952
 10
1414.576675212
 20
182.887571791
 10
1415.478664807
 20
180.507439576
 10
1416.365195783
 20
178.042886009
 10
1417.235734128
 20
175.495395645
 10
1418.089755462
 20
172.866502998
 10
1418.926745354
 20
170.157791614
 10
1419.746199633
 20
167.370893119
 10
1420.547624691
 20
164.507486236
 10
1421.330537778
 20
161.569295776
 10
1422.094467298
 20
158.558091593
 10
1422.838953087
 20
155.475687526
 10
1423.563546696
 20
152.323940298
 10
1424.267811656
 20
149.104748405
 10
1424.951323744
 20
145.820050967
 10
1425.613671239
 20
142.471826564
 10
1426.254455166
 20
139.06209204
 10
1426.873289542
 20
135.592901292
 10
1427.469801604
 20
132.06634403
 10
1428.043632035
 20
128.484544522
 10
1428.594435182
 20
124.849660309
 10
1429.12187926
 20
121.163880909
 10
1429.625646559
 20
117.429426498
 10
1430.105433626
 20
113.648546572
 10
1430.560951456
 20
109.823518592
 10
1430.991925662
 20
105.956646611
 10
1431.398096642
 20
102.050259888
 10
1431.779219734
 20
98.106711486
 10
1432.135065362
 20
94.128376849
 10
1432.465419179
 20
90.117652377
 10
1432.770082192
 20
86.076953982
 10
1433.048870884
 20
82.00871563
 10
1433.301617323
 20
77.915387873
 10
1433.528169262
 20
73.799436381
 10
1433.728390238
 20
69.663340448
 10
1433.902159642
 20
65.509591504
 10
1434.049372804
 20
61.340691613
 10
1434.169941048
 20
57.159151962
 10
1434.263791748
 20
52.967491357
 10
1434.330868371
 20
48.768234695
 10
1434.371130514
 20
44.563911453
 10
1434.384553923
 20
40.357054157
  0
LWPOLYLINE
  5
48C
100
AcDbEntity
  8
GEKO
  6
SOLID
 62
        7
100
AcDbPolyline
 90
      305
 70
        0
 10
1441.241353764
 20
40.357054157
 10
1441.225865215
 20
35.449053978
 10
1441.179408896
 20
30.544010196
 10
1441.102012793
 20
25.644877424
 10
1440.993723524
 20
20.754606717
 10
1440.854606319
 20
15.876143792
 10
1440.684744979
 20
11.012427251
 10
1440.484241819
 20
6.166386817
 10
1440.253217617
 20
1.340941562
 10
1439.991811533
 20
-3.461001846
 10
1439.700181027
 20
-8.236550895
 10
1439.378501767
 20
-12.982828973
 10
1439.026967521
 20
-17.6969771
 10
1438.64579004
 20
-22.37615565
 10
1438.23519893
 20
-27.01754606
 10
1437.795441517
 20
-31.61835253
 10
1437.326782694
 20
-36.175803706
 10
1436.829504763
 20
-40.687154351
 10
1436.303907267
 20
-45.149686995
 10
1435.750306805
 20
-49.560713575
 10
1435.169036845
 20
-53.917577054
 10
1434.560447524
 20
-58.21765302
 10
1433.924905432
 20
-62.458351269
 10
1433.262793396
 20
-66.637117362
 10
1432.574510248
 20
-70.751434167
 10
1431.860470583
 20
-74.798823373
 10
1431.121104513
 20
-78.776846985
 10
1430.356857404
 20
-82.683108789
 10
1429.56818961
 20
-86.5152558
 10
1428.755576194
 20
-90.270979675
 10
1427.919506646
 20
-93.948018107
 10
1427.060484581
 20
-97.544156186
 10
1426.179027443
 20
-101.057227732
 10
1425.275666188
 20
-104.485116602
 10
1424.350944968
 20
-107.825757965
 10
1423.4054208
 20
-111.077139543
 10
1422.439663232
 20
-114.237302825
 10
1421.454254
 20
-117.304344247
 10
1420.449786679
 20
-120.276416337
 10
1419.426866322
 20
-123.151728832
 10
1418.386109098
 20
-125.92854975
 10
1417.328141919
 20
-128.605206438
 10
1416.253602067
 20
-131.180086578
 10
1415.163136803
 20
-133.651639158
 10
1414.057402983
 20
-136.018375408
 10
1412.93706666
 20
-138.278869695
 10
1411.802802682
 20
-140.431760381
 10
1410.655294288
 20
-142.475750645
 10
1409.495232693
 20
-144.409609264
 10
1408.323316677
 20
-146.232171353
 10
1407.140252156
 20
-147.942339071
 10
1405.946751765
 20
-149.539082275
 10
1404.743534423
 20
-151.021439146
 10
1404.138508171
 20
-151.719440965
 10
1403.531324905
 20
-152.38851677
 10
1402.922076064
 20
-153.028565801
 10
1402.310853399
 20
-153.639491669
 10
1401.697748958
 20
-154.221202371
 10
1401.082855072
 20
-154.773610303
 10
1400.466264342
 20
-155.296632274
 10
1399.848069624
 20
-155.790189521
 10
1399.228364017
 20
-156.254207713
 10
1398.607240845
 20
-156.688616973
 10
1397.984793647
 20
-157.09335188
 10
1397.361116162
 20
-157.468351482
 10
1396.736302312
 20
-157.813559305
 10
1396.110446194
 20
-158.128923363
 10
1395.483642058
 20
-158.414396163
 10
1394.855984299
 20
-158.669934713
 10
1394.22756744
 20
-158.895500531
 10
1393.598486117
 20
-159.091059647
 10
1392.968835069
 20
-159.256582611
 10
1392.338709119
 20
-159.392044496
 10
1391.70820316
 20
-159.497424901
 10
1391.077412146
 20
-159.572707956
 10
1390.44643107
 20
-159.617882325
 10
1389.815354957
 20
-159.632941204
 10
1389.184278844
 20
-159.617882325
 10
1388.553297769
 20
-159.572707956
 10
1387.922506754
 20
-159.497424901
 10
1387.292000796
 20
-159.392044496
 10
1386.661874845
 20
-159.256582611
 10
1386.032223797
 20
-159.091059647
 10
1385.403142475
 20
-158.895500531
 10
1384.774725616
 20
-158.669934713
 10
1384.147067856
 20
-158.414396163
 10
1383.52026372
 20
-158.128923363
 10
1382.894407602
 20
-157.813559305
 10
1382.269593753
 20
-157.468351482
 10
1381.645916268
 20
-157.09335188
 10
1381.02346907
 20
-156.688616973
 10
1380.402345898
 20
-156.254207713
 10
1379.78264029
 20
-155.790189521
 10
1379.164445572
 20
-155.296632274
 10
1378.547854842
 20
-154.773610303
 10
1377.932960956
 20
-154.221202371
 10
1377.319856515
 20
-153.639491669
 10
1376.70863385
 20
-153.028565801
 10
1376.09938501
 20
-152.38851677
 10
1375.492201743
 20
-151.719440965
 10
1374.887175491
 20
-151.021439146
 10
1373.68395815
 20
-149.539082275
 10
1372.490457759
 20
-147.942339071
 10
1371.307393238
 20
-146.232171353
 10
1370.135477221
 20
-144.409609264
 10
1368.975415627
 20
-142.475750645
 10
1367.827907233
 20
-140.431760381
 10
1366.693643255
 20
-138.278869695
 10
1365.573306932
 20
-136.018375408
 10
1364.467573112
 20
-133.651639158
 10
1363.377107848
 20
-131.180086578
 10
1362.302567995
 20
-128.605206438
 10
1361.244600817
 20
-125.92854975
 10
1360.203843592
 20
-123.151728832
 10
1359.180923235
 20
-120.276416337
 10
1358.176455914
 20
-117.304344247
 10
1357.191046683
 20
-114.237302825
 10
1356.225289115
 20
-111.077139543
 10
1355.279764946
 20
-107.825757965
 10
1354.355043726
 20
-104.485116602
 10
1353.451682472
 20
-101.057227732
 10
1352.570225333
 20
-97.544156186
 10
1351.711203269
 20
-93.948018107
 10
1350.87513372
 20
-90.270979675
 10
1350.062520305
 20
-86.5152558
 10
1349.273852511
 20
-82.683108789
 10
1348.509605402
 20
-78.776846985
 10
1347.770239332
 20
-74.798823373
 10
1347.056199667
 20
-70.751434167
 10
1346.367916519
 20
-66.637117362
 10
1345.705804483
 20
-62.458351269
 10
1345.070262391
 20
-58.21765302
 10
1344.461673069
 20
-53.917577054
 10
1343.88040311
 20
-49.560713575
 10
1343.326802648
 20
-45.149686995
 10
1342.801205151
 20
-40.687154351
 10
1342.303927221
 20
-36.175803706
 10
1341.835268397
 20
-31.61835253
 10
1341.395510984
 20
-27.01754606
 10
1340.984919875
 20
-22.37615565
 10
1340.603742394
 20
-17.6969771
 10
1340.252208147
 20
-12.982828973
 10
1339.930528888
 20
-8.236550895
 10
1339.638898382
 20
-3.461001846
 10
1339.377492297
 20
1.340941562
 10
1339.146468095
 20
6.166386817
 10
1338.945964936
 20
11.012427251
 10
1338.776103595
 20
15.876143792
 10
1338.636986391
 20
20.754606717
 10
1338.528697122
 20
25.644877424
 10
1338.451301018
 20
30.544010196
 10
1338.4048447
 20
35.449053978
 10
1338.38935615
 20
40.357054157
 10
1338.4048447
 20
45.265054335
 10
1338.451301018
 20
50.170098118
 10
1338.528697122
 20
55.06923089
 10
1338.636986391
 20
59.959501597
 10
1338.776103595
 20
64.837964522
 10
1338.945964936
 20
69.701681062
 10
1339.146468095
 20
74.547721497
 10
1339.377492297
 20
79.373166752
 10
1339.638898382
 20
84.175110159
 10
1339.930528888
 20
88.950659208
 10
1340.252208147
 20
93.696937287
 10
1340.603742394
 20
98.411085414
 10
1340.984919875
 20
103.090263964
 10
1341.395510984
 20
107.731654374
 10
1341.835268397
 20
112.332460844
 10
1342.303927221
 20
116.88991202
 10
1342.801205151
 20
121.401262665
 10
1343.326802648
 20
125.863795308
 10
1343.88040311
 20
130.274821888
 10
1344.461673069
 20
134.631685368
 10
1345.070262391
 20
138.931761334
 10
1345.705804483
 20
143.172459583
 10
1346.367916519
 20
147.351225676
 10
1347.056199667
 20
151.465542481
 10
1347.770239332
 20
155.512931687
 10
1348.509605402
 20
159.490955298
 10
1349.273852511
 20
163.397217103
 10
1350.062520305
 20
167.229364113
 10
1350.87513372
 20
170.985087989
 10
1351.711203269
 20
174.662126421
 10
1352.570225333
 20
178.2582645
 10
1353.451682472
 20
181.771336046
 10
1354.355043726
 20
185.199224916
 10
1355.279764946
 20
188.539866279
 10
1356.225289115
 20
191.791247856
 10
1357.191046683
 20
194.951411138
 10
1358.176455914
 20
198.01845256
 10
1359.180923235
 20
200.990524651
 10
1360.203843592
 20
203.865837146
 10
1361.244600817
 20
206.642658063
 10
1362.302567995
 20
209.319314751
 10
1363.377107848
 20
211.894194891
 10
1364.467573112
 20
214.365747472
 10
1365.573306932
 20
216.732483722
 10
1366.693643255
 20
218.992978009
 10
1367.827907233
 20
221.145868694
 10
1368.975415627
 20
223.189858958
 10
1370.135477221
 20
225.123717577
 10
1371.307393238
 20
226.946279667
 10
1372.490457759
 20
228.656447384
 10
1373.68395815
 20
230.253190588
 10
1374.887175491
 20
231.73554746
 10
1375.492201743
 20
232.433549279
 10
1376.09938501
 20
233.102625084
 10
1376.70863385
 20
233.742674115
 10
1377.319856515
 20
234.353599983
 10
1377.932960956
 20
234.935310684
 10
1378.547854842
 20
235.487718616
 10
1379.164445572
 20
236.010740588
 10
1379.78264029
 20
236.504297834
 10
1380.402345898
 20
236.968316027
 10
1381.02346907
 20
237.402725287
 10
1381.645916268
 20
237.807460193
 10
1382.269593753
 20
238.182459795
 10
1382.894407602
 20
238.527667619
 10
1383.52026372
 20
238.843031676
 10
1384.147067856
 20
239.128504476
 10
1384.774725616
 20
239.384043027
 10
1385.403142475
 20
239.609608845
 10
1386.032223797
 20
239.805167961
 10
1386.661874845
 20
239.970690925
 10
1387.292000796
 20
240.106152809
 10
1387.922506754
 20
240.211533214
 10
1388.553297769
 20
240.28681627
 10
1389.184278844
 20
240.331990638
 10
1389.815354957
 20
240.347049517
 10
1390.44643107
 20
240.331990638
 10
1391.077412146
 20
240.28681627
 10
1391.70820316
 20
240.211533214
 10
1392.338709119
 20
240.106152809
 10
1392.968835069
 20
239.970690925
 10
1393.598486117
 20
239.805167961
 10
1394.22756744
 20
239.609608845
 10
1394.855984299
 20
239.384043027
 10
1395.483642058
 20
239.128504476
 10
1396.110446194
 20
238.843031676
 10
1396.736302312
 20
238.527667619
 10
1397.361116162
 20
238.182459795
 10
1397.984793647
 20
237.807460193
 10
1398.607240845
 20
237.402725287
 10
1399.228364017
 20
236.968316027
 10
1399.848069624
 20
236.504297834
 10
1400.466264342
 20
236.010740588
 10
1401.082855072
 20
235.487718616
 10
1401.697748958
 20
234.935310684
 10
1402.310853399
 20
234.353599983
 10
1402.922076064
 20
233.742674115
 10
1403.531324905
 20
233.102625084
 10
1404.138508171
 20
232.433549279
 10
1404.743534423
 20
231.73554746
 10
1405.946751765
 20
230.253190588
 10
1407.140252156
 20
228.656447384
 10
1408.323316677
 20
226.946279667
 10
1409.495232693
 20
225.123717577
 10
1410.655294288
 20
223.189858958
 10
1411.802802682
 20
221.145868694
 10
1412.93706666
 20
218.992978009
 10
1414.057402983
 20
216.732483722
 10
1415.163136803
 20
214.365747472
 10
1416.253602067
 20
211.894194891
 10
1417.328141919
 20
209.319314751
 10
1418.386109098
 20
206.642658063
 10
1419.426866322
 20
203.865837146
 10
1420.449786679
 20
200.990524651
 10
1421.454254
 20
198.01845256
 10
1422.439663232
 20
194.951411138
 10
1423.4054208
 20
191.791247856
 10
1424.350944968
 20
188.539866279
 10
1425.275666188
 20
185.199224916
 10
1426.179027443
 20
181.771336046
 10
1427.060484581
 20
178.2582645
 10
1427.919506646
 20
174.662126421
 10
1428.755576194
 20
170.985087989
 10
1429.56818961
 20
167.229364113
 10
1430.356857404
 20
163.397217103
 10
1431.121104513
 20
159.490955298
 10
1431.860470583
 20
155.512931687
 10
1432.574510248
 20
151.465542481
 10
1433.262793396
 20
147.351225676
 10
1433.924905432
 20
143.172459583
 10
1434.560447524
 20
138.931761334
 10
1435.169036845
 20
134.631685368
 10
1435.750306805
 20
130.274821888
 10
1436.303907267
 20
125.863795308
 10
1436.829504763
 20
121.401262665
 10
1437.326782694
 20
116.88991202
 10
1437.795441517
 20
112.332460844
 10
1438.23519893
 20
107.731654374
 10
1438.64579004
 20
103.090263964
 10
1439.026967521
 20
98.411085414
 10
1439.378501767
 20
93.696937287
 10
1439.700181027
 20
88.950659208
 10
1439.991811533
 20
84.175110159
 10
1440.253217617
 20
79.373166752
 10
1440.484241819
 20
74.547721497
 10
1440.684744979
 20
69.701681062
 10
1440.854606319
 20
64.837964522
 10
1440.993723524
 20
59.959501597
 10
1441.102012793
 20
55.06923089
 10
1441.179408896
 20
50.170098118
 10
1441.225865215
 20
45.265054335
 10
1441.241353764
 20
40.357054157
  0
LWPOLYLINE
  5
48D
100
AcDbEntity
  8
GEKO
  6
SOLID
 62
        7
100
AcDbPolyline
 90
       73
 70
        0
 10
1365.172757276
 20
-159.632939214
 10
1364.608698417
 20
-159.620599541
 10
1364.044708292
 20
-159.584200811
 10
1363.480854754
 20
-159.523747404
 10
1362.917205639
 20
-159.439246592
 10
1362.353828759
 20
-159.330708543
 10
1361.790791893
 20
-159.198146313
 10
1361.22816278
 20
-159.041575852
 10
1360.666009109
 20
-158.861015997
 10
1360.104398512
 20
-158.656488469
 10
1359.543398555
 20
-158.428017876
 10
1358.983076732
 20
-158.175631704
 10
1358.423500454
 20
-157.899360319
 10
1357.864737043
 20
-157.599236957
 10
1357.306853724
 20
-157.275297726
 10
1356.749917614
 20
-156.927581599
 10
1356.193995718
 20
-156.556130409
 10
1355.085461965
 20
-155.742204447
 10
1353.981785916
 20
-154.833911516
 10
1352.883498682
 20
-153.831688706
 10
1351.79112878
 20
-152.736018307
 10
1350.705201882
 20
-151.547427579
 10
1349.626240557
 20
-150.266488494
 10
1348.554764025
 20
-148.893817468
 10
1347.491287901
 20
-147.430075057
 10
1346.436323952
 20
-145.875965645
 10
1345.390379847
 20
-144.2322371
 10
1344.353958917
 20
-142.499680418
 10
1343.327559909
 20
-140.679129341
 10
1342.311676747
 20
-138.771459955
 10
1341.306798294
 20
-136.77759027
 10
1340.313408118
 20
-134.698479777
 10
1339.33198426
 20
-132.535128985
 10
1338.362999
 20
-130.288578944
 10
1337.406918633
 20
-127.959910739
 10
1336.464203246
 20
-125.550244974
 10
1335.535306492
 20
-123.060741227
 10
1334.620675376
 20
-120.4925975
 10
1333.720750035
 20
-117.847049636
 10
1332.835963534
 20
-115.125370726
 10
1331.966741648
 20
-112.328870498
 10
1331.113502667
 20
-109.458894684
 10
1330.276657184
 20
-106.516824377
 10
1329.456607909
 20
-103.504075359
 10
1328.653749464
 20
-100.422097428
 10
1327.868468202
 20
-97.272373694
 10
1327.101142017
 20
-94.056419868
 10
1326.352140161
 20
-90.775783534
 10
1325.62182307
 20
-87.4320434
 10
1324.910542186
 20
-84.026808542
 10
1324.218639793
 20
-80.56171763
 10
1323.546448849
 20
-77.038438135
 10
1322.894292825
 20
-73.458665531
 10
1322.262485552
 20
-69.824122479
 10
1321.651331068
 20
-66.136557995
 10
1321.061123475
 20
-62.397746609
 10
1320.492146791
 20
-58.609487515
 10
1319.94467482
 20
-54.773603699
 10
1319.418971017
 20
-50.891941069
 10
1318.91528836
 20
-46.966367558
 10
1318.433869233
 20
-42.998772233
 10
1317.974945304
 20
-38.991064383
 10
1317.538737417
 20
-34.945172597
 10
1317.125455483
 20
-30.863043841
 10
1316.735298383
 20
-26.746642521
 10
1316.368453868
 20
-22.59794953
 10
1316.025098471
 20
-18.418961307
 10
1315.705397422
 20
-14.211688864
 10
1315.409504567
 20
-9.978156828
 10
1315.137562297
 20
-5.72040246
 10
1314.889701474
 20
-1.440474679
 10
1314.666041376
 20
2.859566927
 10
1314.466689631
 20
7.177653089
  0
LWPOLYLINE
  5
48E
100
AcDbEntity
  8
GEKO
  6
SOLID
 62
        7
100
AcDbPolyline
 90
       17
 70
        0
 10
1323.672095345
 20
-77.70940108
 10
1323.017696409
 20
-76.46765256
 10
1322.366558115
 20
-75.146889857
 10
1321.720187671
 20
-73.748475277
 10
1321.07991892
 20
-72.27380209
 10
1320.446938098
 20
-70.724283543
 10
1319.822305926
 20
-69.101346333
 10
1319.206976307
 20
-67.406427103
 10
1318.601812029
 20
-65.640970936
 10
1318.007597874
 20
-63.806431126
 10
1317.425051524
 20
-61.904269737
 10
1316.854832621
 20
-59.935958609
 10
1316.297550277
 20
-57.902980574
 10
1315.753769312
 20
-55.806830748
 10
1315.224015422
 20
-53.649017785
 10
1314.708779476
 20
-51.431065041
 10
1314.208521086
 20
-49.154511617
  0
LINE
  5
48F
100
AcDbEntity
  8
GEKO
  6
SOLID
 62
        7
100
AcDbLine
 10
1313.061455696
 20
-46.884129385
 30
0.0
 11
1306.456629795
 21
-79.50066921
 31
0.0
  0
ARC
  5
490
100
AcDbEntity
  8
GEKO
  6
SOLID
 62
        7
100
AcDbCircle
 10
1309.31902096
 20
-50.199877
 30
0.0
 40
5.0
100
AcDbArc
 50
12.068037618
 51
90.0
  0
LINE
  5
491
100
AcDbEntity
  8
GEKO
  6
SOLID
 62
        7
100
AcDbLine
 10
1304.044625499
 20
-45.183623396
 30
0.0
 11
1298.838650663
 21
-70.892232237
 31
0.0
  0
LINE
  5
492
100
AcDbEntity
  8
GEKO
  6
SOLID
 62
        7
100
AcDbLine
 10
1293.199545639
 20
-45.199877
 30
0.0
 11
1290.669852728
 21
-57.692231951
 31
0.0
  0
LINE
  5
493
100
AcDbEntity
  8
GEKO
  6
SOLID
 62
        7
100
AcDbLine
 10
1273.002357404
 20
-49.207522406
 30
0.0
 11
1272.402514888
 21
-52.169718171
 31
0.0
  0
ARC
  5
494
100
AcDbEntity
  8
GEKO
  6
SOLID
 62
        7
100
AcDbCircle
 10
1285.769318843
 20
-56.699877357
 30
0.0
 40
5.0
100
AcDbArc
 50
270.0
 51
348.552443246
  0
LINE
  5
495
100
AcDbEntity
  8
GEKO
  6
SOLID
 62
        7
100
AcDbLine
 10
1272.802514983
 20
-61.699877357
 30
0.0
 11
1285.769318843
 21
-61.699877357
 31
0.0
  0
LINE
  5
496
100
AcDbEntity
  8
GEKO
  6
SOLID
 62
        7
100
AcDbLine
 10
1264.402514888
 20
-61.699877357
 30
0.0
 11
1272.402514888
 21
-61.699877357
 31
0.0
  0
LINE
  5
497
100
AcDbEntity
  8
GEKO
  6
SOLID
 62
        7
100
AcDbLine
 10
1264.002514792
 20
-61.699877357
 30
0.0
 11
1260.402514649
 21
-61.699877357
 31
0.0
  0
ARC
  5
498
100
AcDbEntity
  8
GEKO
  6
SOLID
 62
        7
100
AcDbCircle
 10
1260.402514649
 20
-64.699877357
 30
0.0
 40
3.0
100
AcDbArc
 50
90.0
 51
180.0
  0
LINE
  5
499
100
AcDbEntity
  8
GEKO
  6
SOLID
 62
        7
100
AcDbLine
 10
1257.402514649
 20
-64.699877357
 30
0.0
 11
1257.402514649
 21
-71.899876689
 31
0.0
  0
ARC
  5
49A
100
AcDbEntity
  8
GEKO
  6
SOLID
 62
        7
100
AcDbCircle
 10
1260.402514649
 20
-71.899876689
 30
0.0
 40
3.0
100
AcDbArc
 50
180.0
 51
270.0
  0
LINE
  5
49B
100
AcDbEntity
  8
GEKO
  6
SOLID
 62
        7
100
AcDbLine
 10
1297.633929062
 20
-74.899877643
 30
0.0
 11
1260.402514649
 21
-74.899877643
 31
0.0
  0
LINE
  5
49C
100
AcDbEntity
  8
GEKO
  6
SOLID
 62
        7
100
AcDbLine
 10
1260.402514291
 20
-74.899876689
 30
0.0
 11
1275.213805186
 21
-74.899878456
 31
0.0
  0
LINE
  5
49D
100
AcDbEntity
  8
GEKO
  6
SOLID
 62
        7
100
AcDbLine
 10
1279.402515126
 20
-61.699877357
 30
0.0
 11
1279.402515126
 21
-74.899877643
 31
0.0
  0
LINE
  5
49E
100
AcDbEntity
  8
GEKO
  6
SOLID
 62
        7
100
AcDbLine
 10
1285.769318843
 20
-61.699877357
 30
0.0
 11
1285.769318843
 21
-74.899877643
 31
0.0
  0
ARC
  5
49F
100
AcDbEntity
  8
GEKO
  6
SOLID
 62
        7
100
AcDbCircle
 10
1293.938116778
 20
-69.899877643
 30
0.0
 40
5.0
100
AcDbArc
 50
270.0
 51
348.552443246
  0
ARC
  5
4A0
100
AcDbEntity
  8
GEKO
  6
SOLID
 62
        7
100
AcDbCircle
 10
1297.633929062
 20
-79.899877643
 30
0.0
 40
5.0
100
AcDbArc
 50
58.109208198
 51
90.0
  0
LINE
  5
4A1
100
AcDbEntity
  8
GEKO
  6
SOLID
 62
        7
100
AcDbLine
 10
1300.275438496
 20
-75.654594624
 30
0.0
 11
1306.456629795
 21
-79.50066921
 31
0.0
  0
LWPOLYLINE
  5
4A2
100
AcDbEntity
  8
GEKO
  6
SOLID
 62
        7
100
AcDbPolyline
 90
        6
 70
        0
 10
1309.946489613
 20
-92.605462742
 10
1309.470376836
 20
-91.107724864
 10
1309.002027538
 20
-89.56658197
 10
1308.089918962
 20
-86.35691265
 10
1307.212562121
 20
-82.982151513
 10
1306.372075572
 20
-79.448057694
  0
ARC
  5
4A3
100
AcDbEntity
  8
GEKO
  6
SOLID
 62
        7
100
AcDbCircle
 10
1300.816966474
 20
-78.40472538
 30
0.0
 40
5.599999905
100
AcDbArc
 50
194.576114989
 51
349.570940728
  0
LINE
  5
4A4
100
AcDbEntity
  8
GEKO
  6
SOLID
 62
        7
100
AcDbLine
 10
1287.281294429
 20
-74.899877643
 30
0.0
 11
1295.179078725
 21
-79.814054539
 31
0.0
  0
LWPOLYLINE
  5
4A5
100
AcDbEntity
  8
GEKO
  6
SOLID
 62
        7
100
AcDbPolyline
 90
       56
 70
        0
 10
1331.534631365
 20
-110.891318519
 10
1330.951679158
 20
-111.558372322
 10
1330.366064787
 20
-112.189175765
 10
1329.777937295
 20
-112.783568307
 10
1329.187446365
 20
-113.34139867
 10
1328.594742281
 20
-113.862524882
 10
1327.999975889
 20
-114.346814314
 10
1327.403298562
 20
-114.79414371
 10
1326.804862157
 20
-115.204399223
 10
1326.204818981
 20
-115.577476439
 10
1325.603321749
 20
-115.913280409
 10
1325.000523546
 20
-116.211725667
 10
1324.396577787
 20
-116.472736257
 10
1323.791638181
 20
-116.696245752
 10
1323.185858689
 20
-116.882197265
 10
1322.579393487
 20
-117.030543471
 10
1321.972396922
 20
-117.141246616
 10
1321.36502348
 20
-117.214278523
 10
1320.757427742
 20
-117.249620607
 10
1320.149764344
 20
-117.247263872
 10
1319.542187941
 20
-117.207208918
 10
1318.934853165
 20
-117.12946594
 10
1318.327914587
 20
-117.014054724
 10
1317.721526676
 20
-116.861004642
 10
1317.115843762
 20
-116.670354646
 10
1316.511019996
 20
-116.442153259
 10
1315.907209309
 20
-116.176458559
 10
1315.304565375
 20
-115.873338168
 10
1314.70324157
 20
-115.53286923
 10
1314.103390936
 20
-115.155138399
 10
1313.505166139
 20
-114.740241808
 10
1312.90871943
 20
-114.288285053
 10
1312.31420261
 20
-113.799383158
 10
1311.721766986
 20
-113.273660552
 10
1311.131563338
 20
-112.711251036
 10
1310.543741875
 20
-112.112297746
 10
1309.958452204
 20
-111.476953119
 10
1309.375843283
 20
-110.805378856
 10
1308.79606339
 20
-110.097745877
 10
1308.219260083
 20
-109.354234277
 10
1307.645580163
 20
-108.575033287
 10
1307.075169635
 20
-107.760341217
 10
1306.508173671
 20
-106.910365413
 10
1305.944736577
 20
-106.025322198
 10
1305.38500175
 20
-105.105436822
 10
1304.829111646
 20
-104.150943402
 10
1304.277207745
 20
-103.162084863
 10
1303.185919348
 20
-101.082287793
 10
1302.112247448
 20
-98.868162764
 10
1301.057285003
 20
-96.521963672
 10
1300.022105923
 20
-94.046078855
 10
1299.007763981
 20
-91.443028671
 10
1298.015291738
 20
-88.715462922
 10
1297.045699491
 20
-85.866158167
 10
1296.09997425
 20
-82.898014887
 10
1295.179078725
 20
-79.814054539
  0
LWPOLYLINE
  5
4A6
100
AcDbEntity
  8
GEKO
  6
SOLID
 62
        7
100
AcDbPolyline
 90
       10
 70
        0
 10
1318.375666372
 20
-107.171572631
 10
1316.866484897
 20
-105.21596229
 10
1316.132988352
 20
-104.223516778
 10
1315.424804838
 20
-103.213502855
 10
1314.473939049
 20
-101.741378456
 10
1313.584682885
 20
-100.229323815
 10
1312.750567176
 20
-98.684658516
 10
1311.965122751
 20
-97.114702139
 10
1310.927155236
 20
-94.872283259
 10
1309.946489613
 20
-92.605462742
  0
LWPOLYLINE
  5
4A7
100
AcDbEntity
  8
GEKO
  6
SOLID
 62
        7
100
AcDbPolyline
 90
       22
 70
        0
 10
1293.009071582
 20
-108.249599729
 10
1293.73508483
 20
-108.916843799
 10
1294.473400029
 20
-109.567908041
 10
1295.236319128
 20
-110.186612626
 10
1296.036144078
 20
-110.756777726
 10
1296.474787728
 20
-111.031587921
 10
1296.926039807
 20
-111.287345636
 10
1297.388929065
 20
-111.522858721
 10
1297.862484255
 20
-111.736935022
 10
1298.345734125
 20
-111.928382389
 10
1298.837707427
 20
-112.096008669
 10
1299.337432913
 20
-112.23862171
 10
1299.843939332
 20
-112.355029361
 10
1300.290161522
 20
-112.434358532
 10
1300.739677031
 20
-112.493065191
 10
1301.191364493
 20
-112.531345787
 10
1301.64410254
 20
-112.54939677
 10
1302.548244917
 20
-112.525595695
 10
1303.443133218
 20
-112.423233563
 10
1303.958011235
 20
-112.328193694
 10
1304.467308039
 20
-112.209576642
 10
1305.471855338
 20
-111.913005543
  0
LWPOLYLINE
  5
4A8
100
AcDbEntity
  8
GEKO
  6
SOLID
 62
        7
100
AcDbPolyline
 90
       57
 70
        0
 10
1307.901258291
 20
-108.927242487
 10
1307.331691028
 20
-109.68654107
 10
1306.759712587
 20
-110.41217598
 10
1306.185460362
 20
-111.103972917
 10
1305.609072291
 20
-111.761765706
 10
1305.030686825
 20
-112.385396344
 10
1304.450442895
 20
-112.97471503
 10
1303.868479878
 20
-113.529580208
 10
1303.284937565
 20
-114.049858596
 10
1302.699956125
 20
-114.53542522
 10
1302.113676074
 20
-114.986163446
 10
1301.52623824
 20
-115.401965004
 10
1300.937783727
 20
-115.782730016
 10
1300.348453886
 20
-116.128367021
 10
1299.758390276
 20
-116.438792994
 10
1299.167734634
 20
-116.713933371
 10
1298.576628837
 20
-116.95372206
 10
1297.985214874
 20
-117.158101464
 10
1297.393634803
 20
-117.327022489
 10
1296.802030725
 20
-117.460444561
 10
1296.210544747
 20
-117.558335629
 10
1295.619318947
 20
-117.620672181
 10
1295.028495339
 20
-117.647439243
 10
1294.438215843
 20
-117.638630385
 10
1293.848622246
 20
-117.594247723
 10
1293.259856173
 20
-117.514301919
 10
1292.672059046
 20
-117.398812174
 10
1292.085372059
 20
-117.247806232
 10
1291.499936136
 20
-117.061320363
 10
1290.915891902
 20
-116.839399364
 10
1290.333379647
 20
-116.582096539
 10
1289.752539294
 20
-116.289473696
 10
1289.173510363
 20
-115.961601123
 10
1288.596431939
 20
-115.598557576
 10
1288.02144264
 20
-115.200430261
 10
1287.448680582
 20
-114.76731481
 10
1286.878283343
 20
-114.29931526
 10
1286.310387938
 20
-113.796544025
 10
1285.745130776
 20
-113.259121875
 10
1285.182647635
 20
-112.6871779
 10
1284.623073627
 20
-112.080849485
 10
1284.066543164
 20
-111.440282272
 10
1283.513189928
 20
-110.765630129
 10
1282.963146836
 20
-110.057055111
 10
1282.416546012
 20
-109.31472742
 10
1281.873518751
 20
-108.538825368
 10
1281.334195492
 20
-107.72953533
 10
1280.798705783
 20
-106.887051702
 10
1280.267178251
 20
-106.011576852
 10
1279.216519437
 20
-104.162502534
 10
1278.183228485
 20
-102.184088897
 10
1277.168298139
 20
-100.078236726
 10
1276.172703508
 20
-97.846969242
 10
1275.19740112
 20
-95.492430164
 10
1274.243328008
 20
-93.016881643
 10
1273.311400811
 20
-90.422702091
 10
1272.402514888
 20
-87.712383898
  0
LWPOLYLINE
  5
4A9
100
AcDbEntity
  8
GEKO
  6
SOLID
 62
        7
100
AcDbPolyline
 90
       10
 70
        0
 10
1293.009071582
 20
-108.249599729
 10
1291.499890108
 20
-106.293989388
 10
1290.766393563
 20
-105.301543875
 10
1290.058210049
 20
-104.291529952
 10
1289.107344259
 20
-102.819405553
 10
1288.218088095
 20
-101.307350913
 10
1287.383972386
 20
-99.762685613
 10
1286.598527961
 20
-98.192729236
 10
1285.560560447
 20
-95.950310356
 10
1284.579894823
 20
-93.683489839
  0
LWPOLYLINE
  5
4AA
100
AcDbEntity
  8
GEKO
  6
SOLID
 62
        7
100
AcDbPolyline
 90
        9
 70
        0
 10
1284.579894823
 20
-93.683489839
 10
1283.926027068
 20
-91.608958353
 10
1283.287129992
 20
-89.452566164
 10
1282.664035184
 20
-87.216166328
 10
1282.057503113
 20
-84.901624232
 10
1281.468232435
 20
-82.510819495
 10
1280.896867628
 20
-80.045647845
 10
1280.34400529
 20
-77.508022881
 10
1279.810199315
 20
-74.899877643
  0
LINE
  5
4AB
100
AcDbEntity
  8
GEKO
  6
SOLID
 62
        7
100
AcDbLine
 10
1277.484234564
 20
-80.949879206
 30
0.0
 11
1277.484235202
 21
-75.602352281
 31
0.0
  0
ARC
  5
4AC
100
AcDbEntity
  8
GEKO
  6
SOLID
 62
        7
100
AcDbCircle
 10
1275.213804706
 20
-77.63203942
 30
0.0
 40
4.020309304
100
AcDbArc
 50
-124.384241109
 51
-55.615742801
  0
LINE
  5
4AD
100
AcDbEntity
  8
GEKO
  6
SOLID
 62
        7
100
AcDbLine
 10
1262.431068017
 20
-48.143208243
 30
0.0
 11
1116.402514888
 21
-48.143208243
 31
0.0
  0
LINE
  5
4AE
100
AcDbEntity
  8
GEKO
  6
SOLID
 62
        7
100
AcDbLine
 10
1272.943375003
 20
-75.602351739
 30
0.0
 11
1272.943374365
 21
-80.949878664
 31
0.0
  0
ARC
  5
4AF
100
AcDbEntity
  8
GEKO
  6
SOLID
 62
        7
100
AcDbCircle
 10
1275.213804698
 20
-78.92018774
 30
0.0
 40
4.020309304
100
AcDbArc
 50
55.6157461
 51
124.384244407
  0
ARC
  5
4B0
100
AcDbEntity
  8
GEKO
  6
SOLID
 62
        7
100
AcDbCircle
 10
1268.402513086
 20
-89.927404508
 30
0.0
 40
15.027526885
100
AcDbArc
 50
72.412040578
 51
107.58794993
  0
LINE
  5
4B1
100
AcDbEntity
  8
GEKO
  6
SOLID
 62
        7
100
AcDbLine
 10
1261.591224589
 20
-81.652350321
 30
0.0
 11
1275.213805186
 21
-81.652348696
 31
0.0
  0
ARC
  5
4B2
100
AcDbEntity
  8
GEKO
  6
SOLID
 62
        7
100
AcDbCircle
 10
1268.402513094
 20
-66.624822652
 30
0.0
 40
15.027526885
100
AcDbArc
 50
-107.587946631
 51
-72.412037279
  0
LINE
  5
4B3
100
AcDbEntity
  8
GEKO
  6
SOLID
 62
        7
100
AcDbLine
 10
1272.402514888
 20
-111.652349509
 30
0.0
 11
1272.402514888
 21
-81.652349031
 31
0.0
  0
LINE
  5
4B4
100
AcDbEntity
  8
GEKO
  6
SOLID
 62
        7
100
AcDbLine
 10
1130.909278225
 20
-75.761907153
 30
0.0
 11
1137.194962694
 21
-75.761499656
 31
0.0
  0
LINE
  5
4B5
100
AcDbEntity
  8
GEKO
  6
SOLID
 62
        7
100
AcDbLine
 10
1263.861654605
 20
-75.602350656
 30
0.0
 11
1263.861653967
 21
-80.94987758
 31
0.0
  0
ARC
  5
4B6
100
AcDbEntity
  8
GEKO
  6
SOLID
 62
        7
100
AcDbCircle
 10
1261.591224109
 20
-77.632041046
 30
0.0
 40
4.020309304
100
AcDbArc
 50
-124.384241109
 51
-55.615742801
  0
LINE
  5
4B7
100
AcDbEntity
  8
GEKO
  6
SOLID
 62
        7
100
AcDbLine
 10
1130.909278225
 20
-80.380709319
 30
0.0
 11
1137.195262128
 21
-80.380301802
 31
0.0
  0
ARC
  5
4B8
100
AcDbEntity
  8
GEKO
  6
SOLID
 62
        7
100
AcDbCircle
 10
1133.820372714
 20
-78.071058695
 30
0.0
 40
4.089315873
100
AcDbArc
 50
325.619462654
 51
34.387966248
  0
ARC
  5
4B9
100
AcDbEntity
  8
GEKO
  6
SOLID
 62
        7
100
AcDbCircle
 10
1122.623772862
 20
-71.143581443
 30
0.0
 40
15.285466596
100
AcDbArc
 50
342.415758361
 51
17.591670541
  0
LINE
  5
4BA
100
AcDbEntity
  8
GEKO
  6
SOLID
 62
        7
100
AcDbLine
 10
1137.909643814
 20
-78.070854406
 30
0.0
 11
1137.908745512
 21
-64.214448224
 31
0.0
  0
LINE
  5
4BB
100
AcDbEntity
  8
GEKO
  6
SOLID
 62
        7
100
AcDbLine
 10
1137.19406452
 20
-61.905093216
 30
0.0
 11
1130.909278225
 21
-61.905500655
 31
0.0
  0
LINE
  5
4BC
100
AcDbEntity
  8
GEKO
  6
SOLID
 62
        7
100
AcDbLine
 10
1130.909278225
 20
-66.524302821
 30
0.0
 11
1137.194363825
 21
-66.523895363
 31
0.0
  0
ARC
  5
4BD
100
AcDbEntity
  8
GEKO
  6
SOLID
 62
        7
100
AcDbCircle
 10
1133.819474412
 20
-64.214652512
 30
0.0
 40
4.089315873
100
AcDbArc
 50
325.619462654
 51
34.387966248
  0
LINE
  5
4BE
100
AcDbEntity
  8
GEKO
  6
SOLID
 62
        7
100
AcDbLine
 10
1130.909278225
 20
-80.380709319
 30
0.0
 11
1130.909278225
 21
-61.905500655
 31
0.0
  0
LINE
  5
4BF
100
AcDbEntity
  8
GEKO
  6
SOLID
 62
        7
100
AcDbLine
 10
1130.909278225
 20
153.475494668
 30
0.0
 11
1137.194962694
 21
153.47508717
 31
0.0
  0
LINE
  5
4C0
100
AcDbEntity
  8
GEKO
  6
SOLID
 62
        7
100
AcDbLine
 10
1259.320794406
 20
-75.602350114
 30
0.0
 11
1259.320793768
 21
-80.949877038
 31
0.0
  0
LINE
  5
4C1
100
AcDbEntity
  8
GEKO
  6
SOLID
 62
        7
100
AcDbLine
 10
1130.909278225
 20
158.094296833
 30
0.0
 11
1137.195262128
 21
158.093889317
 31
0.0
  0
ARC
  5
4C2
100
AcDbEntity
  8
GEKO
  6
SOLID
 62
        7
100
AcDbCircle
 10
1133.820372714
 20
155.78464621
 30
0.0
 40
4.089315873
100
AcDbArc
 50
325.612033752
 51
34.380537346
  0
ARC
  5
4C3
100
AcDbEntity
  8
GEKO
  6
SOLID
 62
        7
100
AcDbCircle
 10
1122.623772863
 20
148.857168958
 30
0.0
 40
15.285466596
100
AcDbArc
 50
342.408329459
 51
17.584241639
  0
LINE
  5
4C4
100
AcDbEntity
  8
GEKO
  6
SOLID
 62
        7
100
AcDbLine
 10
1137.909643814
 20
155.784441921
 30
0.0
 11
1137.908745512
 21
141.928035738
 31
0.0
  0
ARC
  5
4C5
100
AcDbEntity
  8
GEKO
  6
SOLID
 62
        7
100
AcDbCircle
 10
1261.591224102
 20
-78.920186114
 30
0.0
 40
4.020309304
100
AcDbArc
 50
55.6157461
 51
124.384244407
  0
LINE
  5
4C6
100
AcDbEntity
  8
GEKO
  6
SOLID
 62
        7
100
AcDbLine
 10
1137.19406452
 20
139.618680731
 30
0.0
 11
1130.909278225
 21
139.61908817
 31
0.0
  0
LINE
  5
4C7
100
AcDbEntity
  8
GEKO
  6
SOLID
 62
        7
100
AcDbLine
 10
1130.909278225
 20
144.237890336
 30
0.0
 11
1137.194363825
 21
144.237482878
 31
0.0
  0
ARC
  5
4C8
100
AcDbEntity
  8
GEKO
  6
SOLID
 62
        7
100
AcDbCircle
 10
1133.819474412
 20
141.928240027
 30
0.0
 40
4.089315873
100
AcDbArc
 50
325.612033752
 51
34.380537346
  0
LINE
  5
4C9
100
AcDbEntity
  8
GEKO
  6
SOLID
 62
        7
100
AcDbLine
 10
1264.402514888
 20
-111.652349509
 30
0.0
 11
1264.402514888
 21
-81.652349986
 31
0.0
  0
LINE
  5
4CA
100
AcDbEntity
  8
GEKO
  6
SOLID
 62
        7
100
AcDbLine
 10
1264.402514888
 20
-84.652349509
 30
0.0
 11
1272.402514888
 21
-87.652349509
 31
0.0
  0
LINE
  5
4CB
100
AcDbEntity
  8
GEKO
  6
SOLID
 62
        7
100
AcDbLine
 10
1264.402514888
 20
-90.652349509
 30
0.0
 11
1272.402514888
 21
-93.652349509
 31
0.0
  0
LWPOLYLINE
  5
4CC
100
AcDbEntity
  8
GEKO
  6
SOLID
 62
        7
100
AcDbPolyline
 90
      115
 70
        0
 10
1387.747801885
 20
211.592502326
 10
1388.651174839
 20
210.62730409
 10
1389.549252105
 20
209.590551708
 10
1390.441656275
 20
208.482680862
 10
1391.328012325
 20
207.304157123
 10
1392.207947776
 20
206.055475751
 10
1393.081092844
 20
204.737161492
 10
1393.9470806
 20
203.349768351
 10
1394.805547122
 20
201.893879365
 10
1395.656131649
 20
200.370106355
 10
1396.498476734
 20
198.779089669
 10
1397.332228389
 20
197.121497915
 10
1398.157036241
 20
195.398027675
 10
1398.972553672
 20
193.60940322
 10
1399.778437972
 20
191.756376198
 10
1400.574350475
 20
189.839725323
 10
1401.35995671
 20
187.860256045
 10
1402.134926534
 20
185.818800215
 10
1402.898934274
 20
183.716215732
 10
1403.651658866
 20
181.553386181
 10
1404.392783984
 20
179.331220469
 10
1405.12199818
 20
177.050652435
 10
1405.838995009
 20
174.712640462
 10
1406.543473163
 20
172.318167073
 10
1407.23513659
 20
169.868238518
 10
1407.913694629
 20
167.363884353
 10
1408.578862123
 20
164.806157004
 10
1409.230359542
 20
162.196131327
 10
1409.867913102
 20
159.534904155
 10
1410.491254879
 20
156.823593839
 10
1411.100122919
 20
154.063339777
 10
1411.694261354
 20
151.255301934
 10
1412.273420503
 20
148.400660357
 10
1412.837356982
 20
145.500614676
 10
1413.385833801
 20
142.556383602
 10
1413.918620471
 20
139.569204417
 10
1414.435493093
 20
136.540332446
 10
1414.936234458
 20
133.471040541
 10
1415.420634134
 20
130.362618536
 10
1415.888488559
 20
127.21637271
 10
1416.339601121
 20
124.033625238
 10
1416.773782246
 20
120.815713633
 10
1417.190849474
 20
117.563990187
 10
1417.590627538
 20
114.279821398
 10
1417.972948434
 20
110.964587403
 10
1418.337651497
 20
107.61968139
 10
1418.684583465
 20
104.246509018
 10
1419.013598544
 20
100.846487826
 10
1419.324558468
 20
97.421046633
 10
1419.61733256
 20
93.971624943
 10
1419.891797785
 20
90.499672335
 10
1420.385348014
 20
83.49401942
 10
1420.804379606
 20
76.415862834
 10
1421.148188262
 20
69.277099391
 10
1421.416196117
 20
62.089727767
 10
1421.607952707
 20
54.865828339
 10
1421.723135733
 20
47.617542881
 10
1421.761551598
 20
40.357054151
 10
1421.723135733
 20
33.096565422
 10
1421.607952707
 20
25.848279964
 10
1421.416196116
 20
18.624380536
 10
1421.148188262
 20
11.437008912
 10
1420.804379606
 20
4.298245469
 10
1420.385348013
 20
-2.779911116
 10
1419.891797784
 20
-9.785564032
 10
1419.617332559
 20
-13.257516639
 10
1419.324558467
 20
-16.70693833
 10
1419.013598543
 20
-20.132379522
 10
1418.684583464
 20
-23.532400715
 10
1418.337651496
 20
-26.905573086
 10
1417.972948433
 20
-30.250479099
 10
1417.590627536
 20
-33.565713094
 10
1417.190849473
 20
-36.849881883
 10
1416.773782245
 20
-40.101605329
 10
1416.33960112
 20
-43.319516934
 10
1415.888488557
 20
-46.502264406
 10
1415.420634133
 20
-49.648510232
 10
1414.936234456
 20
-52.756932237
 10
1414.435493092
 20
-55.826224142
 10
1413.918620469
 20
-58.855096112
 10
1413.3858338
 20
-61.842275298
 10
1412.83735698
 20
-64.786506371
 10
1412.273420502
 20
-67.686552052
 10
1411.694261353
 20
-70.541193629
 10
1411.100122918
 20
-73.349231471
 10
1410.491254877
 20
-76.109485533
 10
1409.8679131
 20
-78.820795849
 10
1409.23035954
 20
-81.482023021
 10
1408.578862121
 20
-84.092048698
 10
1407.913694627
 20
-86.649776047
 10
1407.235136588
 20
-89.154130212
 10
1406.54347316
 20
-91.604058766
 10
1405.838995007
 20
-93.998532155
 10
1405.121998178
 20
-96.336544128
 10
1404.392783982
 20
-98.617112162
 10
1403.651658864
 20
-100.839277874
 10
1402.898934272
 20
-103.002107424
 10
1402.134926532
 20
-105.104691908
 10
1401.359956708
 20
-107.146147738
 10
1400.574350473
 20
-109.125617015
 10
1399.778437969
 20
-111.04226789
 10
1398.97255367
 20
-112.895294912
 10
1398.157036238
 20
-114.683919367
 10
1397.332228387
 20
-116.407389606
 10
1396.498476731
 20
-118.064981361
 10
1395.656131647
 20
-119.655998046
 10
1394.805547119
 20
-121.179771056
 10
1393.947080597
 20
-122.635660041
 10
1393.081092841
 20
-124.023053182
 10
1392.207947773
 20
-125.341367441
 10
1391.328012323
 20
-126.590048813
 10
1390.441656272
 20
-127.768572552
 10
1389.549252102
 20
-128.876443398
 10
1388.651174837
 20
-129.91319578
 10
1387.747801882
 20
-130.878394015
  0
LINE
  5
4CD
100
AcDbEntity
  8
GEKO
  6
SOLID
 62
        7
100
AcDbLine
 10
1264.402514888
 20
-96.652349509
 30
0.0
 11
1272.402514888
 21
-99.652349509
 31
0.0
  0
LINE
  5
4CE
100
AcDbEntity
  8
GEKO
  6
SOLID
 62
        7
100
AcDbLine
 10
1120.409278225
 20
168.856793757
 30
0.0
 11
1120.409278225
 21
118.856793757
 31
0.0
  0
LINE
  5
4CF
100
AcDbEntity
  8
GEKO
  6
SOLID
 62
        7
100
AcDbLine
 10
1242.404878531
 20
-91.143206243
 30
0.0
 11
1187.281445749
 21
-91.143206243
 31
0.0
  0
LINE
  5
4D0
100
AcDbEntity
  8
GEKO
  6
SOLID
 62
        7
100
AcDbLine
 10
1264.402514888
 20
-102.652349509
 30
0.0
 11
1272.402514888
 21
-105.652349509
 31
0.0
  0
LINE
  5
4D1
100
AcDbEntity
  8
GEKO
  6
SOLID
 62
        7
100
AcDbLine
 10
1264.402514888
 20
-108.652349509
 30
0.0
 11
1272.402514888
 21
-111.652349509
 31
0.0
  0
LINE
  5
4D2
100
AcDbEntity
  8
GEKO
  6
SOLID
 62
        7
100
AcDbLine
 10
1264.402514888
 20
-111.652349509
 30
0.0
 11
1272.402514888
 21
-111.652349509
 31
0.0
  0
LINE
  5
4D3
100
AcDbEntity
  8
GEKO
  6
SOLID
 62
        7
100
AcDbLine
 10
1309.31902096
 20
-45.199877
 30
0.0
 11
1302.248276085
 21
-45.199877
 31
0.0
  0
LINE
  5
4D4
100
AcDbEntity
  8
GEKO
  6
SOLID
 62
        7
100
AcDbLine
 10
1264.402514888
 20
111.300122643
 30
0.0
 11
1264.402514888
 21
148.300122643
 31
0.0
  0
LINE
  5
4D5
100
AcDbEntity
  8
GEKO
  6
SOLID
 62
        7
100
AcDbLine
 10
1264.402514888
 20
128.300122643
 30
0.0
 11
1272.402514888
 21
128.300122643
 31
0.0
  0
LINE
  5
4D6
100
AcDbEntity
  8
GEKO
  6
SOLID
 62
        7
100
AcDbLine
 10
1267.069181554
 20
128.300122643
 30
0.0
 11
1272.402514888
 21
130.300122643
 31
0.0
  0
LINE
  5
4D7
100
AcDbEntity
  8
GEKO
  6
SOLID
 62
        7
100
AcDbLine
 10
1272.402514888
 20
111.300122643
 30
0.0
 11
1272.402514888
 21
148.300122643
 31
0.0
  0
LINE
  5
4D8
100
AcDbEntity
  8
GEKO
  6
SOLID
 62
        7
100
AcDbLine
 10
1264.402514888
 20
133.300122643
 30
0.0
 11
1272.402514888
 21
136.300122643
 31
0.0
  0
LINE
  5
4D9
100
AcDbEntity
  8
GEKO
  6
SOLID
 62
        7
100
AcDbLine
 10
1264.402514888
 20
139.300122643
 30
0.0
 11
1272.402514888
 21
142.300122643
 31
0.0
  0
LINE
  5
4DA
100
AcDbEntity
  8
GEKO
  6
SOLID
 62
        7
100
AcDbLine
 10
1264.402514888
 20
145.300122643
 30
0.0
 11
1272.402514888
 21
148.300122643
 31
0.0
  0
LINE
  5
4DB
100
AcDbEntity
  8
GEKO
  6
SOLID
 62
        7
100
AcDbLine
 10
1188.409960563
 20
-91.143206243
 30
0.0
 11
1120.409278225
 21
-91.143206243
 31
0.0
  0
LINE
  5
4DC
100
AcDbEntity
  8
GEKO
  6
SOLID
 62
        7
100
AcDbLine
 10
1242.404878531
 20
168.856793757
 30
0.0
 11
1120.409278225
 21
168.856793757
 31
0.0
  0
LINE
  5
4DD
100
AcDbEntity
  8
GEKO
  6
SOLID
 62
        7
100
AcDbLine
 10
1261.719821443
 20
128.856793757
 30
0.0
 11
1133.909278225
 21
128.856793757
 31
0.0
  0
LINE
  5
4DE
100
AcDbEntity
  8
GEKO
  6
SOLID
 62
        7
100
AcDbLine
 10
1264.402514888
 20
148.300122643
 30
0.0
 11
1272.402514888
 21
148.300122643
 31
0.0
  0
LINE
  5
4DF
100
AcDbEntity
  8
GEKO
  6
SOLID
 62
        7
100
AcDbLine
 10
1264.002514792
 20
148.300122643
 30
0.0
 11
1260.402514649
 21
148.300122643
 31
0.0
  0
ARC
  5
4E0
100
AcDbEntity
  8
GEKO
  6
SOLID
 62
        7
100
AcDbCircle
 10
1260.402514649
 20
151.300122643
 30
0.0
 40
3.0
100
AcDbArc
 50
180.0
 51
270.0
  0
LINE
  5
4E1
100
AcDbEntity
  8
GEKO
  6
SOLID
 62
        7
100
AcDbLine
 10
1257.402514649
 20
151.300122643
 30
0.0
 11
1257.402514649
 21
158.500121974
 31
0.0
  0
LINE
  5
4E2
100
AcDbEntity
  8
GEKO
  6
SOLID
 62
        7
100
AcDbLine
 10
1188.409960563
 20
168.856793757
 30
0.0
 11
1130.909278225
 21
168.856793757
 31
0.0
  0
ARC
  5
4E3
100
AcDbEntity
  8
GEKO
  6
SOLID
 62
        7
100
AcDbCircle
 10
1260.402514649
 20
158.500121974
 30
0.0
 40
3.0
100
AcDbArc
 50
90.0
 51
180.0
  0
LINE
  5
4E4
100
AcDbEntity
  8
GEKO
  6
SOLID
 62
        7
100
AcDbLine
 10
1130.909278225
 20
-58.776676902
 30
0.0
 11
1130.909278225
 21
-91.143206243
 31
0.0
  0
ARC
  5
4E5
100
AcDbEntity
  8
GEKO
  6
SOLID
 62
        7
100
AcDbCircle
 10
1133.909278225
 20
131.856793757
 30
0.0
 40
3.0
100
AcDbArc
 50
180.0
 51
270.0
  0
LINE
  5
4E6
100
AcDbEntity
  8
GEKO
  6
SOLID
 62
        7
100
AcDbLine
 10
1130.909278225
 20
168.856793757
 30
0.0
 11
1130.909278225
 21
131.856793757
 31
0.0
  0
LINE
  5
4E7
100
AcDbEntity
  8
GEKO
  6
SOLID
 62
        7
100
AcDbLine
 10
1260.402514291
 20
161.500121974
 30
0.0
 11
1275.213805186
 21
161.500123742
 31
0.0
  0
ARC
  5
4E8
100
AcDbEntity
  8
GEKO
  6
SOLID
 62
        7
100
AcDbCircle
 10
1268.402513095
 20
176.527649786
 30
0.0
 40
15.027526885
100
AcDbArc
 50
-107.587946631
 51
-72.412037279
  0
LINE
  5
4E9
100
AcDbEntity
  8
GEKO
  6
SOLID
 62
        7
100
AcDbLine
 10
1297.633929062
 20
161.500122929
 30
0.0
 11
1260.402514649
 21
161.500122929
 31
0.0
  0
ARC
  5
4EA
100
AcDbEntity
  8
GEKO
  6
SOLID
 62
        7
100
AcDbCircle
 10
1261.59122411
 20
165.520431392
 30
0.0
 40
4.020309304
100
AcDbArc
 50
-124.384241109
 51
-55.615742801
  0
LINE
  5
4EB
100
AcDbEntity
  8
GEKO
  6
SOLID
 62
        7
100
AcDbLine
 10
1259.320794406
 20
162.202595399
 30
0.0
 11
1259.320793768
 21
167.550122324
 31
0.0
  0
LINE
  5
4EC
100
AcDbEntity
  8
GEKO
  6
SOLID
 62
        7
100
AcDbLine
 10
1261.591224589
 20
168.252595607
 30
0.0
 11
1275.213805186
 21
168.252593981
 31
0.0
  0
ARC
  5
4ED
100
AcDbEntity
  8
GEKO
  6
SOLID
 62
        7
100
AcDbCircle
 10
1261.591224102
 20
164.232286323
 30
0.0
 40
4.020309304
100
AcDbArc
 50
55.6157461
 51
124.384244407
  0
LINE
  5
4EE
100
AcDbEntity
  8
GEKO
  6
SOLID
 62
        7
100
AcDbLine
 10
1263.861654605
 20
162.202595941
 30
0.0
 11
1263.861653967
 21
167.550122866
 31
0.0
  0
ARC
  5
4EF
100
AcDbEntity
  8
GEKO
  6
SOLID
 62
        7
100
AcDbCircle
 10
1268.402513086
 20
153.225067929
 30
0.0
 40
15.027526885
100
AcDbArc
 50
72.412040578
 51
107.58794993
  0
LINE
  5
4F0
100
AcDbEntity
  8
GEKO
  6
SOLID
 62
        7
100
AcDbLine
 10
1264.402514888
 20
198.252594794
 30
0.0
 11
1264.402514888
 21
168.252595271
 31
0.0
  0
LINE
  5
4F1
100
AcDbEntity
  8
GEKO
  6
SOLID
 62
        7
100
AcDbLine
 10
1272.402514888
 20
198.252594794
 30
0.0
 11
1272.402514888
 21
168.252594317
 31
0.0
  0
LINE
  5
4F2
100
AcDbEntity
  8
GEKO
  6
SOLID
 62
        7
100
AcDbLine
 10
1272.943375003
 20
162.202597025
 30
0.0
 11
1272.943374365
 21
167.550123949
 31
0.0
  0
ARC
  5
4F3
100
AcDbEntity
  8
GEKO
  6
SOLID
 62
        7
100
AcDbCircle
 10
1275.213804698
 20
164.232284698
 30
0.0
 40
4.020309304
100
AcDbArc
 50
55.6157461
 51
124.384244407
  0
ARC
  5
4F4
100
AcDbEntity
  8
GEKO
  6
SOLID
 62
        7
100
AcDbCircle
 10
1275.213804707
 20
165.520433017
 30
0.0
 40
4.020309304
100
AcDbArc
 50
-124.384241109
 51
-55.615742801
  0
LINE
  5
4F5
100
AcDbEntity
  8
GEKO
  6
SOLID
 62
        7
100
AcDbLine
 10
1277.484234564
 20
167.550124491
 30
0.0
 11
1277.484235202
 21
162.202597567
 31
0.0
  0
LINE
  5
4F6
100
AcDbEntity
  8
GEKO
  6
SOLID
 62
        7
100
AcDbLine
 10
1264.402514888
 20
171.252594794
 30
0.0
 11
1272.402514888
 21
174.252594794
 31
0.0
  0
LINE
  5
4F7
100
AcDbEntity
  8
GEKO
  6
SOLID
 62
        7
100
AcDbLine
 10
1264.402514888
 20
177.252594794
 30
0.0
 11
1272.402514888
 21
180.252594794
 31
0.0
  0
LINE
  5
4F8
100
AcDbEntity
  8
GEKO
  6
SOLID
 62
        7
100
AcDbLine
 10
1027.771431231
 20
134.79467686
 30
0.0
 11
1027.771431231
 21
138.719032367
 31
0.0
  0
ARC
  5
4F9
100
AcDbEntity
  8
GEKO
  6
SOLID
 62
        7
100
AcDbCircle
 10
1030.80252006
 20
134.289628004
 30
0.0
 40
5.367226705
100
AcDbArc
 50
55.615745828
 51
124.384254172
  0
LINE
  5
4FA
100
AcDbEntity
  8
GEKO
  6
SOLID
 62
        7
100
AcDbLine
 10
1033.833608889
 20
138.719032367
 30
0.0
 11
1033.833608889
 21
134.79467686
 31
0.0
  0
ARC
  5
4FB
100
AcDbEntity
  8
GEKO
  6
SOLID
 62
        7
100
AcDbCircle
 10
1030.80252006
 20
139.224081222
 30
0.0
 40
5.367226704
100
AcDbArc
 50
235.615745822
 51
304.384254178
  0
ARC
  5
4FC
100
AcDbEntity
  8
GEKO
  6
SOLID
 62
        7
100
AcDbCircle
 10
1048.989053034
 20
139.224081222
 30
0.0
 40
5.367226704
100
AcDbArc
 50
235.615745822
 51
304.384254178
  0
ARC
  5
4FD
100
AcDbEntity
  8
GEKO
  6
SOLID
 62
        7
100
AcDbCircle
 10
1039.895786547
 20
153.919027822
 30
0.0
 40
20.062173304
100
AcDbArc
 50
252.412042636
 51
287.587957364
  0
ARC
  5
4FE
100
AcDbEntity
  8
GEKO
  6
SOLID
 62
        7
100
AcDbCircle
 10
1031.895756294
 20
146.756854614
 30
0.0
 40
2.0
100
AcDbArc
 50
90.0
 51
180.0
  0
LINE
  5
4FF
100
AcDbEntity
  8
GEKO
  6
SOLID
 62
        7
100
AcDbLine
 10
1029.895756294
 20
139.579703805
 30
0.0
 11
1029.895756294
 21
146.756854614
 31
0.0
  0
LINE
  5
500
100
AcDbEntity
  8
GEKO
  6
SOLID
 62
        7
100
AcDbLine
 10
1052.020141863
 20
138.719032367
 30
0.0
 11
1052.020141863
 21
134.79467686
 31
0.0
  0
ARC
  5
501
100
AcDbEntity
  8
GEKO
  6
SOLID
 62
        7
100
AcDbCircle
 10
1039.895786547
 20
119.594681402
 30
0.0
 40
20.062173307
100
AcDbArc
 50
72.412042639
 51
107.587957361
  0
ARC
  5
502
100
AcDbEntity
  8
GEKO
  6
SOLID
 62
        7
100
AcDbCircle
 10
1048.989053034
 20
134.289628004
 30
0.0
 40
5.367226705
100
AcDbArc
 50
55.615745828
 51
124.384254172
  0
LINE
  5
503
100
AcDbEntity
  8
GEKO
  6
SOLID
 62
        7
100
AcDbLine
 10
1030.80252006
 20
139.656854709
 30
0.0
 11
1048.989053034
 21
139.656854709
 31
0.0
  0
LINE
  5
504
100
AcDbEntity
  8
GEKO
  6
SOLID
 62
        7
100
AcDbLine
 10
1045.957964205
 20
138.719032367
 30
0.0
 11
1045.957964205
 21
134.79467686
 31
0.0
  0
ARC
  5
505
100
AcDbEntity
  8
GEKO
  6
SOLID
 62
        7
100
AcDbCircle
 10
1047.895756294
 20
146.756854614
 30
0.0
 40
2.0
100
AcDbArc
 50
0.0
 51
90.0
  0
LINE
  5
506
100
AcDbEntity
  8
GEKO
  6
SOLID
 62
        7
100
AcDbLine
 10
1049.895756294
 20
139.579714176
 30
0.0
 11
1049.895756294
 21
146.756854614
 31
0.0
  0
LINE
  5
507
100
AcDbEntity
  8
GEKO
  6
SOLID
 62
        7
100
AcDbLine
 10
1047.895756294
 20
148.756854614
 30
0.0
 11
1031.895756294
 21
148.756854614
 31
0.0
  0
LINE
  5
508
100
AcDbEntity
  8
GEKO
  6
SOLID
 62
        7
100
AcDbLine
 10
644.325727521
 20
66.357082379
 30
0.0
 11
644.325727521
 21
51.357082379
 31
0.0
  0
LINE
  5
509
100
AcDbEntity
  8
GEKO
  6
SOLID
 62
        7
100
AcDbLine
 10
650.32572776
 20
66.356626657
 30
0.0
 11
650.32572776
 21
51.356626657
 31
0.0
  0
CIRCLE
  5
50A
100
AcDbEntity
  8
GEKO
  6
SOLID
 62
        7
100
AcDbCircle
 10
633.82572776
 20
38.856626657
 30
0.0
 40
3.49999994
  0
LINE
  5
50B
100
AcDbEntity
  8
GEKO
  6
SOLID
 62
        7
100
AcDbLine
 10
650.32572776
 20
11.356626657
 30
0.0
 11
650.32572776
 21
26.356626657
 31
0.0
  0
LINE
  5
50C
100
AcDbEntity
  8
GEKO
  6
SOLID
 62
        7
100
AcDbLine
 10
644.325727521
 20
11.356626657
 30
0.0
 11
644.325727521
 21
26.356626657
 31
0.0
  0
LINE
  5
50D
100
AcDbEntity
  8
GEKO
  6
SOLID
 62
        7
100
AcDbLine
 10
881.422407209
 20
11.356626657
 30
0.0
 11
881.422407209
 21
26.356626657
 31
0.0
  0
LINE
  5
50E
100
AcDbEntity
  8
GEKO
  6
SOLID
 62
        7
100
AcDbLine
 10
887.422407447
 20
11.356626657
 30
0.0
 11
887.422407447
 21
26.356626657
 31
0.0
  0
CIRCLE
  5
50F
100
AcDbEntity
  8
GEKO
  6
SOLID
 62
        7
100
AcDbCircle
 10
874.222407444
 20
38.856626657
 30
0.0
 40
3.49999994
  0
LINE
  5
510
100
AcDbEntity
  8
GEKO
  6
SOLID
 62
        7
100
AcDbLine
 10
881.422407209
 20
66.356626657
 30
0.0
 11
881.422407209
 21
51.356626657
 31
0.0
  0
LINE
  5
511
100
AcDbEntity
  8
GEKO
  6
SOLID
 62
        7
100
AcDbLine
 10
887.422407447
 20
66.356626657
 30
0.0
 11
887.422407447
 21
51.356626657
 31
0.0
  0
LINE
  5
512
100
AcDbEntity
  8
GEKO
  6
SOLID
 62
        7
100
AcDbLine
 10
1083.960322419
 20
220.856793757
 30
0.0
 11
894.89544045
 21
220.856793757
 31
0.0
  0
LINE
  5
513
100
AcDbEntity
  8
GEKO
  6
SOLID
 62
        7
100
AcDbLine
 10
1084.907076123
 20
202.856793757
 30
0.0
 11
894.89544045
 21
202.856793757
 31
0.0
  0
LINE
  5
514
100
AcDbEntity
  8
GEKO
  6
SOLID
 62
        7
100
AcDbLine
 10
1083.960322419
 20
256.856793757
 30
0.0
 11
894.89544045
 21
256.856793757
 31
0.0
  0
LINE
  5
515
100
AcDbEntity
  8
GEKO
  6
SOLID
 62
        7
100
AcDbLine
 10
1120.409278225
 20
168.856793757
 30
0.0
 11
1048.370193986
 21
168.856793757
 31
0.0
  0
LINE
  5
516
100
AcDbEntity
  8
GEKO
  6
SOLID
 62
        7
100
AcDbLine
 10
1120.409278225
 20
-91.143206243
 30
0.0
 11
1048.370193986
 21
-91.143206243
 31
0.0
  0
LINE
  5
517
100
AcDbEntity
  8
GEKO
  6
SOLID
 62
        7
100
AcDbLine
 10
1038.370193986
 20
158.856793757
 30
0.0
 11
1038.370193986
 21
148.756854614
 31
0.0
  0
LINE
  5
518
100
AcDbEntity
  8
GEKO
  6
SOLID
 62
        7
100
AcDbLine
 10
1083.013568715
 20
274.856793757
 30
0.0
 11
894.89544045
 21
274.856793757
 31
0.0
  0
ARC
  5
519
100
AcDbEntity
  8
GEKO
  6
SOLID
 62
        7
100
AcDbCircle
 10
1048.370193986
 20
158.856793757
 30
0.0
 40
10.0
100
AcDbArc
 50
90.0
 51
180.0
  0
LINE
  5
51A
100
AcDbEntity
  8
GEKO
  6
SOLID
 62
        7
100
AcDbLine
 10
714.89544045
 20
283.856793757
 30
0.0
 11
714.89544045
 21
193.856793757
 31
0.0
  0
ARC
  5
51B
100
AcDbEntity
  8
GEKO
  6
SOLID
 62
        7
100
AcDbCircle
 10
1048.370193986
 20
-81.143206243
 30
0.0
 40
10.0
100
AcDbArc
 50
180.0
 51
270.0
  0
LINE
  5
51C
100
AcDbEntity
  8
GEKO
  6
SOLID
 62
        7
100
AcDbLine
 10
652.898396662
 20
38.856793757
 30
0.0
 11
623.867288173
 21
38.856793757
 31
0.0
  0
LINE
  5
51D
100
AcDbEntity
  8
GEKO
  6
SOLID
 62
        7
100
AcDbLine
 10
714.89544045
 20
193.856793757
 30
0.0
 11
894.89544045
 21
193.856793757
 31
0.0
  0
LINE
  5
51E
100
AcDbEntity
  8
GEKO
  6
SOLID
 62
        7
100
AcDbLine
 10
714.89544045
 20
283.856793757
 30
0.0
 11
894.89544045
 21
283.856793757
 31
0.0
  0
LINE
  5
51F
100
AcDbEntity
  8
GEKO
  6
CENTER
 62
        7
100
AcDbLine
 10
821.274514476
 20
38.856793757
 30
0.0
 11
652.898396662
 21
38.856793757
 31
0.0
  0
LINE
  5
520
100
AcDbEntity
  8
GEKO
  6
CENTER
 62
        7
100
AcDbLine
 10
894.89544045
 20
280.233850169
 30
0.0
 11
894.89544045
 21
-127.268747856
 31
0.0
  0
LINE
  5
521
100
AcDbEntity
  8
GEKO
  6
SOLID
 62
        7
100
AcDbLine
 10
1104.12707519
 20
133.856793757
 30
0.0
 11
734.895704862
 21
133.856793757
 31
0.0
  0
LINE
  5
522
100
AcDbEntity
  8
GEKO
  6
SOLID
 62
        7
100
AcDbLine
 10
1104.12707519
 20
-56.143206243
 30
0.0
 11
734.895704862
 21
-56.143206243
 31
0.0
  0
LINE
  5
523
100
AcDbEntity
  8
GEKO
  6
SOLID
 62
        7
100
AcDbLine
 10
734.895704862
 20
133.856793757
 30
0.0
 11
734.895704862
 21
-56.143206243
 31
0.0
  0
LINE
  5
524
100
AcDbEntity
  8
GEKO
  6
SOLID
 62
        7
100
AcDbLine
 10
1024.89544045
 20
133.856793757
 30
0.0
 11
1024.89544045
 21
-56.143206243
 31
0.0
  0
LINE
  5
525
100
AcDbEntity
  8
GEKO
  6
SOLID
 62
        7
100
AcDbLine
 10
964.89544045
 20
133.856793757
 30
0.0
 11
964.89544045
 21
-56.143206243
 31
0.0
  0
LINE
  5
526
100
AcDbEntity
  8
GEKO
  6
SOLID
 62
        7
100
AcDbLine
 10
824.89544045
 20
133.856793757
 30
0.0
 11
824.89544045
 21
-56.143206243
 31
0.0
  0
LINE
  5
527
100
AcDbEntity
  8
GEKO
  6
SOLID
 62
        7
100
AcDbLine
 10
764.89544045
 20
133.856793757
 30
0.0
 11
764.89544045
 21
-56.143206243
 31
0.0
  0
LINE
  5
528
100
AcDbEntity
  8
GEKO
  6
CENTER
 62
        7
100
AcDbLine
 10
1007.419809146
 20
-36.143206243
 30
0.0
 11
974.18134074
 21
-36.143206243
 31
0.0
  0
LINE
  5
529
100
AcDbEntity
  8
GEKO
  6
CENTER
 62
        7
100
AcDbLine
 10
994.895425191
 20
-23.070177396
 30
0.0
 11
994.895425191
 21
-52.663136364
 31
0.0
  0
CIRCLE
  5
52A
100
AcDbEntity
  8
GEKO
  6
SOLID
 62
        7
100
AcDbCircle
 10
994.895425191
 20
-36.143206243
 30
0.0
 40
7.0
  0
ARC
  5
52B
100
AcDbEntity
  8
GEKO
  6
SOLID
 62
        7
100
AcDbCircle
 10
994.895425191
 20
-36.143206243
 30
0.0
 40
8.0
100
AcDbArc
 50
115.0
 51
75.0
  0
LINE
  5
52C
100
AcDbEntity
  8
GEKO
  6
CENTER
 62
        7
100
AcDbLine
 10
1007.419809146
 20
113.856793757
 30
0.0
 11
974.18134074
 21
113.856793757
 31
0.0
  0
LINE
  5
52D
100
AcDbEntity
  8
GEKO
  6
CENTER
 62
        7
100
AcDbLine
 10
994.895425191
 20
100.783764911
 30
0.0
 11
994.895425191
 21
130.376723879
 31
0.0
  0
CIRCLE
  5
52E
100
AcDbEntity
  8
GEKO
  6
SOLID
 62
        7
100
AcDbCircle
 10
994.895425191
 20
113.856793757
 30
0.0
 40
7.0
  0
ARC
  5
52F
100
AcDbEntity
  8
GEKO
  6
SOLID
 62
        7
100
AcDbCircle
 10
994.895425191
 20
113.856793757
 30
0.0
 40
8.0
100
AcDbArc
 50
285.0
 51
245.0
  0
LINE
  5
530
100
AcDbEntity
  8
GEKO
  6
CENTER
 62
        7
100
AcDbLine
 10
782.371071754
 20
-36.143206243
 30
0.0
 11
815.60954016
 21
-36.143206243
 31
0.0
  0
LINE
  5
531
100
AcDbEntity
  8
GEKO
  6
CENTER
 62
        7
100
AcDbLine
 10
794.895455709
 20
-23.070177396
 30
0.0
 11
794.895455709
 21
-52.663136364
 31
0.0
  0
CIRCLE
  5
532
100
AcDbEntity
  8
GEKO
  6
SOLID
 62
        7
100
AcDbCircle
 10
794.895455709
 20
-36.143206243
 30
0.0
 40
7.0
  0
ARC
  5
533
100
AcDbEntity
  8
GEKO
  6
SOLID
 62
        7
100
AcDbCircle
 10
794.895455709
 20
-36.143206243
 30
0.0
 40
8.0
100
AcDbArc
 50
105.0
 51
65.0
  0
LINE
  5
534
100
AcDbEntity
  8
GEKO
  6
CENTER
 62
        7
100
AcDbLine
 10
782.371071754
 20
113.856793757
 30
0.0
 11
815.60954016
 21
113.856793757
 31
0.0
  0
LINE
  5
535
100
AcDbEntity
  8
GEKO
  6
CENTER
 62
        7
100
AcDbLine
 10
794.895455709
 20
100.783764911
 30
0.0
 11
794.895455709
 21
130.376723879
 31
0.0
  0
CIRCLE
  5
536
100
AcDbEntity
  8
GEKO
  6
SOLID
 62
        7
100
AcDbCircle
 10
794.895455709
 20
113.856793757
 30
0.0
 40
7.0
  0
ARC
  5
537
100
AcDbEntity
  8
GEKO
  6
SOLID
 62
        7
100
AcDbCircle
 10
794.895455709
 20
113.856793757
 30
0.0
 40
8.0
100
AcDbArc
 50
295.0
 51
255.0
  0
LINE
  5
538
100
AcDbEntity
  8
GEKO
  6
SOLID
 62
        7
100
AcDbLine
 10
974.89544045
 20
168.856793757
 30
0.0
 11
814.89544045
 21
168.856793757
 31
0.0
  0
LINE
  5
539
100
AcDbEntity
  8
GEKO
  6
SOLID
 62
        7
100
AcDbLine
 10
979.89544045
 20
163.856793757
 30
0.0
 11
979.89544045
 21
138.856793757
 31
0.0
  0
LINE
  5
53A
100
AcDbEntity
  8
GEKO
  6
SOLID
 62
        7
100
AcDbLine
 10
809.89544045
 20
163.856793757
 30
0.0
 11
809.89544045
 21
138.856793757
 31
0.0
  0
LINE
  5
53B
100
AcDbEntity
  8
GEKO
  6
SOLID
 62
        7
100
AcDbLine
 10
704.883804777
 20
202.856793757
 30
0.0
 11
894.89544045
 21
202.856793757
 31
0.0
  0
LINE
  5
53C
100
AcDbEntity
  8
GEKO
  6
SOLID
 62
        7
100
AcDbLine
 10
705.830558481
 20
220.856793757
 30
0.0
 11
894.89544045
 21
220.856793757
 31
0.0
  0
ARC
  5
53D
100
AcDbEntity
  8
GEKO
  6
SOLID
 62
        7
100
AcDbCircle
 10
974.89544045
 20
163.856793757
 30
0.0
 40
5.0
100
AcDbArc
 50
0.0
 51
90.0
  0
ARC
  5
53E
100
AcDbEntity
  8
GEKO
  6
SOLID
 62
        7
100
AcDbCircle
 10
814.89544045
 20
163.856793757
 30
0.0
 40
5.0
100
AcDbArc
 50
90.0
 51
180.0
  0
ARC
  5
53F
100
AcDbEntity
  8
GEKO
  6
SOLID
 62
        7
100
AcDbCircle
 10
984.89544045
 20
138.856793757
 30
0.0
 40
5.0
100
AcDbArc
 50
180.0
 51
270.0
  0
ARC
  5
540
100
AcDbEntity
  8
GEKO
  6
SOLID
 62
        7
100
AcDbCircle
 10
804.89544045
 20
138.856793757
 30
0.0
 40
5.0
100
AcDbArc
 50
270.0
 51
0.0
  0
LINE
  5
541
100
AcDbEntity
  8
GEKO
  6
SOLID
 62
        7
100
AcDbLine
 10
1037.39544045
 20
-71.143206243
 30
0.0
 11
894.89544045
 21
-71.143206243
 31
0.0
  0
LINE
  5
542
100
AcDbEntity
  8
GEKO
  6
SOLID
 62
        7
100
AcDbLine
 10
1037.39544045
 20
-61.143206243
 30
0.0
 11
1037.39544045
 21
-81.143206243
 31
0.0
  0
LINE
  5
543
100
AcDbEntity
  8
GEKO
  6
SOLID
 62
        7
100
AcDbLine
 10
1037.39544045
 20
-81.143206243
 30
0.0
 11
894.89544045
 21
-81.143206243
 31
0.0
  0
LINE
  5
544
100
AcDbEntity
  8
GEKO
  6
SOLID
 62
        7
100
AcDbLine
 10
949.89544045
 20
-91.143206243
 30
0.0
 11
894.89544045
 21
-91.143206243
 31
0.0
  0
ARC
  5
545
100
AcDbEntity
  8
GEKO
  6
SOLID
 62
        7
100
AcDbCircle
 10
1042.39544045
 20
-61.143206243
 30
0.0
 40
5.0
100
AcDbArc
 50
143.615016067
 51
180.0
  0
ARC
  5
546
100
AcDbEntity
  8
GEKO
  6
SOLID
 62
        7
100
AcDbCircle
 10
747.39544045
 20
-61.143206243
 30
0.0
 40
5.0
100
AcDbArc
 50
0.0
 51
90.0
  0
LINE
  5
547
100
AcDbEntity
  8
GEKO
  6
SOLID
 62
        7
100
AcDbLine
 10
752.39544045
 20
-81.143206243
 30
0.0
 11
894.89544045
 21
-81.143206243
 31
0.0
  0
LINE
  5
548
100
AcDbEntity
  8
GEKO
  6
SOLID
 62
        7
100
AcDbLine
 10
949.89544045
 20
-91.143206243
 30
0.0
 11
997.39544045
 21
-81.143206243
 31
0.0
  0
LINE
  5
549
100
AcDbEntity
  8
GEKO
  6
SOLID
 62
        7
100
AcDbLine
 10
752.39544045
 20
-71.143206243
 30
0.0
 11
894.89544045
 21
-71.143206243
 31
0.0
  0
LINE
  5
54A
100
AcDbEntity
  8
GEKO
  6
SOLID
 62
        7
100
AcDbLine
 10
752.39544045
 20
-61.143206243
 30
0.0
 11
752.39544045
 21
-81.143206243
 31
0.0
  0
LINE
  5
54B
100
AcDbEntity
  8
GEKO
  6
SOLID
 62
        7
100
AcDbLine
 10
839.89544045
 20
-91.143206243
 30
0.0
 11
792.39544045
 21
-81.143206243
 31
0.0
  0
LINE
  5
54C
100
AcDbEntity
  8
GEKO
  6
SOLID
 62
        7
100
AcDbLine
 10
839.89544045
 20
-91.143206243
 30
0.0
 11
894.89544045
 21
-91.143206243
 31
0.0
  0
LINE
  5
54D
100
AcDbEntity
  8
GEKO
  6
SOLID
 62
        7
100
AcDbLine
 10
704.883804777
 20
238.856793757
 30
0.0
 11
894.89544045
 21
238.856793757
 31
0.0
  0
LINE
  5
54E
100
AcDbEntity
  8
GEKO
  6
SOLID
 62
        7
100
AcDbLine
 10
705.830558481
 20
256.856793757
 30
0.0
 11
894.89544045
 21
256.856793757
 31
0.0
  0
LINE
  5
54F
100
AcDbEntity
  8
GEKO
  6
SOLID
 62
        7
100
AcDbLine
 10
706.777312185
 20
274.856793757
 30
0.0
 11
894.89544045
 21
274.856793757
 31
0.0
  0
LINE
  5
550
100
AcDbEntity
  8
GEKO
  6
SOLID
 62
        7
100
AcDbLine
 10
919.89544045
 20
193.856793757
 30
0.0
 11
919.89544045
 21
168.856793757
 31
0.0
  0
LINE
  5
551
100
AcDbEntity
  8
GEKO
  6
SOLID
 62
        7
100
AcDbLine
 10
869.89544045
 20
193.856793757
 30
0.0
 11
869.89544045
 21
168.856793757
 31
0.0
  0
LINE
  5
552
100
AcDbEntity
  8
GEKO
  6
SOLID
 62
        7
100
AcDbLine
 10
1084.907076123
 20
238.856793757
 30
0.0
 11
894.89544045
 21
238.856793757
 31
0.0
  0
LINE
  5
553
100
AcDbEntity
  8
GEKO
  6
SOLID
 62
        7
100
AcDbLine
 10
1074.89544045
 20
193.856793757
 30
0.0
 11
894.89544045
 21
193.856793757
 31
0.0
  0
LINE
  5
554
100
AcDbEntity
  8
GEKO
  6
SOLID
 62
        7
100
AcDbLine
 10
1074.89544045
 20
283.856793757
 30
0.0
 11
894.89544045
 21
283.856793757
 31
0.0
  0
LINE
  5
555
100
AcDbEntity
  8
GEKO
  6
SOLID
 62
        7
100
AcDbLine
 10
1074.89544045
 20
283.856793757
 30
0.0
 11
1074.89544045
 21
193.856793757
 31
0.0
  0
LINE
  5
556
100
AcDbEntity
  8
GEKO
  6
SOLID
 62
        7
100
AcDbLine
 10
1104.12707519
 20
168.856793757
 30
0.0
 11
1104.12707519
 21
-91.143206243
 31
0.0
  0
LINE
  5
557
100
AcDbEntity
  8
GEKO
  6
SOLID
 62
        7
100
AcDbLine
 10
1038.370193986
 20
-56.143206243
 30
0.0
 11
1038.370193986
 21
-81.143206243
 31
0.0
  0
LINE
  5
558
100
AcDbEntity
  8
GEKO
  6
SOLID
 62
        7
100
AcDbLine
 10
1264.402514888
 20
183.252594794
 30
0.0
 11
1272.402514888
 21
186.252594794
 31
0.0
  0
LINE
  5
559
100
AcDbEntity
  8
GEKO
  6
SOLID
 62
        7
100
AcDbLine
 10
1264.402514888
 20
189.252594794
 30
0.0
 11
1272.402514888
 21
192.252594794
 31
0.0
  0
LINE
  5
55A
100
AcDbEntity
  8
GEKO
  6
SOLID
 62
        7
100
AcDbLine
 10
1264.402514888
 20
195.252594794
 30
0.0
 11
1272.402514888
 21
198.252594794
 31
0.0
  0
LINE
  5
55B
100
AcDbEntity
  8
GEKO
  6
SOLID
 62
        7
100
AcDbLine
 10
1264.402514888
 20
198.252594794
 30
0.0
 11
1272.402514888
 21
198.252594794
 31
0.0
  0
LWPOLYLINE
  5
55C
100
AcDbEntity
  8
GEKO
  6
SOLID
 62
        7
100
AcDbPolyline
 90
       57
 70
        0
 10
1307.901258291
 20
195.527487772
 10
1307.331691028
 20
196.286786356
 10
1306.759712587
 20
197.012421266
 10
1306.185460362
 20
197.704218202
 10
1305.609072291
 20
198.362010992
 10
1305.030686825
 20
198.985641629
 10
1304.450442895
 20
199.574960315
 10
1303.868479878
 20
200.129825493
 10
1303.284937565
 20
200.650103881
 10
1302.699956125
 20
201.135670506
 10
1302.113676074
 20
201.586408732
 10
1301.52623824
 20
202.00221029
 10
1300.937783727
 20
202.382975302
 10
1300.348453886
 20
202.728612306
 10
1299.758390276
 20
203.03903828
 10
1299.167734634
 20
203.314178656
 10
1298.576628837
 20
203.553967346
 10
1297.985214874
 20
203.758346749
 10
1297.393634803
 20
203.927267775
 10
1296.802030725
 20
204.060689846
 10
1296.210544747
 20
204.158580915
 10
1295.619318947
 20
204.220917467
 10
1295.028495339
 20
204.247684529
 10
1294.438215843
 20
204.238875671
 10
1293.848622246
 20
204.194493009
 10
1293.259856173
 20
204.114547204
 10
1292.672059046
 20
203.99905746
 10
1292.085372059
 20
203.848051517
 10
1291.499936136
 20
203.661565649
 10
1290.915891902
 20
203.439644649
 10
1290.333379647
 20
203.182341825
 10
1289.752539294
 20
202.889718981
 10
1289.173510363
 20
202.561846408
 10
1288.596431939
 20
202.198802862
 10
1288.02144264
 20
201.800675547
 10
1287.448680582
 20
201.367560096
 10
1286.878283343
 20
200.899560545
 10
1286.310387938
 20
200.396789311
 10
1285.745130776
 20
199.85936716
 10
1285.182647635
 20
199.287423186
 10
1284.623073627
 20
198.68109477
 10
1284.066543164
 20
198.040527557
 10
1283.513189928
 20
197.365875414
 10
1282.963146836
 20
196.657300396
 10
1282.416546012
 20
195.914972706
 10
1281.873518751
 20
195.139070654
 10
1281.334195492
 20
194.329780616
 10
1280.798705783
 20
193.487296987
 10
1280.267178251
 20
192.611822137
 10
1279.216519437
 20
190.76274782
 10
1278.183228485
 20
188.784334183
 10
1277.168298139
 20
186.678482011
 10
1276.172703508
 20
184.447214528
 10
1275.19740112
 20
182.09267545
 10
1274.243328008
 20
179.617126928
 10
1273.311400811
 20
177.022947377
 10
1272.402514888
 20
174.312629184
  0
LWPOLYLINE
  5
55D
100
AcDbEntity
  8
GEKO
  6
SOLID
 62
        7
100
AcDbPolyline
 90
       10
 70
        0
 10
1293.009071582
 20
194.849845015
 10
1291.499890108
 20
192.894234673
 10
1290.766393563
 20
191.901789161
 10
1290.058210049
 20
190.891775238
 10
1289.107344259
 20
189.419650839
 10
1288.218088095
 20
187.907596198
 10
1287.383972386
 20
186.362930899
 10
1286.598527961
 20
184.792974522
 10
1285.560560447
 20
182.550555642
 10
1284.579894823
 20
180.283735125
  0
LWPOLYLINE
  5
55E
100
AcDbEntity
  8
GEKO
  6
SOLID
 62
        7
100
AcDbPolyline
 90
        9
 70
        0
 10
1284.579894823
 20
180.283735124
 10
1283.926027068
 20
178.209203638
 10
1283.287129992
 20
176.05281145
 10
1282.664035184
 20
173.816411613
 10
1282.057503113
 20
171.501869518
 10
1281.468232435
 20
169.111064781
 10
1280.896867628
 20
166.645893131
 10
1280.34400529
 20
164.108268166
 10
1279.810199315
 20
161.500122929
  0
LINE
  5
55F
100
AcDbEntity
  8
GEKO
  6
SOLID
 62
        7
100
AcDbLine
 10
1279.402515126
 20
148.300122643
 30
0.0
 11
1279.402515126
 21
161.500122929
 31
0.0
  0
LINE
  5
560
100
AcDbEntity
  8
GEKO
  6
SOLID
 62
        7
100
AcDbLine
 10
1309.402514888
 20
-24.699877357
 30
0.0
 11
1234.402514888
 21
-24.699877357
 31
0.0
  0
LINE
  5
561
100
AcDbEntity
  8
GEKO
  6
SOLID
 62
        7
100
AcDbLine
 10
1234.402514888
 20
-24.699877357
 30
0.0
 11
1234.402514888
 21
111.300122643
 31
0.0
  0
LINE
  5
562
100
AcDbEntity
  8
GEKO
  6
SOLID
 62
        7
100
AcDbLine
 10
1309.402514888
 20
111.300122643
 30
0.0
 11
1234.402514888
 21
111.300122643
 31
0.0
  0
LINE
  5
563
100
AcDbEntity
  8
GEKO
  6
SOLID
 62
        7
100
AcDbLine
 10
1272.802514983
 20
148.300122643
 30
0.0
 11
1285.769318843
 21
148.300122643
 31
0.0
  0
LINE
  5
564
100
AcDbEntity
  8
GEKO
  6
SOLID
 62
        7
100
AcDbLine
 10
1285.769318843
 20
148.300122643
 30
0.0
 11
1285.769318843
 21
161.500122929
 31
0.0
  0
ARC
  5
565
100
AcDbEntity
  8
GEKO
  6
SOLID
 62
        7
100
AcDbCircle
 10
1285.769318843
 20
143.300122643
 30
0.0
 40
5.0
100
AcDbArc
 50
11.447556754
 51
90.0
  0
LINE
  5
566
100
AcDbEntity
  8
GEKO
  6
SOLID
 62
        7
100
AcDbLine
 10
1293.199545639
 20
131.800122285
 30
0.0
 11
1290.669852728
 21
144.292477237
 31
0.0
  0
LINE
  5
567
100
AcDbEntity
  8
GEKO
  6
SOLID
 62
        7
100
AcDbLine
 10
1277.902891289
 20
131.800122285
 30
0.0
 11
1309.31902096
 21
131.800122285
 31
0.0
  0
ARC
  5
568
100
AcDbEntity
  8
GEKO
  6
SOLID
 62
        7
100
AcDbCircle
 10
1277.902891289
 20
136.800122285
 30
0.0
 40
5.0
100
AcDbArc
 50
191.447556754
 51
270.0
  0
LWPOLYLINE
  5
569
100
AcDbEntity
  8
GEKO
  6
SOLID
 62
        7
100
AcDbPolyline
 90
       31
 70
        0
 10
1261.719821442
 20
128.856793754
 10
1260.741178938
 20
132.703361811
 10
1259.723588859
 20
136.393925584
 10
1259.200699554
 20
138.178833555
 10
1258.668694278
 20
139.922526022
 10
1258.127787806
 20
141.62429904
 10
1257.578198506
 20
143.283465591
 10
1257.020148252
 20
144.899355852
 10
1256.453862333
 20
146.471317476
 10
1255.879569366
 20
147.998715847
 10
1255.297501196
 20
149.480934342
 10
1254.707892811
 20
150.917374576
 10
1254.110982239
 20
152.307456644
 10
1253.507010458
 20
153.65061936
 10
1252.896221299
 20
154.946320476
 10
1252.278861341
 20
156.194036906
 10
1251.655179818
 20
157.393264937
 10
1251.025428516
 20
158.543520429
 10
1250.389861671
 20
159.644339015
 10
1249.748735867
 20
160.695276283
 10
1249.102309932
 20
161.695907962
 10
1248.450844834
 20
162.645830088
 10
1247.794603575
 20
163.544659168
 10
1247.133851086
 20
164.392032338
 10
1246.468854117
 20
165.187607506
 10
1245.799881135
 20
165.93106349
 10
1245.127202208
 20
166.622100152
 10
1244.451088905
 20
167.260438514
 10
1243.771814177
 20
167.845820872
 10
1243.089652254
 20
168.378010903
 10
1242.404878531
 20
168.856793757
  0
LINE
  5
56A
100
AcDbEntity
  8
GEKO
  6
SOLID
 62
        7
100
AcDbLine
 10
1273.002357404
 20
135.807767691
 30
0.0
 11
1272.402514888
 21
138.769963457
 31
0.0
  0
ARC
  5
56B
100
AcDbEntity
  8
GEKO
  6
SOLID
 62
        7
100
AcDbCircle
 10
1293.938116778
 20
156.500122929
 30
0.0
 40
5.0
100
AcDbArc
 50
11.447556754
 51
90.0
  0
LINE
  5
56C
100
AcDbEntity
  8
GEKO
  6
SOLID
 62
        7
100
AcDbLine
 10
1287.281294429
 20
161.500122929
 30
0.0
 11
1295.179078725
 21
166.414299824
 31
0.0
  0
LWPOLYLINE
  5
56D
100
AcDbEntity
  8
GEKO
  6
SOLID
 62
        7
100
AcDbPolyline
 90
       58
 70
        0
 10
1332.840276394
 20
195.853045912
 10
1332.243489377
 20
196.6270525
 10
1331.643496672
 20
197.362623725
 10
1331.040461946
 20
198.059558938
 10
1330.434549695
 20
198.717668028
 10
1329.825925199
 20
199.336771477
 10
1329.214754478
 20
199.916700405
 10
1328.601204249
 20
200.457296619
 10
1327.985441876
 20
200.958412655
 10
1327.367635326
 20
201.419911818
 10
1326.747953125
 20
201.841668222
 10
1326.126564309
 20
202.223566818
 10
1325.503638382
 20
202.565503433
 10
1324.879345265
 20
202.867384793
 10
1324.253855254
 20
203.12912855
 10
1323.627338968
 20
203.350663307
 10
1322.999967311
 20
203.531928633
 10
1322.371911415
 20
203.672875082
 10
1321.743342603
 20
203.773464207
 10
1321.114432335
 20
203.83366857
 10
1320.485352166
 20
203.853471747
 10
1319.856273696
 20
203.832868337
 10
1319.227368526
 20
203.77186396
 10
1318.598808208
 20
203.670475257
 10
1317.970764201
 20
203.528729884
 10
1317.343407823
 20
203.346666508
 10
1316.716910205
 20
203.12433479
 10
1316.091442243
 20
202.86179538
 10
1315.467174552
 20
202.559119891
 10
1314.844277419
 20
202.21639089
 10
1314.222920759
 20
201.833701864
 10
1313.603274066
 20
201.411157204
 10
1312.985506367
 20
200.948872172
 10
1312.369786177
 20
200.44697287
 10
1311.756281451
 20
199.905596207
 10
1311.145159543
 20
199.324889858
 10
1310.536587153
 20
198.70501223
 10
1309.930730289
 20
198.046132412
 10
1309.327754217
 20
197.348430134
 10
1308.727823415
 20
196.612095716
 10
1308.131101533
 20
195.837330014
 10
1307.537751346
 20
195.02434437
 10
1306.947934707
 20
194.17336055
 10
1306.361812507
 20
193.284610685
 10
1305.779544629
 20
192.358337209
 10
1305.201289902
 20
191.39479279
 10
1304.627206065
 20
190.394240266
 10
1304.057449715
 20
189.356952566
 10
1303.492176271
 20
188.283212642
 10
1302.931539928
 20
187.173313389
 10
1302.375693617
 20
186.027557566
 10
1301.278976237
 20
183.629736063
 10
1300.203220701
 20
181.092364266
 10
1299.149600708
 20
178.418210566
 10
1298.119265806
 20
175.61019259
 10
1297.113340139
 20
172.671374014
 10
1296.132921218
 20
169.604961226
 10
1295.179078725
 20
166.414299824
  0
LWPOLYLINE
  5
56E
100
AcDbEntity
  8
GEKO
  6
SOLID
 62
        7
100
AcDbPolyline
 90
       33
 70
        0
 10
1262.431068017
 20
-48.143208243
 10
1261.939713529
 20
-50.235072302
 10
1261.437151148
 20
-52.286272989
 10
1260.923603336
 20
-54.295902324
 10
1260.399297419
 20
-56.26307073
 10
1259.864465486
 20
-58.186907425
 10
1259.319344282
 20
-60.066560811
 10
1258.764175111
 20
-61.901198844
 10
1258.199203721
 20
-63.690009409
 10
1257.624680201
 20
-65.432200676
 10
1257.040858869
 20
-67.127001451
 10
1256.447998156
 20
-68.773661519
 10
1255.846360498
 20
-70.371451974
 10
1255.236212212
 20
-71.919665542
 10
1254.617823387
 20
-73.417616896
 10
1253.991467755
 20
-74.864642956
 10
1253.357422579
 20
-76.260103186
 10
1252.715968522
 20
-77.603379875
 10
1252.067389529
 20
-78.893878412
 10
1251.411972697
 20
-80.13102755
 10
1250.750008153
 20
-81.314279654
 10
1250.081788919
 20
-82.44311095
 10
1249.407610788
 20
-83.517021752
 10
1248.727772188
 20
-84.535536687
 10
1248.042574057
 20
-85.4982049
 10
1247.352319701
 20
-86.404600261
 10
1246.657314666
 20
-87.254321546
 10
1245.957866602
 20
-88.046992621
 10
1245.254285125
 20
-88.782262604
 10
1244.546881679
 20
-89.459806021
 10
1243.835969402
 20
-90.079322955
 10
1243.121862985
 20
-90.640539171
 10
1242.404878531
 20
-91.143206243
  0
ARC
  5
56F
100
AcDbEntity
  8
GEKO
  6
SOLID
 62
        7
100
AcDbCircle
 10
1300.816966474
 20
165.004970666
 30
0.0
 40
5.599999905
100
AcDbArc
 50
10.429059272
 51
165.423885011
  0
ARC
  5
570
100
AcDbEntity
  8
GEKO
  6
SOLID
 62
        7
100
AcDbCircle
 10
1297.633929062
 20
166.500122929
 30
0.0
 40
5.0
100
AcDbArc
 50
270.0
 51
301.890791802
  0
LINE
  5
571
100
AcDbEntity
  8
GEKO
  6
SOLID
 62
        7
100
AcDbLine
 10
1304.044625499
 20
131.783868682
 30
0.0
 11
1298.838650663
 21
157.492477523
 31
0.0
  0
ARC
  5
572
100
AcDbEntity
  8
GEKO
  6
SOLID
 62
        7
100
AcDbCircle
 10
1309.31902096
 20
136.800122285
 30
0.0
 40
5.0
100
AcDbArc
 50
270.0
 51
347.931962382
  0
LINE
  5
573
100
AcDbEntity
  8
GEKO
  6
SOLID
 62
        7
100
AcDbLine
 10
1313.061455696
 20
133.48437467
 30
0.0
 11
1306.456629795
 21
166.100914496
 31
0.0
  0
LWPOLYLINE
  5
574
100
AcDbEntity
  8
GEKO
  6
SOLID
 62
        7
100
AcDbPolyline
 90
       17
 70
        0
 10
1325.429464392
 20
167.240205844
 10
1324.665548227
 20
166.036975779
 10
1323.899576095
 20
164.721732384
 10
1323.134826312
 20
163.296375227
 10
1322.374117011
 20
161.762967229
 10
1321.61987843
 20
160.123669824
 10
1320.874217533
 20
158.380703022
 10
1320.138973352
 20
156.536322078
 10
1319.415763141
 20
154.592804924
 10
1318.706020281
 20
152.552446416
 10
1318.011025072
 20
150.417556715
 10
1317.331929627
 20
148.190462089
 10
1316.669777906
 20
145.873506983
 10
1316.025521834
 20
143.469056669
 10
1315.400034258
 20
140.979500024
 10
1314.794119367
 20
138.407252182
 10
1314.208521086
 20
135.754756903
  0
LWPOLYLINE
  5
575
100
AcDbEntity
  8
GEKO
  6
SOLID
 62
        7
100
AcDbPolyline
 90
       25
 70
        0
 10
1318.375666372
 20
193.771817917
 10
1319.10167962
 20
194.439061987
 10
1319.839994818
 20
195.090126229
 10
1320.602913917
 20
195.708830814
 10
1321.402738867
 20
196.278995914
 10
1321.841382517
 20
196.553806109
 10
1322.292634596
 20
196.809563825
 10
1322.755523855
 20
197.045076909
 10
1323.229079044
 20
197.259153211
 10
1323.712328914
 20
197.450600577
 10
1324.204302217
 20
197.618226857
 10
1324.704027702
 20
197.760839898
 10
1325.210534122
 20
197.877247549
 10
1325.656756311
 20
197.95657672
 10
1326.106271821
 20
198.015283379
 10
1326.557959283
 20
198.053563975
 10
1327.01069733
 20
198.071614958
 10
1327.914839706
 20
198.047813883
 10
1328.809728008
 20
197.945451751
 10
1329.358843002
 20
197.843183338
 10
1329.90165288
 20
197.714279695
 10
1330.438919831
 20
197.561960606
 10
1330.971406047
 20
197.389445856
 10
1332.02514951
 20
196.996980889
 10
1333.073971011
 20
196.583723667
  0
LWPOLYLINE
  5
576
100
AcDbEntity
  8
GEKO
  6
SOLID
 62
        7
100
AcDbPolyline
 90
       22
 70
        0
 10
1293.009071582
 20
194.849845015
 10
1293.73508483
 20
195.517089085
 10
1294.473400029
 20
196.168153327
 10
1295.236319128
 20
196.786857912
 10
1296.036144078
 20
197.357023012
 10
1296.474787728
 20
197.631833207
 10
1296.926039807
 20
197.887590922
 10
1297.388929065
 20
198.123104007
 10
1297.862484255
 20
198.337180308
 10
1298.345734125
 20
198.528627675
 10
1298.837707427
 20
198.696253954
 10
1299.337432913
 20
198.838866996
 10
1299.843939332
 20
198.955274646
 10
1300.290161522
 20
199.034603817
 10
1300.739677031
 20
199.093310476
 10
1301.191364493
 20
199.131591072
 10
1301.64410254
 20
199.149642055
 10
1302.548244917
 20
199.125840981
 10
1303.443133218
 20
199.023478848
 10
1303.958011234
 20
198.92843898
 10
1304.467308038
 20
198.809821928
 10
1305.471855335
 20
198.51325083
  0
LWPOLYLINE
  5
577
100
AcDbEntity
  8
GEKO
  6
SOLID
 62
        7
100
AcDbPolyline
 90
       81
 70
        0
 10
1314.492572602
 20
6.584802718
 10
1314.275333201
 20
11.952949834
 10
1314.095678859
 20
17.342068893
 10
1313.953742225
 20
22.748180881
 10
1313.849628094
 20
28.16729424
 10
1313.783413339
 20
33.59540781
 10
1313.755146849
 20
39.028513787
 10
1313.764849495
 20
44.462600681
 10
1313.812514112
 20
49.893656278
 10
1313.898105509
 20
55.317670602
 10
1314.021560488
 20
60.730638874
 10
1314.182787898
 20
66.128564474
 10
1314.381668698
 20
71.507461886
 10
1314.618056047
 20
76.863359645
 10
1314.891775408
 20
82.192303266
 10
1315.202624685
 20
87.490358167
 10
1315.550374363
 20
92.753612571
 10
1315.934767685
 20
97.978180398
 10
1316.355520837
 20
103.160204128
 10
1316.812323159
 20
108.295857657
 10
1317.304837375
 20
113.381349116
 10
1317.832699841
 20
118.412923673
 10
1318.395520813
 20
123.386866306
 10
1318.992884739
 20
128.299504544
 10
1319.624350558
 20
133.14721118
 10
1320.289452033
 20
137.926406948
 10
1320.987698092
 20
142.633563169
 10
1321.71857319
 20
147.26520435
 10
1322.481537691
 20
151.817910757
 10
1323.276028268
 20
156.288320936
 10
1324.101458313
 20
160.673134195
 10
1324.957218378
 20
164.969113042
 10
1325.842676619
 20
169.173085576
 10
1326.757179265
 20
173.281947828
 10
1327.700051099
 20
177.292666053
 10
1328.670595962
 20
181.202278968
 10
1329.668097257
 20
185.007899942
 10
1330.691818489
 20
188.706719125
 10
1331.741003801
 20
192.296005525
 10
1332.814878535
 20
195.773109021
 10
1333.912649805
 20
199.13546232
 10
1335.03350708
 20
202.380582857
 10
1336.176622784
 20
205.506074622
 10
1337.341152906
 20
208.509629935
 10
1338.526237626
 20
211.389031143
 10
1339.731001946
 20
214.142152265
 10
1340.954556336
 20
216.766960555
 10
1342.195997397
 20
219.261518007
 10
1343.454408519
 20
221.623982785
 10
1344.089687969
 20
222.75513148
 10
1344.728860566
 20
223.852610582
 10
1345.371808323
 20
224.916217504
 10
1346.018412555
 20
225.945755909
 10
1346.668553904
 20
226.941035751
 10
1347.322112356
 20
227.901873308
 10
1347.97896727
 20
228.828091214
 10
1348.638997394
 20
229.719518495
 10
1349.302080889
 20
230.5759906
 10
1349.968095356
 20
231.397349428
 10
1350.636917851
 20
232.183443362
 10
1351.308424913
 20
232.934127293
 10
1351.982492588
 20
233.64926265
 10
1352.658996445
 20
234.328717423
 10
1353.337811607
 20
234.972366188
 10
1354.018812767
 20
235.580090132
 10
1354.701874218
 20
236.151777073
 10
1355.386869871
 20
236.687321481
 10
1356.073673278
 20
237.186624497
 10
1356.762157661
 20
237.649593954
 10
1357.452195929
 20
238.076144389
 10
1358.143660706
 20
238.466197064
 10
1358.836424351
 20
238.819679978
 10
1359.530358983
 20
239.136527879
 10
1360.225336508
 20
239.41668228
 10
1360.921228636
 20
239.660091466
 10
1361.61790691
 20
239.866710505
 10
1362.315242726
 20
240.036501256
 10
1363.013107362
 20
240.169432378
 10
1363.711371995
 20
240.26547933
 10
1364.40990773
 20
240.324624385
 10
1365.108585622
 20
240.346856624
  0
LWPOLYLINE
  5
578
100
AcDbEntity
  8
GEKO
  6
SOLID
 62
        7
100
AcDbPolyline
 90
       65
 70
        0
 10
1350.580477634
 20
121.677326264
 10
1351.226289609
 20
119.991357581
 10
1351.858264984
 20
118.228854998
 10
1352.475796389
 20
116.391512399
 10
1353.078290334
 20
114.481095593
 10
1353.665167783
 20
112.499440618
 10
1354.235864707
 20
110.448451978
 10
1354.789832628
 20
108.33010081
 10
1355.326539146
 20
106.146422992
 10
1355.845468449
 20
103.899517184
 10
1356.346121812
 20
101.591542812
 10
1356.828018074
 20
99.224717996
 10
1357.2906941
 20
96.801317412
 10
1357.733705228
 20
94.323670111
 10
1358.156625693
 20
91.794157277
 10
1358.559049042
 20
89.215209942
 10
1358.940588517
 20
86.589306647
 10
1359.300877435
 20
83.91897106
 10
1359.639569534
 20
81.206769554
 10
1359.956339307
 20
78.455308735
 10
1360.250882319
 20
75.667232942
 10
1360.522915492
 20
72.845221702
 10
1360.772177385
 20
69.991987157
 10
1360.998428441
 20
67.110271457
 10
1361.201451218
 20
64.202844123
 10
1361.381050596
 20
61.272499387
 10
1361.537053969
 20
58.322053508
 10
1361.669311408
 20
55.354342061
 10
1361.777695803
 20
52.372217216
 10
1361.86210299
 20
49.378544994
 10
1361.922451849
 20
46.376202516
 10
1361.958684379
 20
43.368075233
 10
1361.970765759
 20
40.357054157
 10
1361.958684379
 20
37.346033081
 10
1361.922451849
 20
34.337905798
 10
1361.86210299
 20
31.335563319
 10
1361.777695803
 20
28.341891098
 10
1361.669311408
 20
25.359766253
 10
1361.537053969
 20
22.392054806
 10
1361.381050596
 20
19.441608927
 10
1361.201451218
 20
16.511264191
 10
1360.998428441
 20
13.603836857
 10
1360.772177385
 20
10.722121157
 10
1360.522915492
 20
7.868886612
 10
1360.250882319
 20
5.046875372
 10
1359.956339307
 20
2.258799578
 10
1359.639569534
 20
-0.49266124
 10
1359.300877435
 20
-3.204862747
 10
1358.940588517
 20
-5.875198333
 10
1358.559049042
 20
-8.501101628
 10
1358.156625693
 20
-11.080048964
 10
1357.733705228
 20
-13.609561797
 10
1357.2906941
 20
-16.087209099
 10
1356.828018074
 20
-18.510609683
 10
1356.346121812
 20
-20.877434499
 10
1355.845468449
 20
-23.18540887
 10
1355.326539146
 20
-25.432314678
 10
1354.789832628
 20
-27.615992496
 10
1354.235864707
 20
-29.734343664
 10
1353.665167783
 20
-31.785332304
 10
1353.078290334
 20
-33.766987279
 10
1352.475796389
 20
-35.677404085
 10
1351.858264984
 20
-37.514746684
 10
1351.226289609
 20
-39.277249267
 10
1350.580477634
 20
-40.96321795
  0
LWPOLYLINE
  5
579
100
AcDbEntity
  8
GEKO
  6
SOLID
 62
        7
100
AcDbPolyline
 90
       33
 70
        0
 10
1346.056944632
 20
72.905384725
 10
1346.508870292
 20
71.276571715
 10
1346.937060008
 20
69.571939864
 10
1347.340463801
 20
67.79566916
 10
1347.718092471
 20
65.952115261
 10
1348.06902002
 20
64.045798809
 10
1348.392385928
 20
62.08139435
 10
1348.687397257
 20
60.06371887
 10
1348.953330599
 20
57.997719981
 10
1349.189533851
 20
55.888463794
 10
1349.395427809
 20
53.741122489
 10
1349.570507593
 20
51.560961637
 10
1349.714343886
 20
49.353327289
 10
1349.826583979
 20
47.123632861
 10
1349.906952646
 20
44.877345868
 10
1349.955252812
 20
42.619974507
 10
1349.971366038
 20
40.35705416
 10
1349.955252812
 20
38.094133812
 10
1349.906952646
 20
35.836762452
 10
1349.826583979
 20
33.590475458
 10
1349.714343886
 20
31.360781031
 10
1349.570507594
 20
29.153146682
 10
1349.395427809
 20
26.972985831
 10
1349.189533851
 20
24.825644525
 10
1348.9533306
 20
22.716388338
 10
1348.687397258
 20
20.650389449
 10
1348.392385929
 20
18.632713969
 10
1348.069020021
 20
16.66830951
 10
1347.718092472
 20
14.761993058
 10
1347.340463802
 20
12.918439158
 10
1346.937060009
 20
11.142168454
 10
1346.508870293
 20
9.437536603
 10
1346.056944633
 20
7.808723592
  0
LWPOLYLINE
  5
57A
100
AcDbEntity
  8
GEKO
  6
SOLID
 62
        7
100
AcDbPolyline
 90
       23
 70
        0
 10
1318.375666372
 20
-107.171572631
 10
1319.10167962
 20
-107.838816702
 10
1319.839994818
 20
-108.489880944
 10
1320.602913917
 20
-109.108585529
 10
1321.402738867
 20
-109.678750629
 10
1321.841382517
 20
-109.953560823
 10
1322.292634596
 20
-110.209318539
 10
1322.755523855
 20
-110.444831624
 10
1323.229079044
 20
-110.658907925
 10
1323.712328914
 20
-110.850355292
 10
1324.204302217
 20
-111.017981571
 10
1324.704027702
 20
-111.160594613
 10
1325.210534122
 20
-111.277002263
 10
1325.656756311
 20
-111.356331434
 10
1326.106271821
 20
-111.415038093
 10
1326.557959283
 20
-111.453318689
 10
1327.01069733
 20
-111.471369672
 10
1327.914839706
 20
-111.447568598
 10
1328.809728008
 20
-111.345206465
 10
1329.483072666
 20
-111.21578925
 10
1330.14717286
 20
-111.047319866
 10
1330.803439645
 20
-110.845759163
 10
1331.453284079
 20
-110.617067989
  0
INSERT
  5
58B
100
AcDbEntity
  8
GEKO
100
AcDbBlockReference
  2
*D19
 10
0.0
 20
0.0
 30
0.0
  0
INSERT
  5
594
100
AcDbEntity
  8
0
100
AcDbBlockReference
  2
*H20
 10
0.0
 20
0.0
 30
0.0
  0
INSERT
  5
59D
100
AcDbEntity
  8
0
100
AcDbBlockReference
  2
*H21
 10
0.0
 20
0.0
 30
0.0
  0
INSERT
  5
5AC
100
AcDbEntity
  8
GEKO
100
AcDbBlockReference
  2
*D22
 10
0.0
 20
0.0
 30
0.0
  0
INSERT
  5
5BB
100
AcDbEntity
  8
GEKO
100
AcDbBlockReference
  2
*D23
 10
0.0
 20
0.0
 30
0.0
  0
INSERT
  5
5CC
100
AcDbEntity
  8
GEKO
100
AcDbBlockReference
  2
*D24
 10
0.0
 20
0.0
 30
0.0
  0
INSERT
  5
5DD
100
AcDbEntity
  8
GEKO
100
AcDbBlockReference
  2
*D25
 10
0.0
 20
0.0
 30
0.0
  0
ENDSEC
  0
SECTION
  2
OBJECTS
  0
DICTIONARY
  5
19
100
AcDbDictionary
280
        0
281
        1
  3
ACAD_GROUP
350
1A
  3
ACAD_MLINESTYLE
350
1B
  3
ACAD_LAYOUT
350
1E
  3
ACAD_PLOTSETTINGS
350
22
  3
ACAD_PLOTSTYLENAME
350
1F
  0
DICTIONARY
  5
1A
102
{ACAD_REACTORS
330
19
102
}
100
AcDbDictionary
280
        0
281
        1
  0
DICTIONARY
  5
1B
102
{ACAD_REACTORS
330
19
102
}
100
AcDbDictionary
280
        0
281
        1
  3
Standard
350
1C
  0
MLINESTYLE
  5
1C
102
{ACAD_REACTORS
330
1B
102
}
100
AcDbMlineStyle
  2
Standard
 70
        0
  3

 62
        0
 51
90.0
 52
90.0
 71
        2
 49
0.5
 62
      256
  6
BYLAYER
 49
-0.5
 62
      256
  6
BYLAYER
  0
ACDBDICTIONARYWDFLT
  5
1F
102
{ACAD_REACTORS
330
19
102
}
100
AcDbDictionary
281
        1
  3
Normal
350
1D
100
AcDbDictionaryWithDefault
340
1D
  0
ACDBPLACEHOLDER
  5
1D
102
{ACAD_REACTORS
330
1F
102
}
  0
LAYOUT
  5
20
102
{ACAD_REACTORS
330
1E
102
}
100
AcDbPlotSettings
  1

  2

  4

  6

 40
0.0
 41
0.0
 42
0.0
 43
0.0
 44
0.0
 45
0.0
 46
0.0
 47
0.0
 48
0.0
 49
0.0
140
0.0
141
0.0
142
1.0
143
1.0
 70
     1024
 72
        0
 73
        0
 74
        0
  7

 75
        0
147
1.0
148
0.0
149
0.0
100
AcDbLayout
  1
Model
 70
        0
 71
        0
 10
0.0
 20
0.0
 11
0.0
 21
0.0
 12
0.0
 22
0.0
 32
0.0
 14
0.0
 24
0.0
 34
0.0
 15
0.0
 25
0.0
 35
0.0
146
0.0
 13
0.0
 23
0.0
 33
0.0
 16
0.0
 26
0.0
 36
0.0
 17
0.0
 27
0.0
 37
0.0
 76
        0
330
A
331
0
345
0
346
0
  0
LAYOUT
  5
21
102
{ACAD_REACTORS
330
1E
102
}
100
AcDbPlotSettings
  1

  2

  4

  6

 40
0.0
 41
0.0
 42
0.0
 43
0.0
 44
0.0
 45
0.0
 46
0.0
 47
0.0
 48
0.0
 49
0.0
140
0.0
141
0.0
142
1.0
143
1.0
 70
        0
 72
        0
 73
        0
 74
        0
  7

 75
        0
147
1.0
148
0.0
149
0.0
100
AcDbLayout
  1
Layout1
 70
        0
 71
        0
 10
0.0
 20
0.0
 11
0.0
 21
0.0
 12
0.0
 22
0.0
 32
0.0
 14
0.0
 24
0.0
 34
0.0
 15
0.0
 25
0.0
 35
0.0
146
0.0
 13
0.0
 23
0.0
 33
0.0
 16
0.0
 26
0.0
 36
0.0
 17
0.0
 27
0.0
 37
0.0
 76
        0
330
B
331
0
345
0
346
0
  0
DICTIONARY
  5
1E
102
{ACAD_REACTORS
330
19
102
}
100
AcDbDictionary
280
        0
281
        1
  3
Layout1
350
21
  3
Model
350
20
  0
DICTIONARY
  5
22
102
{ACAD_REACTORS
330
19
102
}
100
AcDbDictionary
280
        0
281
        1
  0
ENDSEC
  0
EOF
