  0
SECTION
  2
HEADER
  9
$ACADVER
  1
AC1015
  9
$ACADMAINTVER
 70
        6
  9
$DWGCODEPAGE
  3
ANSI_1252
  9
$INSBASE
 10
0.0
 20
0.0
 30
0.0
  9
$EXTMIN
 10
1.000000000E+20
 20
1.000000000E+20
 30
1.000000000E+20
  9
$EXTMAX
 10
-1.000000000E+20
 20
-1.000000000E+20
 30
-1.000000000E+20
  9
$LIMMIN
 10
0.0
 20
0.0
  9
$LIMMAX
 10
0.0
 20
0.0
  9
$ORTHOMODE
 70
        0
  9
$REGENMODE
 70
        1
  9
$FILLMODE
 70
        1
  9
$QTEXTMODE
 70
        0
  9
$MIRRTEXT
 70
        1
  9
$LTSCALE
 40
1.0
  9
$ATTMODE
 70
        1
  9
$TEXTSIZE
 40
0.2
  9
$TRACEWID
 40
0.05
  9
$TEXTSTYLE
  7
Standard
  9
$CLAYER
  8
1
  9
$CELTYPE
  6
Continuous
  9
$CECOLOR
 62
      256
  9
$CELTSCALE
 40
1.0
  9
$DISPSILH
 70
        0
  9
$DIMSCALE
 40
1.0
  9
$DIMASZ
 40
0.18
  9
$DIMEXO
 40
0.0625
  9
$DIMDLI
 40
0.38
  9
$DIMRND
 40
0.0
  9
$DIMDLE
 40
0.0
  9
$DIMEXE
 40
0.18
  9
$DIMTP
 40
0.0
  9
$DIMTM
 40
0.0
  9
$DIMTXT
 40
0.18
  9
$DIMCEN
 40
0.09
  9
$DIMTSZ
 40
0.0
  9
$DIMTOL
 70
        0
  9
$DIMLIM
 70
        0
  9
$DIMTIH
 70
        1
  9
$DIMTOH
 70
        1
  9
$DIMSE1
 70
        0
  9
$DIMSE2
 70
        0
  9
$DIMTAD
 70
        0
  9
$DIMZIN
 70
        0
  9
$DIMBLK
  1

  9
$DIMASO
 70
        1
  9
$DIMSHO
 70
        1
  9
$DIMPOST
  1

  9
$DIMAPOST
  1

  9
$DIMALT
 70
        0
  9
$DIMALTD
 70
        2
  9
$DIMALTF
 40
25.4
  9
$DIMLFAC
 40
1.0
  9
$DIMTOFL
 70
        0
  9
$DIMTVP
 40
0.0
  9
$DIMTIX
 70
        0
  9
$DIMSOXD
 70
        0
  9
$DIMSAH
 70
        0
  9
$DIMBLK1
  1

  9
$DIMBLK2
  1

  9
$DIMSTYLE
  2
Standard
  9
$DIMCLRD
 70
        0
  9
$DIMCLRE
 70
        0
  9
$DIMCLRT
 70
        0
  9
$DIMTFAC
 40
1.0
  9
$DIMGAP
 40
0.09
  9
$DIMJUST
 70
        0
  9
$DIMSD1
 70
        0
  9
$DIMSD2
 70
        0
  9
$DIMTOLJ
 70
        1
  9
$DIMTZIN
 70
        0
  9
$DIMALTZ
 70
        0
  9
$DIMALTTZ
 70
        0
  9
$DIMUPT
 70
        0
  9
$DIMDEC
 70
        4
  9
$DIMTDEC
 70
        4
  9
$DIMALTU
 70
        2
  9
$DIMALTTD
 70
        2
  9
$DIMTXSTY
  7
Standard
  9
$DIMAUNIT
 70
        0
  9
$DIMADEC
 70
        0
  9
$DIMALTRND
 40
0.0
  9
$DIMAZIN
 70
        0
  9
$DIMDSEP
 70
        0
  9
$DIMATFIT
 70
        3
  9
$DIMFRAC
 70
        0
  9
$DIMLDRBLK
  1

  9
$DIMLUNIT
 70
        2
  9
$DIMLWD
 70
        0
  9
$DIMLWE
 70
        0
  9
$DIMTMOVE
 70
        0
  9
$LUNITS
 70
        2
  9
$LUPREC
 70
        4
  9
$SKETCHINC
 40
0.1
  9
$FILLETRAD
 40
0.0
  9
$AUNITS
 70
        0
  9
$AUPREC
 70
        0
  9
$MENU
  1
acad
  9
$ELEVATION
 40
0.0
  9
$PELEVATION
 40
0.0
  9
$THICKNESS
 40
0.0
  9
$LIMCHECK
 70
        0
  9
$CHAMFERA
 40
0.0
  9
$CHAMFERB
 40
0.0
  9
$CHAMFERC
 40
0.0
  9
$CHAMFERD
 40
0.0
  9
$SKPOLY
 70
        0
  9
$TDCREATE
 40
0.000000000
  9
$TDUCREATE
 40
0.000000000
  9
$TDUPDATE
 40
0.000000000
  9
$TDUUPDATE
 40
0.000000000
  9
$TDINDWG
 40
0.0000000000
  9
$TDUSRTIMER
 40
0.0000000000
  9
$USRTIMER
 70
        1
  9
$ANGBASE
 50
0.0
  9
$ANGDIR
 70
        0
  9
$PDMODE
 70
        2
  9
$PDSIZE
 40
-1.0
  9
$PLINEWID
 40
0.0
  9
$SPLFRAME
 70
        0
  9
$SPLINETYPE
 70
        6
  9
$SPLINESEGS
 70
        8
  9
$HANDSEED
  5
5ED
  9
$SURFTAB1
 70
        6
  9
$SURFTAB2
 70
        6
  9
$SURFTYPE
 70
        6
  9
$SURFU
 70
        6
  9
$SURFV
 70
        6
  9
$UCSBASE
  2

  9
$UCSNAME
  2

  9
$UCSORG
 10
0.0
 20
0.0
 30
0.0
  9
$UCSXDIR
 10
1.0
 20
0.0
 30
0.0
  9
$UCSYDIR
 10
0.0
 20
1.0
 30
0.0
  9
$UCSORTHOREF
  2

  9
$UCSORTHOVIEW
 70
        0
  9
$UCSORGTOP
 10
0.0
 20
0.0
 30
0.0
  9
$UCSORGBOTTOM
 10
0.0
 20
0.0
 30
0.0
  9
$UCSORGLEFT
 10
0.0
 20
0.0
 30
0.0
  9
$UCSORGRIGHT
 10
0.0
 20
0.0
 30
0.0
  9
$UCSORGFRONT
 10
0.0
 20
0.0
 30
0.0
  9
$UCSORGBACK
 10
0.0
 20
0.0
 30
0.0
  9
$PUCSBASE
  2

  9
$PUCSNAME
  2

  9
$PUCSORG
 10
0.0
 20
0.0
 30
0.0
  9
$PUCSXDIR
 10
1.0
 20
0.0
 30
0.0
  9
$PUCSYDIR
 10
0.0
 20
1.0
 30
0.0
  9
$PUCSORTHOREF
  2

  9
$PUCSORTHOVIEW
 70
        0
  9
$PUCSORGTOP
 10
0.0
 20
0.0
 30
0.0
  9
$PUCSORGBOTTOM
 10
0.0
 20
0.0
 30
0.0
  9
$PUCSORGLEFT
 10
0.0
 20
0.0
 30
0.0
  9
$PUCSORGRIGHT
 10
0.0
 20
0.0
 30
0.0
  9
$PUCSORGFRONT
 10
0.0
 20
0.0
 30
0.0
  9
$PUCSORGBACK
 10
0.0
 20
0.0
 30
0.0
  9
$USERI1
 70
        0
  9
$USERI2
 70
        0
  9
$USERI3
 70
        0
  9
$USERI4
 70
        0
  9
$USERI5
 70
        0
  9
$USERR1
 40
0.0
  9
$USERR2
 40
0.0
  9
$USERR3
 40
0.0
  9
$USERR4
 40
0.0
  9
$USERR5
 40
0.0
  9
$WORLDVIEW
 70
        1
  9
$SHADEDGE
 70
        3
  9
$SHADEDIF
 70
       70
  9
$TILEMODE
 70
        1
  9
$MAXACTVP
 70
       16
  9
$PINSBASE
 10
0.0
 20
0.0
 30
0.0
  9
$PLIMCHECK
 70
        0
  9
$PEXTMIN
 10
1.000000000E+20
 20
1.000000000E+20
 30
1.000000000E+20
  9
$PEXTMAX
 10
-1.000000000E+20
 20
-1.000000000E+20
 30
-1.000000000E+20
  9
$PLIMMIN
 10
0.0
 20
0.0
  9
$PLIMMAX
 10
12.0
 20
9.0
  9
$UNITMODE
 70
        0
  9
$VISRETAIN
 70
        0
  9
$PLINEGEN
 70
        1
  9
$PSLTSCALE
 70
        0
  9
$TREEDEPTH
 70
     3020
  9
$CMLSTYLE
  2
Standard
  9
$CMLJUST
 70
        0
  9
$CMLSCALE
 40
1.0
  9
$PROXYGRAPHICS
 70
        0
  9
$MEASUREMENT
 70
        1
  9
$CELWEIGHT
370
        0
  9
$ENDCAPS
280
        0
  9
$JOINSTYLE
280
        0
  9
$LWDISPLAY
290
        0
  9
$INSUNITS
 70
        0
  9
$HYPERLINKBASE
  1

  9
$XEDIT
290
        1
  9
$CEPSNTYPE
380
        0
  9
$PSTYLEMODE
290
        1
  9
$FINGERPRINTGUID
  2

  9
$VERSIONGUID
  2

  9
$EXTNAMES
290
        1
  9
$PSVPSCALE
 40
0.0
  0
ENDSEC
  0
SECTION
  2
CLASSES
  0
CLASS
  1
LWPOLYLINE
  2
AcDbPolyline
  3
AutoCAD 2000
 90
        0
280
        0
281
        1
  0
CLASS
  1
IMAGE
  2
AcDbRasterImage
  3
ISM
 90
    32895
280
        0
281
        1
  0
CLASS
  1
OLE2FRAME
  2
AcDbOle2Frame
  3
AutoCAD 2000
 90
    32768
280
        0
281
        1
  0
CLASS
  1
HATCH
  2
AcDbHatch
  3
AutoCAD 2000
 90
    32768
280
        0
281
        1
  0
CLASS
  1
DICTIONARYVAR
  2
AcDbDictionaryVar
  3
AutoCAD 2000
 90
    32768
280
        0
281
        0
  0
CLASS
  1
RASTERVARIABLES
  2
AcDbRasterVariables
  3
ISM
 90
    32768
280
        0
281
        0
  0
CLASS
  1
IMAGEDEF
  2
AcDbRasterImageDef
  3
ISM
 90
    32768
280
        0
281
        0
  0
CLASS
  1
IMAGEDEF_REACTOR
  2
AcDbRasterImageDefReactor
  3
ISM
 90
    32769
280
        0
281
        0
  0
CLASS
  1
IDBUFFER
  2
AcDbIdBuffer
  3
AutoCAD 2000
 90
    32768
280
        0
281
        0
  0
CLASS
  1
SPATIAL_FILTER
  2
AcDbSpatialFilter
  3
AutoCAD 2000
 90
    32768
280
        0
281
        0
  0
CLASS
  1
XRECORD
  2
AcDbXrecord
  3
AutoCAD 2000
 90
    32768
280
        0
281
        0
  0
CLASS
  1
SORTENTSTABLE
  2
AcDbSortentsTable
  3
AutoCAD 2000
 90
    32768
280
        0
281
        0
  0
CLASS
  1
LAYER_INDEX
  2
AcDbLayerIndex
  3
AutoCAD 2000
 90
    32768
280
        0
281
        0
  0
CLASS
  1
SPATIAL_INDEX
  2
AcDbSpatialIndex
  3
AutoCAD 2000
 90
    32768
280
        0
281
        0
  0
CLASS
  1
OBJECT_PTR
  2
CAseDLPNTableRecord
  3
"ASE-LPNTableRecord"
 90
    32769
280
        0
281
        0
  0
CLASS
  1
LAYOUT
  2
AcDbLayout
  3
AutoCAD 2000
 90
        0
280
        0
281
        0
  0
CLASS
  1
PLOTSETTINGS
  2
AcDbPlotSettings
  3
AutoCAD 2000
 90
    32768
280
        0
281
        0
  0
CLASS
  1
ACDBDICTIONARYWDFLT
  2
AcDbDictionaryWithDefault
  3
AutoCAD 2000
 90
        0
280
        0
281
        0
  0
CLASS
  1
ACDBPLACEHOLDER
  2
AcDbPlaceHolder
  3
AutoCAD 2000
 90
        0
280
        0
281
        0
  0
ENDSEC
  0
SECTION
  2
TABLES
  0
TABLE
  2
VPORT
  5
7
100
AcDbSymbolTable
 70
        1
  0
VPORT
  5
15
100
AcDbSymbolTableRecord
100
AcDbViewportTableRecord
  2
*ACTIVE
 70
        0
 10
0.0
 20
0.0
 11
1.0
 21
1.0
 12
6.591288
 22
4.579184
 13
0.0
 23
0.0
 14
1.0
 24
1.0
 15
0.0
 25
0.0
 16
0.0
 26
0.0
 36
1.0
 17
0.0
 27
0.0
 37
0.0
 40
9.158369
 41
0.688564
 42
50.0
 43
0.0
 44
0.0
 50
0.0
 51
0.0
 71
        0
 72
      100
 73
        1
 74
        1
 75
        0
 76
        0
 77
        0
 78
        0
281
        0
 65
        0
110
0.0
120
0.0
130
0.0
111
1.0
121
0.0
131
0.0
112
0.0
122
1.0
132
0.0
345
0
346
0
 79
        0
146
0.0
  0
ENDTAB
  0
TABLE
  2
LTYPE
  5
4
100
AcDbSymbolTable
 70
        6
  0
LTYPE
  5
11
100
AcDbSymbolTableRecord
100
AcDbLinetypeTableRecord
  2
ByBlock
 70
       64
  3

 72
       65
 73
        0
 40
0.0
  0
LTYPE
  5
12
100
AcDbSymbolTableRecord
100
AcDbLinetypeTableRecord
  2
ByLayer
 70
       64
  3

 72
       65
 73
        0
 40
0.0
  0
LTYPE
  5
13
100
AcDbSymbolTableRecord
100
AcDbLinetypeTableRecord
  2
Continuous
 70
       64
  3
Solid line
 72
       65
 73
        0
 40
0.0
  0
LTYPE
  5
55
100
AcDbSymbolTableRecord
100
AcDbLinetypeTableRecord
  2
SOLID
 70
       64
  3
Solid line
 72
       65
 73
        0
 40
0.0
  0
LTYPE
  5
59
100
AcDbSymbolTableRecord
100
AcDbLinetypeTableRecord
  2
L_DASH
 70
       64
  3
L_dash ____  ____  ____  ____  ____  ____
 72
       65
 73
        2
 40
8.0
 49
6.0
 74
        0
 49
-2.0
 74
        0
  0
LTYPE
  5
24D
100
AcDbSymbolTableRecord
100
AcDbLinetypeTableRecord
  2
CENTER
 70
       64
  3
Center ____ _ ____ _ ____ _ ____ _ ____ _ ____
 72
       65
 73
        4
 40
8.0
 49
4.5
 74
        0
 49
-1.5
 74
        0
 49
0.5
 74
        0
 49
-1.5
 74
        0
  0
ENDTAB
  0
TABLE
  2
LAYER
  5
2
100
AcDbSymbolTable
 70
       51
  0
LAYER
  5
14
100
AcDbSymbolTableRecord
100
AcDbLayerTableRecord
  2
0
 70
        0
 62
        7
  6
Continuous
290
        1
370
       -3
390
1D
  0
LAYER
  5
23
100
AcDbSymbolTableRecord
100
AcDbLayerTableRecord
  2
1
 70
        0
 62
        7
  6
Continuous
290
        1
370
       -3
390
1F
  0
LAYER
  5
24
100
AcDbSymbolTableRecord
100
AcDbLayerTableRecord
  2
2
 70
        0
 62
        7
  6
Continuous
290
        1
370
       -3
390
1F
  0
LAYER
  5
25
100
AcDbSymbolTableRecord
100
AcDbLayerTableRecord
  2
3
 70
        0
 62
        7
  6
Continuous
290
        1
370
       -3
390
1F
  0
LAYER
  5
26
100
AcDbSymbolTableRecord
100
AcDbLayerTableRecord
  2
4
 70
        0
 62
        7
  6
Continuous
290
        1
370
       -3
390
1F
  0
LAYER
  5
27
100
AcDbSymbolTableRecord
100
AcDbLayerTableRecord
  2
5
 70
        0
 62
        7
  6
Continuous
290
        1
370
       -3
390
1F
  0
LAYER
  5
28
100
AcDbSymbolTableRecord
100
AcDbLayerTableRecord
  2
6
 70
        0
 62
        7
  6
Continuous
290
        1
370
       -3
390
1F
  0
LAYER
  5
29
100
AcDbSymbolTableRecord
100
AcDbLayerTableRecord
  2
7
 70
        0
 62
        7
  6
Continuous
290
        1
370
       -3
390
1F
  0
LAYER
  5
2A
100
AcDbSymbolTableRecord
100
AcDbLayerTableRecord
  2
8
 70
        0
 62
        7
  6
Continuous
290
        1
370
       -3
390
1F
  0
LAYER
  5
2B
100
AcDbSymbolTableRecord
100
AcDbLayerTableRecord
  2
9
 70
        0
 62
        7
  6
Continuous
290
        1
370
       -3
390
1F
  0
LAYER
  5
2C
100
AcDbSymbolTableRecord
100
AcDbLayerTableRecord
  2
10
 70
        0
 62
        7
  6
Continuous
290
        1
370
       -3
390
1F
  0
LAYER
  5
2D
100
AcDbSymbolTableRecord
100
AcDbLayerTableRecord
  2
GEKO
 70
        0
 62
        7
  6
Continuous
290
        1
370
       -3
390
1F
  0
LAYER
  5
2E
100
AcDbSymbolTableRecord
100
AcDbLayerTableRecord
  2
LMDTUV
 70
        0
 62
        7
  6
Continuous
290
        1
370
       -3
390
1F
  0
LAYER
  5
2F
100
AcDbSymbolTableRecord
100
AcDbLayerTableRecord
  2
13
 70
        0
 62
        7
  6
Continuous
290
        1
370
       -3
390
1F
  0
LAYER
  5
30
100
AcDbSymbolTableRecord
100
AcDbLayerTableRecord
  2
14
 70
        0
 62
        7
  6
Continuous
290
        1
370
       -3
390
1F
  0
LAYER
  5
31
100
AcDbSymbolTableRecord
100
AcDbLayerTableRecord
  2
15
 70
        0
 62
        7
  6
Continuous
290
        1
370
       -3
390
1F
  0
LAYER
  5
32
100
AcDbSymbolTableRecord
100
AcDbLayerTableRecord
  2
16
 70
        0
 62
        7
  6
Continuous
290
        1
370
       -3
390
1F
  0
LAYER
  5
33
100
AcDbSymbolTableRecord
100
AcDbLayerTableRecord
  2
17
 70
        0
 62
        7
  6
Continuous
290
        1
370
       -3
390
1F
  0
LAYER
  5
34
100
AcDbSymbolTableRecord
100
AcDbLayerTableRecord
  2
18
 70
        0
 62
        7
  6
Continuous
290
        1
370
       -3
390
1F
  0
LAYER
  5
35
100
AcDbSymbolTableRecord
100
AcDbLayerTableRecord
  2
19
 70
        0
 62
        7
  6
Continuous
290
        1
370
       -3
390
1F
  0
LAYER
  5
36
100
AcDbSymbolTableRecord
100
AcDbLayerTableRecord
  2
20
 70
        0
 62
        7
  6
Continuous
290
        1
370
       -3
390
1F
  0
LAYER
  5
37
100
AcDbSymbolTableRecord
100
AcDbLayerTableRecord
  2
21
 70
        0
 62
        7
  6
Continuous
290
        1
370
       -3
390
1F
  0
LAYER
  5
38
100
AcDbSymbolTableRecord
100
AcDbLayerTableRecord
  2
22
 70
        0
 62
        7
  6
Continuous
290
        1
370
       -3
390
1F
  0
LAYER
  5
39
100
AcDbSymbolTableRecord
100
AcDbLayerTableRecord
  2
23
 70
        0
 62
        7
  6
Continuous
290
        1
370
       -3
390
1F
  0
LAYER
  5
3A
100
AcDbSymbolTableRecord
100
AcDbLayerTableRecord
  2
24
 70
        0
 62
        7
  6
Continuous
290
        1
370
       -3
390
1F
  0
LAYER
  5
3B
100
AcDbSymbolTableRecord
100
AcDbLayerTableRecord
  2
25
 70
        0
 62
        7
  6
Continuous
290
        1
370
       -3
390
1F
  0
LAYER
  5
3C
100
AcDbSymbolTableRecord
100
AcDbLayerTableRecord
  2
26
 70
        0
 62
        7
  6
Continuous
290
        1
370
       -3
390
1F
  0
LAYER
  5
3D
100
AcDbSymbolTableRecord
100
AcDbLayerTableRecord
  2
27
 70
        0
 62
        7
  6
Continuous
290
        1
370
       -3
390
1F
  0
LAYER
  5
3E
100
AcDbSymbolTableRecord
100
AcDbLayerTableRecord
  2
28
 70
        0
 62
        7
  6
Continuous
290
        1
370
       -3
390
1F
  0
LAYER
  5
3F
100
AcDbSymbolTableRecord
100
AcDbLayerTableRecord
  2
29
 70
        0
 62
        7
  6
Continuous
290
        1
370
       -3
390
1F
  0
LAYER
  5
40
100
AcDbSymbolTableRecord
100
AcDbLayerTableRecord
  2
30
 70
        0
 62
        7
  6
Continuous
290
        1
370
       -3
390
1F
  0
LAYER
  5
41
100
AcDbSymbolTableRecord
100
AcDbLayerTableRecord
  2
31
 70
        0
 62
        7
  6
Continuous
290
        1
370
       -3
390
1F
  0
LAYER
  5
42
100
AcDbSymbolTableRecord
100
AcDbLayerTableRecord
  2
32
 70
        0
 62
        7
  6
Continuous
290
        1
370
       -3
390
1F
  0
LAYER
  5
43
100
AcDbSymbolTableRecord
100
AcDbLayerTableRecord
  2
33
 70
        0
 62
        7
  6
Continuous
290
        1
370
       -3
390
1F
  0
LAYER
  5
44
100
AcDbSymbolTableRecord
100
AcDbLayerTableRecord
  2
34
 70
        0
 62
        7
  6
Continuous
290
        1
370
       -3
390
1F
  0
LAYER
  5
45
100
AcDbSymbolTableRecord
100
AcDbLayerTableRecord
  2
35
 70
        0
 62
        7
  6
Continuous
290
        1
370
       -3
390
1F
  0
LAYER
  5
46
100
AcDbSymbolTableRecord
100
AcDbLayerTableRecord
  2
36
 70
        0
 62
        7
  6
Continuous
290
        1
370
       -3
390
1F
  0
LAYER
  5
47
100
AcDbSymbolTableRecord
100
AcDbLayerTableRecord
  2
37
 70
        0
 62
        7
  6
Continuous
290
        1
370
       -3
390
1F
  0
LAYER
  5
48
100
AcDbSymbolTableRecord
100
AcDbLayerTableRecord
  2
38
 70
        0
 62
        7
  6
Continuous
290
        1
370
       -3
390
1F
  0
LAYER
  5
49
100
AcDbSymbolTableRecord
100
AcDbLayerTableRecord
  2
39
 70
        0
 62
        7
  6
Continuous
290
        1
370
       -3
390
1F
  0
LAYER
  5
4A
100
AcDbSymbolTableRecord
100
AcDbLayerTableRecord
  2
40
 70
        0
 62
        7
  6
Continuous
290
        1
370
       -3
390
1F
  0
LAYER
  5
4B
100
AcDbSymbolTableRecord
100
AcDbLayerTableRecord
  2
41
 70
        0
 62
        7
  6
Continuous
290
        1
370
       -3
390
1F
  0
LAYER
  5
4C
100
AcDbSymbolTableRecord
100
AcDbLayerTableRecord
  2
42
 70
        0
 62
        7
  6
Continuous
290
        1
370
       -3
390
1F
  0
LAYER
  5
4D
100
AcDbSymbolTableRecord
100
AcDbLayerTableRecord
  2
43
 70
        0
 62
        7
  6
Continuous
290
        1
370
       -3
390
1F
  0
LAYER
  5
4E
100
AcDbSymbolTableRecord
100
AcDbLayerTableRecord
  2
44
 70
        0
 62
        7
  6
Continuous
290
        1
370
       -3
390
1F
  0
LAYER
  5
4F
100
AcDbSymbolTableRecord
100
AcDbLayerTableRecord
  2
45
 70
        0
 62
        7
  6
Continuous
290
        1
370
       -3
390
1F
  0
LAYER
  5
50
100
AcDbSymbolTableRecord
100
AcDbLayerTableRecord
  2
46
 70
        0
 62
        7
  6
Continuous
290
        1
370
       -3
390
1F
  0
LAYER
  5
51
100
AcDbSymbolTableRecord
100
AcDbLayerTableRecord
  2
47
 70
        0
 62
        7
  6
Continuous
290
        1
370
       -3
390
1F
  0
LAYER
  5
52
100
AcDbSymbolTableRecord
100
AcDbLayerTableRecord
  2
48
 70
        0
 62
        7
  6
Continuous
290
        1
370
       -3
390
1F
  0
LAYER
  5
53
100
AcDbSymbolTableRecord
100
AcDbLayerTableRecord
  2
49
 70
        0
 62
        7
  6
Continuous
290
        1
370
       -3
390
1F
  0
LAYER
  5
54
100
AcDbSymbolTableRecord
100
AcDbLayerTableRecord
  2
50
 70
        0
 62
        7
  6
Continuous
290
        1
370
       -3
390
1F
  0
ENDTAB
  0
TABLE
  2
STYLE
  5
3
100
AcDbSymbolTable
 70
        1
  0
STYLE
  5
17
100
AcDbSymbolTableRecord
100
AcDbTextStyleTableRecord
  2
Standard
 70
        0
 40
0.0
 41
1.0
 50
0.0
 71
        0
 42
0.0
  3
txt
  4

  0
ENDTAB
  0
TABLE
  2
VIEW
  5
5
100
AcDbSymbolTable
 70
        0
  0
ENDTAB
  0
TABLE
  2
UCS
  5
6
100
AcDbSymbolTable
 70
        0
  0
ENDTAB
  0
TABLE
  2
APPID
  5
8
100
AcDbSymbolTable
 70
        1
  0
APPID
  5
16
100
AcDbSymbolTableRecord
100
AcDbRegAppTableRecord
  2
ACAD
 70
        0
  0
ENDTAB
  0
TABLE
  2
DIMSTYLE
  5
9
100
AcDbSymbolTable
 70
        1
100
AcDbDimStyleTable
 71
        0
  0
DIMSTYLE
105
18
100
AcDbSymbolTableRecord
100
AcDbDimStyleTableRecord
  2
Standard
 70
        0
  3

  4

 40
1.0
 41
0.18
 42
0.0625
 43
0.38
 44
0.18
 45
0.0
 46
0.0
 47
0.0
 48
0.0
 71
        0
 72
        0
 73
        1
 74
        1
 75
        0
 76
        0
 77
        0
 78
        0
 79
        0
140
0.18
141
0.09
142
0.0
143
25.4
144
1.0
145
0.0
146
1.0
147
0.09
148
0.0
170
        0
171
        2
172
        0
173
        0
174
        0
175
        0
176
        0
177
        0
178
        0
179
        0
271
        4
272
        4
273
        2
274
        2
275
        0
276
        0
277
        2
278
       46
279
        0
280
        0
281
        0
282
        0
283
        1
284
        0
285
        0
286
        0
288
        0
340
17
341
0
342
0
343
0
344
0
371
       -2
372
       -2
  0
ENDTAB
  0
TABLE
  2
BLOCK_RECORD
  5
1
100
AcDbSymbolTable
 70
       26
  0
BLOCK_RECORD
  5
A
100
AcDbSymbolTableRecord
100
AcDbBlockTableRecord
  2
*MODEL_SPACE
340
20
  0
BLOCK_RECORD
  5
B
100
AcDbSymbolTableRecord
100
AcDbBlockTableRecord
  2
*PAPER_SPACE
340
21
  0
BLOCK_RECORD
  5
65
100
AcDbSymbolTableRecord
100
AcDbBlockTableRecord
  2
*D0
340
0
102
{BLKREFS
331
74
102
}
  0
BLOCK_RECORD
  5
75
100
AcDbSymbolTableRecord
100
AcDbBlockTableRecord
  2
*D1
340
0
102
{BLKREFS
331
86
102
}
  0
BLOCK_RECORD
  5
87
100
AcDbSymbolTableRecord
100
AcDbBlockTableRecord
  2
*D2
340
0
102
{BLKREFS
331
95
102
}
  0
BLOCK_RECORD
  5
96
100
AcDbSymbolTableRecord
100
AcDbBlockTableRecord
  2
*D3
340
0
102
{BLKREFS
331
A6
102
}
  0
BLOCK_RECORD
  5
A7
100
AcDbSymbolTableRecord
100
AcDbBlockTableRecord
  2
*D4
340
0
102
{BLKREFS
331
B5
102
}
  0
BLOCK_RECORD
  5
33C
100
AcDbSymbolTableRecord
100
AcDbBlockTableRecord
  2
*D5
340
0
102
{BLKREFS
331
34A
102
}
  0
BLOCK_RECORD
  5
34B
100
AcDbSymbolTableRecord
100
AcDbBlockTableRecord
  2
*D6
340
0
102
{BLKREFS
331
359
102
}
  0
BLOCK_RECORD
  5
35C
100
AcDbSymbolTableRecord
100
AcDbBlockTableRecord
  2
*H7
340
0
102
{BLKREFS
331
364
102
}
  0
BLOCK_RECORD
  5
365
100
AcDbSymbolTableRecord
100
AcDbBlockTableRecord
  2
*H8
340
0
102
{BLKREFS
331
36D
102
}
  0
BLOCK_RECORD
  5
36E
100
AcDbSymbolTableRecord
100
AcDbBlockTableRecord
  2
*H9
340
0
102
{BLKREFS
331
376
102
}
  0
BLOCK_RECORD
  5
378
100
AcDbSymbolTableRecord
100
AcDbBlockTableRecord
  2
*D10
340
0
102
{BLKREFS
331
386
102
}
  0
BLOCK_RECORD
  5
387
100
AcDbSymbolTableRecord
100
AcDbBlockTableRecord
  2
*D11
340
0
102
{BLKREFS
331
397
102
}
  0
BLOCK_RECORD
  5
398
100
AcDbSymbolTableRecord
100
AcDbBlockTableRecord
  2
*D12
340
0
102
{BLKREFS
331
3A6
102
}
  0
BLOCK_RECORD
  5
3A7
100
AcDbSymbolTableRecord
100
AcDbBlockTableRecord
  2
*D13
340
0
102
{BLKREFS
331
3B7
102
}
  0
BLOCK_RECORD
  5
3BC
100
AcDbSymbolTableRecord
100
AcDbBlockTableRecord
  2
*D14
340
0
102
{BLKREFS
331
3CA
102
}
  0
BLOCK_RECORD
  5
4EC
100
AcDbSymbolTableRecord
100
AcDbBlockTableRecord
  2
*D15
340
0
102
{BLKREFS
331
4FA
102
}
  0
BLOCK_RECORD
  5
4FB
100
AcDbSymbolTableRecord
100
AcDbBlockTableRecord
  2
*H16
340
0
102
{BLKREFS
331
503
102
}
  0
BLOCK_RECORD
  5
504
100
AcDbSymbolTableRecord
100
AcDbBlockTableRecord
  2
*H17
340
0
102
{BLKREFS
331
50C
102
}
  0
BLOCK_RECORD
  5
50D
100
AcDbSymbolTableRecord
100
AcDbBlockTableRecord
  2
*D18
340
0
102
{BLKREFS
331
51B
102
}
  0
BLOCK_RECORD
  5
51C
100
AcDbSymbolTableRecord
100
AcDbBlockTableRecord
  2
*D19
340
0
102
{BLKREFS
331
52A
102
}
  0
BLOCK_RECORD
  5
52B
100
AcDbSymbolTableRecord
100
AcDbBlockTableRecord
  2
*D20
340
0
102
{BLKREFS
331
539
102
}
  0
BLOCK_RECORD
  5
53A
100
AcDbSymbolTableRecord
100
AcDbBlockTableRecord
  2
*D21
340
0
102
{BLKREFS
331
54A
102
}
  0
BLOCK_RECORD
  5
596
100
AcDbSymbolTableRecord
100
AcDbBlockTableRecord
  2
*D22
340
0
102
{BLKREFS
331
5A4
102
}
  0
BLOCK_RECORD
  5
5A6
100
AcDbSymbolTableRecord
100
AcDbBlockTableRecord
  2
*D23
340
0
102
{BLKREFS
331
5B6
102
}
  0
BLOCK_RECORD
  5
5C1
100
AcDbSymbolTableRecord
100
AcDbBlockTableRecord
  2
*D24
340
0
102
{BLKREFS
331
5CF
102
}
  0
BLOCK_RECORD
  5
5DC
100
AcDbSymbolTableRecord
100
AcDbBlockTableRecord
  2
*D25
340
0
102
{BLKREFS
331
5EC
102
}
  0
ENDTAB
  0
ENDSEC
  0
SECTION
  2
BLOCKS
  0
BLOCK
  5
D
100
AcDbEntity
  8
0
100
AcDbBlockBegin
  2
*MODEL_SPACE
 70
        0
 10
0.0
 20
0.0
 30
0.0
  3
*MODEL_SPACE
  1

  0
ENDBLK
  5
E
100
AcDbEntity
  8
0
100
AcDbBlockEnd
  0
BLOCK
  5
F
100
AcDbEntity
 67
        1
  8
0
100
AcDbBlockBegin
  2
*PAPER_SPACE
 70
        0
 10
0.0
 20
0.0
 30
0.0
  3
*PAPER_SPACE
  1

  0
ENDBLK
  5
10
100
AcDbEntity
 67
        1
  8
0
100
AcDbBlockEnd
  0
BLOCK
  5
66
100
AcDbEntity
  8
0
100
AcDbBlockBegin
  2
*D0
 70
        0
 10
0.0
 20
0.0
 30
0.0
  3
*D0
  1

  0
LINE
  5
67
100
AcDbEntity
  8
GEKO
  6
SOLID
 62
        7
100
AcDbLine
 10
457.149658203
 20
-1751.895751953
 30
0.0
 11
312.146728516
 21
-1751.895751953
 31
0.0
  0
LINE
  5
68
100
AcDbEntity
  8
GEKO
  6
SOLID
 62
        7
100
AcDbLine
 10
457.096923828
 20
-1351.895751953
 30
0.0
 11
312.146728516
 21
-1351.895751953
 31
0.0
  0
LINE
  5
69
100
AcDbEntity
  8
GEKO
  6
SOLID
 62
        7
100
AcDbLine
 10
313.146728516
 20
-1751.895751953
 30
0.0
 11
313.146728516
 21
-1351.895751953
 31
0.0
  0
LINE
  5
6A
100
AcDbEntity
  8
GEKO
  6
SOLID
 62
        7
100
AcDbLine
 10
308.147216797
 20
-1721.895751953
 30
0.0
 11
313.146728516
 21
-1751.895751953
 31
0.0
  0
LINE
  5
6B
100
AcDbEntity
  8
GEKO
  6
SOLID
 62
        7
100
AcDbLine
 10
313.146728516
 20
-1751.895751953
 30
0.0
 11
318.146240234
 21
-1721.895751953
 31
0.0
  0
LINE
  5
6C
100
AcDbEntity
  8
GEKO
  6
SOLID
 62
        7
100
AcDbLine
 10
318.146240234
 20
-1721.895751953
 30
0.0
 11
308.147216797
 21
-1721.895751953
 31
0.0
  0
LINE
  5
6D
100
AcDbEntity
  8
GEKO
  6
SOLID
 62
        7
100
AcDbLine
 10
313.146728516
 20
-1351.895751953
 30
0.0
 11
313.146728516
 21
-1751.895751953
 31
0.0
  0
LINE
  5
6E
100
AcDbEntity
  8
GEKO
  6
SOLID
 62
        7
100
AcDbLine
 10
318.146240234
 20
-1381.895751953
 30
0.0
 11
313.146728516
 21
-1351.895751953
 31
0.0
  0
LINE
  5
6F
100
AcDbEntity
  8
GEKO
  6
SOLID
 62
        7
100
AcDbLine
 10
313.146728516
 20
-1351.895751953
 30
0.0
 11
308.147216797
 21
-1381.895751953
 31
0.0
  0
LINE
  5
70
100
AcDbEntity
  8
GEKO
  6
SOLID
 62
        7
100
AcDbLine
 10
308.147216797
 20
-1381.895751953
 30
0.0
 11
318.146240234
 21
-1381.895751953
 31
0.0
  0
TEXT
  5
71
100
AcDbEntity
  8
GEKO
  6
SOLID
 62
        7
100
AcDbText
 10
298.146728516
 20
-1653.385009766
 30
0.0
 40
30.0
  1
%%c
 50
90.000002504
 72
        5
 11
298.146727641
 21
-1633.386548996
 31
0.0
100
AcDbText
  0
TEXT
  5
72
100
AcDbEntity
  8
GEKO
  6
SOLID
 62
        7
100
AcDbText
 10
298.146728516
 20
-1617.885009766
 30
0.0
 40
30.0
  1
382-400
 50
90.000002504
 72
        5
 11
298.146720802
 21
-1441.406555176
 31
0.0
100
AcDbText
  0
ENDBLK
  5
73
100
AcDbEntity
  8
0
100
AcDbBlockEnd
  0
BLOCK
  5
76
100
AcDbEntity
  8
0
100
AcDbBlockBegin
  2
*D1
 70
        0
 10
0.0
 20
0.0
 30
0.0
  3
*D1
  1

  0
LINE
  5
77
100
AcDbEntity
  8
GEKO
  6
SOLID
 62
        7
100
AcDbLine
 10
851.494018555
 20
-833.131103516
 30
0.0
 11
851.494018555
 21
-943.358154297
 31
0.0
  0
LINE
  5
78
100
AcDbEntity
  8
GEKO
  6
SOLID
 62
        7
100
AcDbLine
 10
869.494018555
 20
-833.131103516
 30
0.0
 11
869.494018555
 21
-943.358154297
 31
0.0
  0
LINE
  5
79
100
AcDbEntity
  8
GEKO
  6
SOLID
 62
        7
100
AcDbLine
 10
851.494018555
 20
-942.358154297
 30
0.0
 11
725.393554688
 21
-942.358154297
 31
0.0
  0
LINE
  5
7A
100
AcDbEntity
  8
GEKO
  6
SOLID
 62
        7
100
AcDbLine
 10
725.393554688
 20
-942.358154297
 30
0.0
 11
914.494018555
 21
-942.358154297
 31
0.0
  0
LINE
  5
7B
100
AcDbEntity
  8
GEKO
  6
SOLID
 62
        7
100
AcDbLine
 10
821.494018555
 20
-947.357666016
 30
0.0
 11
851.494018555
 21
-942.358154297
 31
0.0
  0
LINE
  5
7C
100
AcDbEntity
  8
GEKO
  6
SOLID
 62
        7
100
AcDbLine
 10
851.494018555
 20
-942.358154297
 30
0.0
 11
821.494018555
 21
-937.358642578
 31
0.0
  0
LINE
  5
7D
100
AcDbEntity
  8
GEKO
  6
SOLID
 62
        7
100
AcDbLine
 10
821.494018555
 20
-937.358642578
 30
0.0
 11
821.494018555
 21
-947.357666016
 31
0.0
  0
LINE
  5
7E
100
AcDbEntity
  8
GEKO
  6
SOLID
 62
        7
100
AcDbLine
 10
869.494018555
 20
-942.358154297
 30
0.0
 11
914.494018555
 21
-942.358154297
 31
0.0
  0
LINE
  5
7F
100
AcDbEntity
  8
GEKO
  6
SOLID
 62
        7
100
AcDbLine
 10
914.494018555
 20
-942.358154297
 30
0.0
 11
725.393554688
 21
-942.358154297
 31
0.0
  0
LINE
  5
80
100
AcDbEntity
  8
GEKO
  6
SOLID
 62
        7
100
AcDbLine
 10
899.494018555
 20
-937.358642578
 30
0.0
 11
869.494018555
 21
-942.358154297
 31
0.0
  0
LINE
  5
81
100
AcDbEntity
  8
GEKO
  6
SOLID
 62
        7
100
AcDbLine
 10
869.494018555
 20
-942.358154297
 30
0.0
 11
899.494018555
 21
-947.357666016
 31
0.0
  0
LINE
  5
82
100
AcDbEntity
  8
GEKO
  6
SOLID
 62
        7
100
AcDbLine
 10
899.494018555
 20
-947.357666016
 30
0.0
 11
899.494018555
 21
-937.358642578
 31
0.0
  0
TEXT
  5
83
100
AcDbEntity
  8
GEKO
  6
SOLID
 62
        7
100
AcDbText
 10
738.643554688
 20
-927.358154297
 30
0.0
 40
30.0
  1
M
 72
        5
 11
758.642015457
 21
-927.358154297
 31
0.0
100
AcDbText
  0
TEXT
  5
84
100
AcDbEntity
  8
GEKO
  6
SOLID
 62
        7
100
AcDbText
 10
774.143554688
 20
-927.358154297
 30
0.0
 40
30.0
  1
16
 72
        5
 11
820.638938904
 21
-927.358154297
 31
0.0
100
AcDbText
  0
ENDBLK
  5
85
100
AcDbEntity
  8
0
100
AcDbBlockEnd
  0
BLOCK
  5
88
100
AcDbEntity
  8
0
100
AcDbBlockBegin
  2
*D2
 70
        0
 10
0.0
 20
0.0
 30
0.0
  3
*D2
  1

  0
LINE
  5
89
100
AcDbEntity
  8
GEKO
  6
SOLID
 62
        7
100
AcDbLine
 10
1093.994018555
 20
-832.131103516
 30
0.0
 11
1385.233398438
 21
-832.131103516
 31
0.0
  0
LINE
  5
8A
100
AcDbEntity
  8
GEKO
  6
SOLID
 62
        7
100
AcDbLine
 10
509.529296875
 20
-274.407470703
 30
0.0
 11
1385.233398438
 21
-274.407470703
 31
0.0
  0
LINE
  5
8B
100
AcDbEntity
  8
GEKO
  6
SOLID
 62
        7
100
AcDbLine
 10
1384.233398438
 20
-832.131103516
 30
0.0
 11
1384.233398438
 21
-274.407470703
 31
0.0
  0
LINE
  5
8C
100
AcDbEntity
  8
GEKO
  6
SOLID
 62
        7
100
AcDbLine
 10
1379.233886719
 20
-802.131103516
 30
0.0
 11
1384.233398438
 21
-832.131103516
 31
0.0
  0
LINE
  5
8D
100
AcDbEntity
  8
GEKO
  6
SOLID
 62
        7
100
AcDbLine
 10
1384.233398438
 20
-832.131103516
 30
0.0
 11
1389.232910156
 21
-802.131103516
 31
0.0
  0
LINE
  5
8E
100
AcDbEntity
  8
GEKO
  6
SOLID
 62
        7
100
AcDbLine
 10
1389.232910156
 20
-802.131103516
 30
0.0
 11
1379.233886719
 21
-802.131103516
 31
0.0
  0
LINE
  5
8F
100
AcDbEntity
  8
GEKO
  6
SOLID
 62
        7
100
AcDbLine
 10
1384.233398438
 20
-274.407470703
 30
0.0
 11
1384.233398438
 21
-832.131103516
 31
0.0
  0
LINE
  5
90
100
AcDbEntity
  8
GEKO
  6
SOLID
 62
        7
100
AcDbLine
 10
1389.232910156
 20
-304.407470703
 30
0.0
 11
1384.233398438
 21
-274.407470703
 31
0.0
  0
LINE
  5
91
100
AcDbEntity
  8
GEKO
  6
SOLID
 62
        7
100
AcDbLine
 10
1384.233398438
 20
-274.407470703
 30
0.0
 11
1379.233886719
 21
-304.407470703
 31
0.0
  0
LINE
  5
92
100
AcDbEntity
  8
GEKO
  6
SOLID
 62
        7
100
AcDbLine
 10
1379.233886719
 20
-304.407470703
 30
0.0
 11
1389.232910156
 21
-304.407470703
 31
0.0
  0
TEXT
  5
93
100
AcDbEntity
  8
GEKO
  6
SOLID
 62
        7
100
AcDbText
 10
1369.233398438
 20
-588.514648438
 30
0.0
 40
30.0
  1
560
 50
90.000002504
 72
        5
 11
1369.233395356
 21
-518.023880005
 31
0.0
100
AcDbText
  0
ENDBLK
  5
94
100
AcDbEntity
  8
0
100
AcDbBlockEnd
  0
BLOCK
  5
97
100
AcDbEntity
  8
0
100
AcDbBlockBegin
  2
*D3
 70
        0
 10
0.0
 20
0.0
 30
0.0
  3
*D3
  1

  0
LINE
  5
98
100
AcDbEntity
  8
GEKO
  6
SOLID
 62
        7
100
AcDbLine
 10
522.590942383
 20
-887.874023438
 30
0.0
 11
1385.233398438
 21
-887.874023438
 31
0.0
  0
LINE
  5
99
100
AcDbEntity
  8
GEKO
  6
SOLID
 62
        7
100
AcDbLine
 10
1093.994018555
 20
-832.131103516
 30
0.0
 11
1385.233398438
 21
-832.131103516
 31
0.0
  0
LINE
  5
9A
100
AcDbEntity
  8
GEKO
  6
SOLID
 62
        7
100
AcDbLine
 10
1384.233398438
 20
-887.874023438
 30
0.0
 11
1384.233398438
 21
-972.48059082
 31
0.0
  0
LINE
  5
9B
100
AcDbEntity
  8
GEKO
  6
SOLID
 62
        7
100
AcDbLine
 10
1384.233398438
 20
-972.48059082
 30
0.0
 11
1384.233398438
 21
-787.131103516
 31
0.0
  0
LINE
  5
9C
100
AcDbEntity
  8
GEKO
  6
SOLID
 62
        7
100
AcDbLine
 10
1389.232910156
 20
-917.874023438
 30
0.0
 11
1384.233398438
 21
-887.874023438
 31
0.0
  0
LINE
  5
9D
100
AcDbEntity
  8
GEKO
  6
SOLID
 62
        7
100
AcDbLine
 10
1384.233398438
 20
-887.874023438
 30
0.0
 11
1379.233886719
 21
-917.874023438
 31
0.0
  0
LINE
  5
9E
100
AcDbEntity
  8
GEKO
  6
SOLID
 62
        7
100
AcDbLine
 10
1379.233886719
 20
-917.874023438
 30
0.0
 11
1389.232910156
 21
-917.874023438
 31
0.0
  0
LINE
  5
9F
100
AcDbEntity
  8
GEKO
  6
SOLID
 62
        7
100
AcDbLine
 10
1384.233398438
 20
-832.131103516
 30
0.0
 11
1384.233398438
 21
-787.131103516
 31
0.0
  0
LINE
  5
A0
100
AcDbEntity
  8
GEKO
  6
SOLID
 62
        7
100
AcDbLine
 10
1384.233398438
 20
-787.131103516
 30
0.0
 11
1384.233398438
 21
-972.48059082
 31
0.0
  0
LINE
  5
A1
100
AcDbEntity
  8
GEKO
  6
SOLID
 62
        7
100
AcDbLine
 10
1379.233886719
 20
-802.131103516
 30
0.0
 11
1384.233398438
 21
-832.131103516
 31
0.0
  0
LINE
  5
A2
100
AcDbEntity
  8
GEKO
  6
SOLID
 62
        7
100
AcDbLine
 10
1384.233398438
 20
-832.131103516
 30
0.0
 11
1389.232910156
 21
-802.131103516
 31
0.0
  0
LINE
  5
A3
100
AcDbEntity
  8
GEKO
  6
SOLID
 62
        7
100
AcDbLine
 10
1389.232910156
 20
-802.131103516
 30
0.0
 11
1379.233886719
 21
-802.131103516
 31
0.0
  0
TEXT
  5
A4
100
AcDbEntity
  8
GEKO
  6
SOLID
 62
        7
100
AcDbText
 10
1369.233398438
 20
-959.23059082
 30
0.0
 40
30.0
  1
55
 50
90.000002504
 72
        5
 11
1369.233396514
 21
-915.236743927
 31
0.0
100
AcDbText
  0
ENDBLK
  5
A5
100
AcDbEntity
  8
0
100
AcDbBlockEnd
  0
BLOCK
  5
A8
100
AcDbEntity
  8
0
100
AcDbBlockBegin
  2
*D4
 70
        0
 10
0.0
 20
0.0
 30
0.0
  3
*D4
  1

  0
LINE
  5
A9
100
AcDbEntity
  8
GEKO
  6
SOLID
 62
        7
100
AcDbLine
 10
838.69934082
 20
-833.131103516
 30
0.0
 11
838.69934082
 21
-1071.379882813
 31
0.0
  0
LINE
  5
AA
100
AcDbEntity
  8
GEKO
  6
SOLID
 62
        7
100
AcDbLine
 10
1092.994018555
 20
-833.131103516
 30
0.0
 11
1092.994018555
 21
-1071.379882813
 31
0.0
  0
LINE
  5
AB
100
AcDbEntity
  8
GEKO
  6
SOLID
 62
        7
100
AcDbLine
 10
838.69934082
 20
-1070.379882813
 30
0.0
 11
1092.994018555
 21
-1070.379882813
 31
0.0
  0
LINE
  5
AC
100
AcDbEntity
  8
GEKO
  6
SOLID
 62
        7
100
AcDbLine
 10
868.69934082
 20
-1065.380371094
 30
0.0
 11
838.69934082
 21
-1070.379882813
 31
0.0
  0
LINE
  5
AD
100
AcDbEntity
  8
GEKO
  6
SOLID
 62
        7
100
AcDbLine
 10
838.69934082
 20
-1070.379882813
 30
0.0
 11
868.69934082
 21
-1075.379394531
 31
0.0
  0
LINE
  5
AE
100
AcDbEntity
  8
GEKO
  6
SOLID
 62
        7
100
AcDbLine
 10
868.69934082
 20
-1075.379394531
 30
0.0
 11
868.69934082
 21
-1065.380371094
 31
0.0
  0
LINE
  5
AF
100
AcDbEntity
  8
GEKO
  6
SOLID
 62
        7
100
AcDbLine
 10
1092.994018555
 20
-1070.379882813
 30
0.0
 11
838.69934082
 21
-1070.379882813
 31
0.0
  0
LINE
  5
B0
100
AcDbEntity
  8
GEKO
  6
SOLID
 62
        7
100
AcDbLine
 10
1062.994018555
 20
-1075.379394531
 30
0.0
 11
1092.994018555
 21
-1070.379882813
 31
0.0
  0
LINE
  5
B1
100
AcDbEntity
  8
GEKO
  6
SOLID
 62
        7
100
AcDbLine
 10
1092.994018555
 20
-1070.379882813
 30
0.0
 11
1062.994018555
 21
-1065.380371094
 31
0.0
  0
LINE
  5
B2
100
AcDbEntity
  8
GEKO
  6
SOLID
 62
        7
100
AcDbLine
 10
1062.994018555
 20
-1065.380371094
 30
0.0
 11
1062.994018555
 21
-1075.379394531
 31
0.0
  0
TEXT
  5
B3
100
AcDbEntity
  8
GEKO
  6
SOLID
 62
        7
100
AcDbText
 10
930.601318359
 20
-1055.379882813
 30
0.0
 40
30.0
  1
260
 72
        5
 11
1001.092086792
 21
-1055.379882813
 31
0.0
100
AcDbText
  0
ENDBLK
  5
B4
100
AcDbEntity
  8
0
100
AcDbBlockEnd
  0
BLOCK
  5
33D
100
AcDbEntity
  8
0
100
AcDbBlockBegin
  2
*D5
 70
        0
 10
0.0
 20
0.0
 30
0.0
  3
*D5
  1

  0
LINE
  5
33E
100
AcDbEntity
  8
GEKO
  6
SOLID
 62
        7
100
AcDbLine
 10
860.494750977
 20
-838.850341797
 30
0.0
 11
860.494750977
 21
-999.061035156
 31
0.0
  0
LINE
  5
33F
100
AcDbEntity
  8
GEKO
  6
SOLID
 62
        7
100
AcDbLine
 10
1065.494750977
 20
-838.850341797
 30
0.0
 11
1065.494750977
 21
-999.061035156
 31
0.0
  0
LINE
  5
340
100
AcDbEntity
  8
GEKO
  6
SOLID
 62
        7
100
AcDbLine
 10
860.494750977
 20
-998.061035156
 30
0.0
 11
1065.494750977
 21
-998.061035156
 31
0.0
  0
LINE
  5
341
100
AcDbEntity
  8
GEKO
  6
SOLID
 62
        7
100
AcDbLine
 10
890.494750977
 20
-993.061523438
 30
0.0
 11
860.494750977
 21
-998.061035156
 31
0.0
  0
LINE
  5
342
100
AcDbEntity
  8
GEKO
  6
SOLID
 62
        7
100
AcDbLine
 10
860.494750977
 20
-998.061035156
 30
0.0
 11
890.494750977
 21
-1003.060546875
 31
0.0
  0
LINE
  5
343
100
AcDbEntity
  8
GEKO
  6
SOLID
 62
        7
100
AcDbLine
 10
890.494750977
 20
-1003.060546875
 30
0.0
 11
890.494750977
 21
-993.061523438
 31
0.0
  0
LINE
  5
344
100
AcDbEntity
  8
GEKO
  6
SOLID
 62
        7
100
AcDbLine
 10
1065.494750977
 20
-998.061035156
 30
0.0
 11
860.494750977
 21
-998.061035156
 31
0.0
  0
LINE
  5
345
100
AcDbEntity
  8
GEKO
  6
SOLID
 62
        7
100
AcDbLine
 10
1035.494750977
 20
-1003.060546875
 30
0.0
 11
1065.494750977
 21
-998.061035156
 31
0.0
  0
LINE
  5
346
100
AcDbEntity
  8
GEKO
  6
SOLID
 62
        7
100
AcDbLine
 10
1065.494750977
 20
-998.061035156
 30
0.0
 11
1035.494750977
 21
-993.061523438
 31
0.0
  0
LINE
  5
347
100
AcDbEntity
  8
GEKO
  6
SOLID
 62
        7
100
AcDbLine
 10
1035.494750977
 20
-993.061523438
 30
0.0
 11
1035.494750977
 21
-1003.060546875
 31
0.0
  0
TEXT
  5
348
100
AcDbEntity
  8
GEKO
  6
SOLID
 62
        7
100
AcDbText
 10
927.749389648
 20
-983.061035156
 30
0.0
 40
30.0
  1
205
 72
        5
 11
998.240158081
 21
-983.061035156
 31
0.0
100
AcDbText
  0
ENDBLK
  5
349
100
AcDbEntity
  8
0
100
AcDbBlockEnd
  0
BLOCK
  5
34C
100
AcDbEntity
  8
0
100
AcDbBlockBegin
  2
*D6
 70
        0
 10
0.0
 20
0.0
 30
0.0
  3
*D6
  1

  0
LINE
  5
34D
100
AcDbEntity
  8
GEKO
  6
SOLID
 62
        7
100
AcDbLine
 10
1129.713623047
 20
-799.631103516
 30
0.0
 11
1225.179199219
 21
-799.631103516
 31
0.0
  0
LINE
  5
34E
100
AcDbEntity
  8
GEKO
  6
SOLID
 62
        7
100
AcDbLine
 10
1129.713623047
 20
-594.630615234
 30
0.0
 11
1225.179199219
 21
-594.630615234
 31
0.0
  0
LINE
  5
34F
100
AcDbEntity
  8
GEKO
  6
SOLID
 62
        7
100
AcDbLine
 10
1224.179199219
 20
-799.631103516
 30
0.0
 11
1224.179199219
 21
-594.630615234
 31
0.0
  0
LINE
  5
350
100
AcDbEntity
  8
GEKO
  6
SOLID
 62
        7
100
AcDbLine
 10
1219.1796875
 20
-769.631103516
 30
0.0
 11
1224.179199219
 21
-799.631103516
 31
0.0
  0
LINE
  5
351
100
AcDbEntity
  8
GEKO
  6
SOLID
 62
        7
100
AcDbLine
 10
1224.179199219
 20
-799.631103516
 30
0.0
 11
1229.178710938
 21
-769.631103516
 31
0.0
  0
LINE
  5
352
100
AcDbEntity
  8
GEKO
  6
SOLID
 62
        7
100
AcDbLine
 10
1229.178710938
 20
-769.631103516
 30
0.0
 11
1219.1796875
 21
-769.631103516
 31
0.0
  0
LINE
  5
353
100
AcDbEntity
  8
GEKO
  6
SOLID
 62
        7
100
AcDbLine
 10
1224.179199219
 20
-594.630615234
 30
0.0
 11
1224.179199219
 21
-799.631103516
 31
0.0
  0
LINE
  5
354
100
AcDbEntity
  8
GEKO
  6
SOLID
 62
        7
100
AcDbLine
 10
1229.178710938
 20
-624.630615234
 30
0.0
 11
1224.179199219
 21
-594.630615234
 31
0.0
  0
LINE
  5
355
100
AcDbEntity
  8
GEKO
  6
SOLID
 62
        7
100
AcDbLine
 10
1224.179199219
 20
-594.630615234
 30
0.0
 11
1219.1796875
 21
-624.630615234
 31
0.0
  0
LINE
  5
356
100
AcDbEntity
  8
GEKO
  6
SOLID
 62
        7
100
AcDbLine
 10
1219.1796875
 20
-624.630615234
 30
0.0
 11
1229.178710938
 21
-624.630615234
 31
0.0
  0
TEXT
  5
357
100
AcDbEntity
  8
GEKO
  6
SOLID
 62
        7
100
AcDbText
 10
1209.179199219
 20
-732.376464844
 30
0.0
 40
30.0
  1
205
 50
90.000002504
 72
        5
 11
1209.179196138
 21
-661.885696411
 31
0.0
100
AcDbText
  0
ENDBLK
  5
358
100
AcDbEntity
  8
0
100
AcDbBlockEnd
  0
BLOCK
  5
35D
100
AcDbEntity
  8
0
100
AcDbBlockBegin
  2
*H7
 70
        0
 10
0.0
 20
0.0
 30
0.0
  3
*H7
  1

  0
LINE
  5
35E
100
AcDbEntity
  8
GEKO
  6
SOLID
 62
        7
100
AcDbLine
 10
1227.540405273
 20
-696.683837891
 30
0.0
 11
1224.603027344
 21
-693.746337891
 31
0.0
  0
LINE
  5
35F
100
AcDbEntity
  8
GEKO
  6
SOLID
 62
        7
100
AcDbLine
 10
1222.785644531
 20
-694.050048828
 30
0.0
 11
1227.265014648
 21
-698.530517578
 31
0.0
  0
LINE
  5
360
100
AcDbEntity
  8
GEKO
  6
SOLID
 62
        7
100
AcDbLine
 10
1226.357788086
 20
-699.744384766
 30
0.0
 11
1221.614746094
 21
-695.001220703
 31
0.0
  0
LINE
  5
361
100
AcDbEntity
  8
GEKO
  6
SOLID
 62
        7
100
AcDbLine
 10
1220.920410156
 20
-696.427978516
 30
0.0
 11
1224.981811523
 21
-700.489501953
 31
0.0
  0
LINE
  5
362
100
AcDbEntity
  8
GEKO
  6
SOLID
 62
        7
100
AcDbLine
 10
1222.204589844
 20
-699.833251953
 30
0.0
 11
1221.375488281
 21
-699.004150391
 31
0.0
  0
ENDBLK
  5
363
100
AcDbEntity
  8
0
100
AcDbBlockEnd
  0
BLOCK
  5
366
100
AcDbEntity
  8
0
100
AcDbBlockBegin
  2
*H8
 70
        0
 10
0.0
 20
0.0
 30
0.0
  3
*H8
  1

  0
LINE
  5
367
100
AcDbEntity
  8
GEKO
  6
SOLID
 62
        7
100
AcDbLine
 10
963.442993164
 20
-1073.348388672
 30
0.0
 11
966.380493164
 21
-1070.410888672
 31
0.0
  0
LINE
  5
368
100
AcDbEntity
  8
GEKO
  6
SOLID
 62
        7
100
AcDbLine
 10
966.075805664
 20
-1068.593505859
 30
0.0
 11
961.597290039
 21
-1073.072998047
 31
0.0
  0
LINE
  5
369
100
AcDbEntity
  8
GEKO
  6
SOLID
 62
        7
100
AcDbLine
 10
960.382446289
 20
-1072.165771484
 30
0.0
 11
965.125610352
 21
-1067.422607422
 31
0.0
  0
LINE
  5
36A
100
AcDbEntity
  8
GEKO
  6
SOLID
 62
        7
100
AcDbLine
 10
963.698852539
 20
-1066.728271484
 30
0.0
 11
959.636352539
 21
-1070.789794922
 31
0.0
  0
LINE
  5
36B
100
AcDbEntity
  8
GEKO
  6
SOLID
 62
        7
100
AcDbLine
 10
960.293579102
 20
-1068.012451172
 30
0.0
 11
961.122680664
 21
-1067.183349609
 31
0.0
  0
ENDBLK
  5
36C
100
AcDbEntity
  8
0
100
AcDbBlockEnd
  0
BLOCK
  5
36F
100
AcDbEntity
  8
0
100
AcDbBlockBegin
  2
*H9
 70
        0
 10
0.0
 20
0.0
 30
0.0
  3
*H9
  1

  0
LINE
  5
370
100
AcDbEntity
  8
GEKO
  6
SOLID
 62
        7
100
AcDbLine
 10
963.442993164
 20
-1001.248291016
 30
0.0
 11
966.380493164
 21
-998.310791016
 31
0.0
  0
LINE
  5
371
100
AcDbEntity
  8
GEKO
  6
SOLID
 62
        7
100
AcDbLine
 10
966.075805664
 20
-996.493408203
 30
0.0
 11
961.597290039
 21
-1000.972900391
 31
0.0
  0
LINE
  5
372
100
AcDbEntity
  8
GEKO
  6
SOLID
 62
        7
100
AcDbLine
 10
960.382446289
 20
-1000.065673828
 30
0.0
 11
965.125610352
 21
-995.322509766
 31
0.0
  0
LINE
  5
373
100
AcDbEntity
  8
GEKO
  6
SOLID
 62
        7
100
AcDbLine
 10
963.698852539
 20
-994.628173828
 30
0.0
 11
959.636352539
 21
-998.689697266
 31
0.0
  0
LINE
  5
374
100
AcDbEntity
  8
GEKO
  6
SOLID
 62
        7
100
AcDbLine
 10
960.293579102
 20
-995.912353516
 30
0.0
 11
961.122680664
 21
-995.083251953
 31
0.0
  0
ENDBLK
  5
375
100
AcDbEntity
  8
0
100
AcDbBlockEnd
  0
BLOCK
  5
379
100
AcDbEntity
  8
0
100
AcDbBlockBegin
  2
*D10
 70
        0
 10
0.0
 20
0.0
 30
0.0
  3
*D10
  1

  0
LINE
  5
37A
100
AcDbEntity
  8
GEKO
  6
SOLID
 62
        7
100
AcDbLine
 10
1292.389160156
 20
-697.131103516
 30
0.0
 11
1309.415527344
 21
-697.131103516
 31
0.0
  0
LINE
  5
37B
100
AcDbEntity
  8
GEKO
  6
SOLID
 62
        7
100
AcDbLine
 10
1127.994873047
 20
-567.130615234
 30
0.0
 11
1309.415527344
 21
-567.130615234
 31
0.0
  0
LINE
  5
37C
100
AcDbEntity
  8
GEKO
  6
SOLID
 62
        7
100
AcDbLine
 10
1304.415527344
 20
-697.131103516
 30
0.0
 11
1304.415527344
 21
-567.130615234
 31
0.0
  0
LINE
  5
37D
100
AcDbEntity
  8
GEKO
  6
SOLID
 62
        7
100
AcDbLine
 10
1299.416015625
 20
-667.131103516
 30
0.0
 11
1304.415527344
 21
-697.131103516
 31
0.0
  0
LINE
  5
37E
100
AcDbEntity
  8
GEKO
  6
SOLID
 62
        7
100
AcDbLine
 10
1304.415527344
 20
-697.131103516
 30
0.0
 11
1309.415039063
 21
-667.131103516
 31
0.0
  0
LINE
  5
37F
100
AcDbEntity
  8
GEKO
  6
SOLID
 62
        7
100
AcDbLine
 10
1309.415039063
 20
-667.131103516
 30
0.0
 11
1299.416015625
 21
-667.131103516
 31
0.0
  0
LINE
  5
380
100
AcDbEntity
  8
GEKO
  6
SOLID
 62
        7
100
AcDbLine
 10
1304.415527344
 20
-567.130615234
 30
0.0
 11
1304.415527344
 21
-697.131103516
 31
0.0
  0
LINE
  5
381
100
AcDbEntity
  8
GEKO
  6
SOLID
 62
        7
100
AcDbLine
 10
1309.415039063
 20
-597.130615234
 30
0.0
 11
1304.415527344
 21
-567.130615234
 31
0.0
  0
LINE
  5
382
100
AcDbEntity
  8
GEKO
  6
SOLID
 62
        7
100
AcDbLine
 10
1304.415527344
 20
-567.130615234
 30
0.0
 11
1299.416015625
 21
-597.130615234
 31
0.0
  0
LINE
  5
383
100
AcDbEntity
  8
GEKO
  6
SOLID
 62
        7
100
AcDbLine
 10
1299.416015625
 20
-597.130615234
 30
0.0
 11
1309.415039063
 21
-597.130615234
 31
0.0
  0
TEXT
  5
384
100
AcDbEntity
  8
GEKO
  6
SOLID
 62
        7
100
AcDbText
 10
1289.415527344
 20
-667.375976563
 30
0.0
 40
30.0
  1
130
 50
90.000002504
 72
        5
 11
1289.415524263
 21
-596.88520813
 31
0.0
100
AcDbText
  0
ENDBLK
  5
385
100
AcDbEntity
  8
0
100
AcDbBlockEnd
  0
BLOCK
  5
388
100
AcDbEntity
  8
0
100
AcDbBlockBegin
  2
*D11
 70
        0
 10
0.0
 20
0.0
 30
0.0
  3
*D11
  1

  0
LINE
  5
389
100
AcDbEntity
  8
GEKO
  6
SOLID
 62
        7
100
AcDbLine
 10
1124.892333984
 20
-567.130615234
 30
0.0
 11
1309.415527344
 21
-567.130615234
 31
0.0
  0
LINE
  5
38A
100
AcDbEntity
  8
GEKO
  6
SOLID
 62
        7
100
AcDbLine
 10
1097.994873047
 20
-477.111083984
 30
0.0
 11
1309.415527344
 21
-477.111083984
 31
0.0
  0
LINE
  5
38B
100
AcDbEntity
  8
GEKO
  6
SOLID
 62
        7
100
AcDbLine
 10
1304.415527344
 20
-567.130615234
 30
0.0
 11
1304.415527344
 21
-612.130615234
 31
0.0
  0
LINE
  5
38C
100
AcDbEntity
  8
GEKO
  6
SOLID
 62
        7
100
AcDbLine
 10
1304.415527344
 20
-612.130615234
 30
0.0
 11
1304.415527344
 21
-432.111083984
 31
0.0
  0
LINE
  5
38D
100
AcDbEntity
  8
GEKO
  6
SOLID
 62
        7
100
AcDbLine
 10
1309.415039063
 20
-597.130615234
 30
0.0
 11
1304.415527344
 21
-567.130615234
 31
0.0
  0
LINE
  5
38E
100
AcDbEntity
  8
GEKO
  6
SOLID
 62
        7
100
AcDbLine
 10
1304.415527344
 20
-567.130615234
 30
0.0
 11
1299.416015625
 21
-597.130615234
 31
0.0
  0
LINE
  5
38F
100
AcDbEntity
  8
GEKO
  6
SOLID
 62
        7
100
AcDbLine
 10
1299.416015625
 20
-597.130615234
 30
0.0
 11
1309.415039063
 21
-597.130615234
 31
0.0
  0
LINE
  5
390
100
AcDbEntity
  8
GEKO
  6
SOLID
 62
        7
100
AcDbLine
 10
1304.415527344
 20
-477.111083984
 30
0.0
 11
1304.415527344
 21
-432.111083984
 31
0.0
  0
LINE
  5
391
100
AcDbEntity
  8
GEKO
  6
SOLID
 62
        7
100
AcDbLine
 10
1304.415527344
 20
-432.111083984
 30
0.0
 11
1304.415527344
 21
-612.130615234
 31
0.0
  0
LINE
  5
392
100
AcDbEntity
  8
GEKO
  6
SOLID
 62
        7
100
AcDbLine
 10
1299.416015625
 20
-447.111083984
 30
0.0
 11
1304.415527344
 21
-477.111083984
 31
0.0
  0
LINE
  5
393
100
AcDbEntity
  8
GEKO
  6
SOLID
 62
        7
100
AcDbLine
 10
1304.415527344
 20
-477.111083984
 30
0.0
 11
1309.415039063
 21
-447.111083984
 31
0.0
  0
LINE
  5
394
100
AcDbEntity
  8
GEKO
  6
SOLID
 62
        7
100
AcDbLine
 10
1309.415039063
 20
-447.111083984
 30
0.0
 11
1299.416015625
 21
-447.111083984
 31
0.0
  0
TEXT
  5
395
100
AcDbEntity
  8
GEKO
  6
SOLID
 62
        7
100
AcDbText
 10
1289.415527344
 20
-544.117797852
 30
0.0
 40
30.0
  1
90
 50
90.000002504
 72
        5
 11
1289.415525421
 21
-500.123950958
 31
0.0
100
AcDbText
  0
ENDBLK
  5
396
100
AcDbEntity
  8
0
100
AcDbBlockEnd
  0
BLOCK
  5
399
100
AcDbEntity
  8
0
100
AcDbBlockBegin
  2
*D12
 70
        0
 10
0.0
 20
0.0
 30
0.0
  3
*D12
  1

  0
LINE
  5
39A
100
AcDbEntity
  8
GEKO
  6
SOLID
 62
        7
100
AcDbLine
 10
1097.995849609
 20
-832.131591797
 30
0.0
 11
1309.366699219
 21
-832.131591797
 31
0.0
  0
LINE
  5
39B
100
AcDbEntity
  8
GEKO
  6
SOLID
 62
        7
100
AcDbLine
 10
1292.390136719
 20
-697.131103516
 30
0.0
 11
1309.366699219
 21
-697.131103516
 31
0.0
  0
LINE
  5
39C
100
AcDbEntity
  8
GEKO
  6
SOLID
 62
        7
100
AcDbLine
 10
1304.366699219
 20
-832.131591797
 30
0.0
 11
1304.366699219
 21
-697.131103516
 31
0.0
  0
LINE
  5
39D
100
AcDbEntity
  8
GEKO
  6
SOLID
 62
        7
100
AcDbLine
 10
1299.3671875
 20
-802.131591797
 30
0.0
 11
1304.366699219
 21
-832.131591797
 31
0.0
  0
LINE
  5
39E
100
AcDbEntity
  8
GEKO
  6
SOLID
 62
        7
100
AcDbLine
 10
1304.366699219
 20
-832.131591797
 30
0.0
 11
1309.366210938
 21
-802.131591797
 31
0.0
  0
LINE
  5
39F
100
AcDbEntity
  8
GEKO
  6
SOLID
 62
        7
100
AcDbLine
 10
1309.366210938
 20
-802.131591797
 30
0.0
 11
1299.3671875
 21
-802.131591797
 31
0.0
  0
LINE
  5
3A0
100
AcDbEntity
  8
GEKO
  6
SOLID
 62
        7
100
AcDbLine
 10
1304.366699219
 20
-697.131103516
 30
0.0
 11
1304.366699219
 21
-832.131591797
 31
0.0
  0
LINE
  5
3A1
100
AcDbEntity
  8
GEKO
  6
SOLID
 62
        7
100
AcDbLine
 10
1309.366210938
 20
-727.131103516
 30
0.0
 11
1304.366699219
 21
-697.131103516
 31
0.0
  0
LINE
  5
3A2
100
AcDbEntity
  8
GEKO
  6
SOLID
 62
        7
100
AcDbLine
 10
1304.366699219
 20
-697.131103516
 30
0.0
 11
1299.3671875
 21
-727.131103516
 31
0.0
  0
LINE
  5
3A3
100
AcDbEntity
  8
GEKO
  6
SOLID
 62
        7
100
AcDbLine
 10
1299.3671875
 20
-727.131103516
 30
0.0
 11
1309.366210938
 21
-727.131103516
 31
0.0
  0
TEXT
  5
3A4
100
AcDbEntity
  8
GEKO
  6
SOLID
 62
        7
100
AcDbText
 10
1289.366699219
 20
-799.876464844
 30
0.0
 40
30.0
  1
135
 50
90.000002504
 72
        5
 11
1289.366696138
 21
-729.385696411
 31
0.0
100
AcDbText
  0
ENDBLK
  5
3A5
100
AcDbEntity
  8
0
100
AcDbBlockEnd
  0
BLOCK
  5
3A8
100
AcDbEntity
  8
0
100
AcDbBlockBegin
  2
*D13
 70
        0
 10
0.0
 20
0.0
 30
0.0
  3
*D13
  1

  0
LINE
  5
3A9
100
AcDbEntity
  8
GEKO
  6
SOLID
 62
        7
100
AcDbLine
 10
1075.995727539
 20
-512.111083984
 30
0.0
 11
1227.49206543
 21
-512.111083984
 31
0.0
  0
LINE
  5
3AA
100
AcDbEntity
  8
GEKO
  6
SOLID
 62
        7
100
AcDbLine
 10
1097.995849609
 20
-477.111083984
 30
0.0
 11
1227.49206543
 21
-477.111083984
 31
0.0
  0
LINE
  5
3AB
100
AcDbEntity
  8
GEKO
  6
SOLID
 62
        7
100
AcDbLine
 10
1222.49206543
 20
-512.111083984
 30
0.0
 11
1222.49206543
 21
-557.111083984
 31
0.0
  0
LINE
  5
3AC
100
AcDbEntity
  8
GEKO
  6
SOLID
 62
        7
100
AcDbLine
 10
1222.49206543
 20
-557.111083984
 30
0.0
 11
1222.49206543
 21
-394.832672119
 31
0.0
  0
LINE
  5
3AD
100
AcDbEntity
  8
GEKO
  6
SOLID
 62
        7
100
AcDbLine
 10
1227.491577148
 20
-542.111083984
 30
0.0
 11
1222.49206543
 21
-512.111083984
 31
0.0
  0
LINE
  5
3AE
100
AcDbEntity
  8
GEKO
  6
SOLID
 62
        7
100
AcDbLine
 10
1222.49206543
 20
-512.111083984
 30
0.0
 11
1217.492553711
 21
-542.111083984
 31
0.0
  0
LINE
  5
3AF
100
AcDbEntity
  8
GEKO
  6
SOLID
 62
        7
100
AcDbLine
 10
1217.492553711
 20
-542.111083984
 30
0.0
 11
1227.491577148
 21
-542.111083984
 31
0.0
  0
LINE
  5
3B0
100
AcDbEntity
  8
GEKO
  6
SOLID
 62
        7
100
AcDbLine
 10
1222.49206543
 20
-477.111083984
 30
0.0
 11
1222.49206543
 21
-394.832672119
 31
0.0
  0
LINE
  5
3B1
100
AcDbEntity
  8
GEKO
  6
SOLID
 62
        7
100
AcDbLine
 10
1222.49206543
 20
-394.832672119
 30
0.0
 11
1222.49206543
 21
-557.111083984
 31
0.0
  0
LINE
  5
3B2
100
AcDbEntity
  8
GEKO
  6
SOLID
 62
        7
100
AcDbLine
 10
1217.492553711
 20
-447.111083984
 30
0.0
 11
1222.49206543
 21
-477.111083984
 31
0.0
  0
LINE
  5
3B3
100
AcDbEntity
  8
GEKO
  6
SOLID
 62
        7
100
AcDbLine
 10
1222.49206543
 20
-477.111083984
 30
0.0
 11
1227.491577148
 21
-447.111083984
 31
0.0
  0
LINE
  5
3B4
100
AcDbEntity
  8
GEKO
  6
SOLID
 62
        7
100
AcDbLine
 10
1227.491577148
 20
-447.111083984
 30
0.0
 11
1217.492553711
 21
-447.111083984
 31
0.0
  0
TEXT
  5
3B5
100
AcDbEntity
  8
GEKO
  6
SOLID
 62
        7
100
AcDbText
 10
1207.49206543
 20
-452.076507568
 30
0.0
 40
30.0
  1
35
 50
90.000002504
 72
        5
 11
1207.492063507
 21
-408.082660675
 31
0.0
100
AcDbText
  0
ENDBLK
  5
3B6
100
AcDbEntity
  8
0
100
AcDbBlockEnd
  0
BLOCK
  5
3BD
100
AcDbEntity
  8
0
100
AcDbBlockBegin
  2
*D14
 70
        0
 10
0.0
 20
0.0
 30
0.0
  3
*D14
  1

  0
LINE
  5
3BE
100
AcDbEntity
  8
GEKO
  6
SOLID
 62
        7
100
AcDbLine
 10
962.994750977
 20
-1122.744873047
 30
0.0
 11
962.994750977
 21
-1144.984130859
 31
0.0
  0
LINE
  5
3BF
100
AcDbEntity
  8
GEKO
  6
SOLID
 62
        7
100
AcDbLine
 10
1122.994873047
 20
-832.131591797
 30
0.0
 11
1122.994873047
 21
-1144.984130859
 31
0.0
  0
LINE
  5
3C0
100
AcDbEntity
  8
GEKO
  6
SOLID
 62
        7
100
AcDbLine
 10
962.994750977
 20
-1139.984130859
 30
0.0
 11
1122.994873047
 21
-1139.984130859
 31
0.0
  0
LINE
  5
3C1
100
AcDbEntity
  8
GEKO
  6
SOLID
 62
        7
100
AcDbLine
 10
992.994750977
 20
-1134.984619141
 30
0.0
 11
962.994750977
 21
-1139.984130859
 31
0.0
  0
LINE
  5
3C2
100
AcDbEntity
  8
GEKO
  6
SOLID
 62
        7
100
AcDbLine
 10
962.994750977
 20
-1139.984130859
 30
0.0
 11
992.994750977
 21
-1144.983642578
 31
0.0
  0
LINE
  5
3C3
100
AcDbEntity
  8
GEKO
  6
SOLID
 62
        7
100
AcDbLine
 10
992.994750977
 20
-1144.983642578
 30
0.0
 11
992.994750977
 21
-1134.984619141
 31
0.0
  0
LINE
  5
3C4
100
AcDbEntity
  8
GEKO
  6
SOLID
 62
        7
100
AcDbLine
 10
1122.994873047
 20
-1139.984130859
 30
0.0
 11
962.994750977
 21
-1139.984130859
 31
0.0
  0
LINE
  5
3C5
100
AcDbEntity
  8
GEKO
  6
SOLID
 62
        7
100
AcDbLine
 10
1092.994873047
 20
-1144.983642578
 30
0.0
 11
1122.994873047
 21
-1139.984130859
 31
0.0
  0
LINE
  5
3C6
100
AcDbEntity
  8
GEKO
  6
SOLID
 62
        7
100
AcDbLine
 10
1122.994873047
 20
-1139.984130859
 30
0.0
 11
1092.994873047
 21
-1134.984619141
 31
0.0
  0
LINE
  5
3C7
100
AcDbEntity
  8
GEKO
  6
SOLID
 62
        7
100
AcDbLine
 10
1092.994873047
 20
-1134.984619141
 30
0.0
 11
1092.994873047
 21
-1144.983642578
 31
0.0
  0
TEXT
  5
3C8
100
AcDbEntity
  8
GEKO
  6
SOLID
 62
        7
100
AcDbText
 10
1007.749389648
 20
-1124.984130859
 30
0.0
 40
30.0
  1
160
 72
        5
 11
1078.240158081
 21
-1124.984130859
 31
0.0
100
AcDbText
  0
ENDBLK
  5
3C9
100
AcDbEntity
  8
0
100
AcDbBlockEnd
  0
BLOCK
  5
4ED
100
AcDbEntity
  8
0
100
AcDbBlockBegin
  2
*D15
 70
        0
 10
0.0
 20
0.0
 30
0.0
  3
*D15
  1

  0
LINE
  5
4EE
100
AcDbEntity
  8
GEKO
  6
SOLID
 62
        7
100
AcDbLine
 10
1241.522949219
 20
-1551.895996094
 30
0.0
 11
1300.816650391
 21
-1551.895996094
 31
0.0
  0
LINE
  5
4EF
100
AcDbEntity
  8
GEKO
  6
SOLID
 62
        7
100
AcDbLine
 10
1149.506469727
 20
-1351.895996094
 30
0.0
 11
1300.816650391
 21
-1351.895996094
 31
0.0
  0
LINE
  5
4F0
100
AcDbEntity
  8
GEKO
  6
SOLID
 62
        7
100
AcDbLine
 10
1295.816650391
 20
-1551.895996094
 30
0.0
 11
1295.816650391
 21
-1351.895996094
 31
0.0
  0
LINE
  5
4F1
100
AcDbEntity
  8
GEKO
  6
SOLID
 62
        7
100
AcDbLine
 10
1290.817138672
 20
-1521.895996094
 30
0.0
 11
1295.816650391
 21
-1551.895996094
 31
0.0
  0
LINE
  5
4F2
100
AcDbEntity
  8
GEKO
  6
SOLID
 62
        7
100
AcDbLine
 10
1295.816650391
 20
-1551.895996094
 30
0.0
 11
1300.816162109
 21
-1521.895996094
 31
0.0
  0
LINE
  5
4F3
100
AcDbEntity
  8
GEKO
  6
SOLID
 62
        7
100
AcDbLine
 10
1300.816162109
 20
-1521.895996094
 30
0.0
 11
1290.817138672
 21
-1521.895996094
 31
0.0
  0
LINE
  5
4F4
100
AcDbEntity
  8
GEKO
  6
SOLID
 62
        7
100
AcDbLine
 10
1295.816650391
 20
-1351.895996094
 30
0.0
 11
1295.816650391
 21
-1551.895996094
 31
0.0
  0
LINE
  5
4F5
100
AcDbEntity
  8
GEKO
  6
SOLID
 62
        7
100
AcDbLine
 10
1300.816162109
 20
-1381.895996094
 30
0.0
 11
1295.816650391
 21
-1351.895996094
 31
0.0
  0
LINE
  5
4F6
100
AcDbEntity
  8
GEKO
  6
SOLID
 62
        7
100
AcDbLine
 10
1295.816650391
 20
-1351.895996094
 30
0.0
 11
1290.817138672
 21
-1381.895996094
 31
0.0
  0
LINE
  5
4F7
100
AcDbEntity
  8
GEKO
  6
SOLID
 62
        7
100
AcDbLine
 10
1290.817138672
 20
-1381.895996094
 30
0.0
 11
1300.816162109
 21
-1381.895996094
 31
0.0
  0
TEXT
  5
4F8
100
AcDbEntity
  8
GEKO
  6
SOLID
 62
        7
100
AcDbText
 10
1280.816650391
 20
-1487.141357422
 30
0.0
 40
30.0
  1
200
 50
90.000002504
 72
        5
 11
1280.816647309
 21
-1416.650588989
 31
0.0
100
AcDbText
  0
ENDBLK
  5
4F9
100
AcDbEntity
  8
0
100
AcDbBlockEnd
  0
BLOCK
  5
4FC
100
AcDbEntity
  8
0
100
AcDbBlockBegin
  2
*H16
 70
        0
 10
0.0
 20
0.0
 30
0.0
  3
*H16
  1

  0
LINE
  5
4FD
100
AcDbEntity
  8
GEKO
  6
SOLID
 62
        7
100
AcDbLine
 10
1218.894775391
 20
-1551.448974609
 30
0.0
 11
1215.956298828
 21
-1548.511474609
 31
0.0
  0
LINE
  5
4FE
100
AcDbEntity
  8
GEKO
  6
SOLID
 62
        7
100
AcDbLine
 10
1214.138916016
 20
-1548.815185547
 30
0.0
 11
1218.619384766
 21
-1553.295654297
 31
0.0
  0
LINE
  5
4FF
100
AcDbEntity
  8
GEKO
  6
SOLID
 62
        7
100
AcDbLine
 10
1217.712158203
 20
-1554.509521484
 30
0.0
 11
1212.968994141
 21
-1549.766357422
 31
0.0
  0
LINE
  5
500
100
AcDbEntity
  8
GEKO
  6
SOLID
 62
        7
100
AcDbLine
 10
1212.273681641
 20
-1551.193115234
 30
0.0
 11
1216.336181641
 21
-1555.254638672
 31
0.0
  0
LINE
  5
501
100
AcDbEntity
  8
GEKO
  6
SOLID
 62
        7
100
AcDbLine
 10
1213.558837891
 20
-1554.598388672
 30
0.0
 11
1212.728759766
 21
-1553.769287109
 31
0.0
  0
ENDBLK
  5
502
100
AcDbEntity
  8
0
100
AcDbBlockEnd
  0
BLOCK
  5
505
100
AcDbEntity
  8
0
100
AcDbBlockBegin
  2
*H17
 70
        0
 10
0.0
 20
0.0
 30
0.0
  3
*H17
  1

  0
LINE
  5
506
100
AcDbEntity
  8
GEKO
  6
SOLID
 62
        7
100
AcDbLine
 10
1008.797119141
 20
-1551.448974609
 30
0.0
 11
1005.859619141
 21
-1548.511474609
 31
0.0
  0
LINE
  5
507
100
AcDbEntity
  8
GEKO
  6
SOLID
 62
        7
100
AcDbLine
 10
1004.043212891
 20
-1548.815185547
 30
0.0
 11
1008.521728516
 21
-1553.295654297
 31
0.0
  0
LINE
  5
508
100
AcDbEntity
  8
GEKO
  6
SOLID
 62
        7
100
AcDbLine
 10
1007.615478516
 20
-1554.509521484
 30
0.0
 11
1002.871337891
 21
-1549.766357422
 31
0.0
  0
LINE
  5
509
100
AcDbEntity
  8
GEKO
  6
SOLID
 62
        7
100
AcDbLine
 10
1002.177978516
 20
-1551.193115234
 30
0.0
 11
1006.239501953
 21
-1555.254638672
 31
0.0
  0
LINE
  5
50A
100
AcDbEntity
  8
GEKO
  6
SOLID
 62
        7
100
AcDbLine
 10
1003.461181641
 20
-1554.598388672
 30
0.0
 11
1002.633056641
 21
-1553.769287109
 31
0.0
  0
ENDBLK
  5
50B
100
AcDbEntity
  8
0
100
AcDbBlockEnd
  0
BLOCK
  5
50E
100
AcDbEntity
  8
0
100
AcDbBlockBegin
  2
*D18
 70
        0
 10
0.0
 20
0.0
 30
0.0
  3
*D18
  1

  0
LINE
  5
50F
100
AcDbEntity
  8
GEKO
  6
SOLID
 62
        7
100
AcDbLine
 10
1014.496337891
 20
-1681.897216797
 30
0.0
 11
1300.816650391
 21
-1681.897216797
 31
0.0
  0
LINE
  5
510
100
AcDbEntity
  8
GEKO
  6
SOLID
 62
        7
100
AcDbLine
 10
1247.635986328
 20
-1551.897216797
 30
0.0
 11
1300.816650391
 21
-1551.897216797
 31
0.0
  0
LINE
  5
511
100
AcDbEntity
  8
GEKO
  6
SOLID
 62
        7
100
AcDbLine
 10
1295.816650391
 20
-1681.897216797
 30
0.0
 11
1295.816650391
 21
-1551.897216797
 31
0.0
  0
LINE
  5
512
100
AcDbEntity
  8
GEKO
  6
SOLID
 62
        7
100
AcDbLine
 10
1290.817138672
 20
-1651.897216797
 30
0.0
 11
1295.816650391
 21
-1681.897216797
 31
0.0
  0
LINE
  5
513
100
AcDbEntity
  8
GEKO
  6
SOLID
 62
        7
100
AcDbLine
 10
1295.816650391
 20
-1681.897216797
 30
0.0
 11
1300.816162109
 21
-1651.897216797
 31
0.0
  0
LINE
  5
514
100
AcDbEntity
  8
GEKO
  6
SOLID
 62
        7
100
AcDbLine
 10
1300.816162109
 20
-1651.897216797
 30
0.0
 11
1290.817138672
 21
-1651.897216797
 31
0.0
  0
LINE
  5
515
100
AcDbEntity
  8
GEKO
  6
SOLID
 62
        7
100
AcDbLine
 10
1295.816650391
 20
-1551.897216797
 30
0.0
 11
1295.816650391
 21
-1681.897216797
 31
0.0
  0
LINE
  5
516
100
AcDbEntity
  8
GEKO
  6
SOLID
 62
        7
100
AcDbLine
 10
1300.816162109
 20
-1581.897216797
 30
0.0
 11
1295.816650391
 21
-1551.897216797
 31
0.0
  0
LINE
  5
517
100
AcDbEntity
  8
GEKO
  6
SOLID
 62
        7
100
AcDbLine
 10
1295.816650391
 20
-1551.897216797
 30
0.0
 11
1290.817138672
 21
-1581.897216797
 31
0.0
  0
LINE
  5
518
100
AcDbEntity
  8
GEKO
  6
SOLID
 62
        7
100
AcDbLine
 10
1290.817138672
 20
-1581.897216797
 30
0.0
 11
1300.816162109
 21
-1581.897216797
 31
0.0
  0
TEXT
  5
519
100
AcDbEntity
  8
GEKO
  6
SOLID
 62
        7
100
AcDbText
 10
1280.816650391
 20
-1652.142578125
 30
0.0
 40
30.0
  1
130
 50
90.000002504
 72
        5
 11
1280.816647309
 21
-1581.651809692
 31
0.0
100
AcDbText
  0
ENDBLK
  5
51A
100
AcDbEntity
  8
0
100
AcDbBlockEnd
  0
BLOCK
  5
51D
100
AcDbEntity
  8
0
100
AcDbBlockBegin
  2
*D19
 70
        0
 10
0.0
 20
0.0
 30
0.0
  3
*D19
  1

  0
LINE
  5
51E
100
AcDbEntity
  8
GEKO
  6
SOLID
 62
        7
100
AcDbLine
 10
1072.019775391
 20
-1626.897216797
 30
0.0
 11
1220.679931641
 21
-1626.897216797
 31
0.0
  0
LINE
  5
51F
100
AcDbEntity
  8
GEKO
  6
SOLID
 62
        7
100
AcDbLine
 10
1072.019775391
 20
-1476.897216797
 30
0.0
 11
1220.679931641
 21
-1476.897216797
 31
0.0
  0
LINE
  5
520
100
AcDbEntity
  8
GEKO
  6
SOLID
 62
        7
100
AcDbLine
 10
1215.679931641
 20
-1626.897216797
 30
0.0
 11
1215.679931641
 21
-1476.897216797
 31
0.0
  0
LINE
  5
521
100
AcDbEntity
  8
GEKO
  6
SOLID
 62
        7
100
AcDbLine
 10
1210.680419922
 20
-1596.897216797
 30
0.0
 11
1215.679931641
 21
-1626.897216797
 31
0.0
  0
LINE
  5
522
100
AcDbEntity
  8
GEKO
  6
SOLID
 62
        7
100
AcDbLine
 10
1215.679931641
 20
-1626.897216797
 30
0.0
 11
1220.679443359
 21
-1596.897216797
 31
0.0
  0
LINE
  5
523
100
AcDbEntity
  8
GEKO
  6
SOLID
 62
        7
100
AcDbLine
 10
1220.679443359
 20
-1596.897216797
 30
0.0
 11
1210.680419922
 21
-1596.897216797
 31
0.0
  0
LINE
  5
524
100
AcDbEntity
  8
GEKO
  6
SOLID
 62
        7
100
AcDbLine
 10
1215.679931641
 20
-1476.897216797
 30
0.0
 11
1215.679931641
 21
-1626.897216797
 31
0.0
  0
LINE
  5
525
100
AcDbEntity
  8
GEKO
  6
SOLID
 62
        7
100
AcDbLine
 10
1220.679443359
 20
-1506.897216797
 30
0.0
 11
1215.679931641
 21
-1476.897216797
 31
0.0
  0
LINE
  5
526
100
AcDbEntity
  8
GEKO
  6
SOLID
 62
        7
100
AcDbLine
 10
1215.679931641
 20
-1476.897216797
 30
0.0
 11
1210.680419922
 21
-1506.897216797
 31
0.0
  0
LINE
  5
527
100
AcDbEntity
  8
GEKO
  6
SOLID
 62
        7
100
AcDbLine
 10
1210.680419922
 20
-1506.897216797
 30
0.0
 11
1220.679443359
 21
-1506.897216797
 31
0.0
  0
TEXT
  5
528
100
AcDbEntity
  8
GEKO
  6
SOLID
 62
        7
100
AcDbText
 10
1200.679931641
 20
-1587.142578125
 30
0.0
 40
30.0
  1
150
 50
90.000002504
 72
        5
 11
1200.679928559
 21
-1516.651809692
 31
0.0
100
AcDbText
  0
ENDBLK
  5
529
100
AcDbEntity
  8
0
100
AcDbBlockEnd
  0
BLOCK
  5
52C
100
AcDbEntity
  8
0
100
AcDbBlockBegin
  2
*D20
 70
        0
 10
0.0
 20
0.0
 30
0.0
  3
*D20
  1

  0
LINE
  5
52D
100
AcDbEntity
  8
GEKO
  6
SOLID
 62
        7
100
AcDbLine
 10
1104.495361328
 20
-1646.897216797
 30
0.0
 11
1000.573486328
 21
-1646.897216797
 31
0.0
  0
LINE
  5
52E
100
AcDbEntity
  8
GEKO
  6
SOLID
 62
        7
100
AcDbLine
 10
1104.495361328
 20
-1456.897216797
 30
0.0
 11
1000.573486328
 21
-1456.897216797
 31
0.0
  0
LINE
  5
52F
100
AcDbEntity
  8
GEKO
  6
SOLID
 62
        7
100
AcDbLine
 10
1005.573486328
 20
-1646.897216797
 30
0.0
 11
1005.573486328
 21
-1456.897216797
 31
0.0
  0
LINE
  5
530
100
AcDbEntity
  8
GEKO
  6
SOLID
 62
        7
100
AcDbLine
 10
1000.573974609
 20
-1616.897216797
 30
0.0
 11
1005.573486328
 21
-1646.897216797
 31
0.0
  0
LINE
  5
531
100
AcDbEntity
  8
GEKO
  6
SOLID
 62
        7
100
AcDbLine
 10
1005.573486328
 20
-1646.897216797
 30
0.0
 11
1010.572998047
 21
-1616.897216797
 31
0.0
  0
LINE
  5
532
100
AcDbEntity
  8
GEKO
  6
SOLID
 62
        7
100
AcDbLine
 10
1010.572998047
 20
-1616.897216797
 30
0.0
 11
1000.573974609
 21
-1616.897216797
 31
0.0
  0
LINE
  5
533
100
AcDbEntity
  8
GEKO
  6
SOLID
 62
        7
100
AcDbLine
 10
1005.573486328
 20
-1456.897216797
 30
0.0
 11
1005.573486328
 21
-1646.897216797
 31
0.0
  0
LINE
  5
534
100
AcDbEntity
  8
GEKO
  6
SOLID
 62
        7
100
AcDbLine
 10
1010.572998047
 20
-1486.897216797
 30
0.0
 11
1005.573486328
 21
-1456.897216797
 31
0.0
  0
LINE
  5
535
100
AcDbEntity
  8
GEKO
  6
SOLID
 62
        7
100
AcDbLine
 10
1005.573486328
 20
-1456.897216797
 30
0.0
 11
1000.573974609
 21
-1486.897216797
 31
0.0
  0
LINE
  5
536
100
AcDbEntity
  8
GEKO
  6
SOLID
 62
        7
100
AcDbLine
 10
1000.573974609
 20
-1486.897216797
 30
0.0
 11
1010.572998047
 21
-1486.897216797
 31
0.0
  0
TEXT
  5
537
100
AcDbEntity
  8
GEKO
  6
SOLID
 62
        7
100
AcDbText
 10
990.573486328
 20
-1587.142578125
 30
0.0
 40
30.0
  1
190
 50
90.000002504
 72
        5
 11
990.573483247
 21
-1516.651809692
 31
0.0
100
AcDbText
  0
ENDBLK
  5
538
100
AcDbEntity
  8
0
100
AcDbBlockEnd
  0
BLOCK
  5
53B
100
AcDbEntity
  8
0
100
AcDbBlockBegin
  2
*D21
 70
        0
 10
0.0
 20
0.0
 30
0.0
  3
*D21
  1

  0
LINE
  5
53C
100
AcDbEntity
  8
GEKO
  6
SOLID
 62
        7
100
AcDbLine
 10
772.996337891
 20
-1396.897216797
 30
0.0
 11
684.537353516
 21
-1396.897216797
 31
0.0
  0
LINE
  5
53D
100
AcDbEntity
  8
GEKO
  6
SOLID
 62
        7
100
AcDbLine
 10
772.996337891
 20
-1306.897216797
 30
0.0
 11
684.537353516
 21
-1306.897216797
 31
0.0
  0
LINE
  5
53E
100
AcDbEntity
  8
GEKO
  6
SOLID
 62
        7
100
AcDbLine
 10
686.037353516
 20
-1396.897216797
 30
0.0
 11
686.037353516
 21
-1441.897216797
 31
0.0
  0
LINE
  5
53F
100
AcDbEntity
  8
GEKO
  6
SOLID
 62
        7
100
AcDbLine
 10
686.037353516
 20
-1441.897216797
 30
0.0
 11
686.037353516
 21
-1261.897216797
 31
0.0
  0
LINE
  5
540
100
AcDbEntity
  8
GEKO
  6
SOLID
 62
        7
100
AcDbLine
 10
691.036865234
 20
-1426.897216797
 30
0.0
 11
686.037353516
 21
-1396.897216797
 31
0.0
  0
LINE
  5
541
100
AcDbEntity
  8
GEKO
  6
SOLID
 62
        7
100
AcDbLine
 10
686.037353516
 20
-1396.897216797
 30
0.0
 11
681.037841797
 21
-1426.897216797
 31
0.0
  0
LINE
  5
542
100
AcDbEntity
  8
GEKO
  6
SOLID
 62
        7
100
AcDbLine
 10
681.037841797
 20
-1426.897216797
 30
0.0
 11
691.036865234
 21
-1426.897216797
 31
0.0
  0
LINE
  5
543
100
AcDbEntity
  8
GEKO
  6
SOLID
 62
        7
100
AcDbLine
 10
686.037353516
 20
-1306.897216797
 30
0.0
 11
686.037353516
 21
-1261.897216797
 31
0.0
  0
LINE
  5
544
100
AcDbEntity
  8
GEKO
  6
SOLID
 62
        7
100
AcDbLine
 10
686.037353516
 20
-1261.897216797
 30
0.0
 11
686.037353516
 21
-1441.897216797
 31
0.0
  0
LINE
  5
545
100
AcDbEntity
  8
GEKO
  6
SOLID
 62
        7
100
AcDbLine
 10
681.037841797
 20
-1276.897216797
 30
0.0
 11
686.037353516
 21
-1306.897216797
 31
0.0
  0
LINE
  5
546
100
AcDbEntity
  8
GEKO
  6
SOLID
 62
        7
100
AcDbLine
 10
686.037353516
 20
-1306.897216797
 30
0.0
 11
691.036865234
 21
-1276.897216797
 31
0.0
  0
LINE
  5
547
100
AcDbEntity
  8
GEKO
  6
SOLID
 62
        7
100
AcDbLine
 10
691.036865234
 20
-1276.897216797
 30
0.0
 11
681.037841797
 21
-1276.897216797
 31
0.0
  0
TEXT
  5
548
100
AcDbEntity
  8
GEKO
  6
SOLID
 62
        7
100
AcDbText
 10
671.037353516
 20
-1373.894165039
 30
0.0
 40
30.0
  1
90
 50
90.000002504
 72
        5
 11
671.037351593
 21
-1329.900318146
 31
0.0
100
AcDbText
  0
ENDBLK
  5
549
100
AcDbEntity
  8
0
100
AcDbBlockEnd
  0
BLOCK
  5
597
100
AcDbEntity
  8
0
100
AcDbBlockBegin
  2
*D22
 70
        0
 10
0.0
 20
0.0
 30
0.0
  3
*D22
  1

  0
LINE
  5
598
100
AcDbEntity
  8
GEKO
  6
SOLID
 62
        7
100
AcDbLine
 10
1014.494873047
 20
-1681.895996094
 30
0.0
 11
1380.679931641
 21
-1681.895996094
 31
0.0
  0
LINE
  5
599
100
AcDbEntity
  8
GEKO
  6
SOLID
 62
        7
100
AcDbLine
 10
1139.494873047
 20
-1306.895996094
 30
0.0
 11
1380.679931641
 21
-1306.895996094
 31
0.0
  0
LINE
  5
59A
100
AcDbEntity
  8
GEKO
  6
SOLID
 62
        7
100
AcDbLine
 10
1375.679931641
 20
-1681.895996094
 30
0.0
 11
1375.679931641
 21
-1306.895996094
 31
0.0
  0
LINE
  5
59B
100
AcDbEntity
  8
GEKO
  6
SOLID
 62
        7
100
AcDbLine
 10
1370.680419922
 20
-1651.895996094
 30
0.0
 11
1375.679931641
 21
-1681.895996094
 31
0.0
  0
LINE
  5
59C
100
AcDbEntity
  8
GEKO
  6
SOLID
 62
        7
100
AcDbLine
 10
1375.679931641
 20
-1681.895996094
 30
0.0
 11
1380.679443359
 21
-1651.895996094
 31
0.0
  0
LINE
  5
59D
100
AcDbEntity
  8
GEKO
  6
SOLID
 62
        7
100
AcDbLine
 10
1380.679443359
 20
-1651.895996094
 30
0.0
 11
1370.680419922
 21
-1651.895996094
 31
0.0
  0
LINE
  5
59E
100
AcDbEntity
  8
GEKO
  6
SOLID
 62
        7
100
AcDbLine
 10
1375.679931641
 20
-1306.895996094
 30
0.0
 11
1375.679931641
 21
-1681.895996094
 31
0.0
  0
LINE
  5
59F
100
AcDbEntity
  8
GEKO
  6
SOLID
 62
        7
100
AcDbLine
 10
1380.679443359
 20
-1336.895996094
 30
0.0
 11
1375.679931641
 21
-1306.895996094
 31
0.0
  0
LINE
  5
5A0
100
AcDbEntity
  8
GEKO
  6
SOLID
 62
        7
100
AcDbLine
 10
1375.679931641
 20
-1306.895996094
 30
0.0
 11
1370.680419922
 21
-1336.895996094
 31
0.0
  0
LINE
  5
5A1
100
AcDbEntity
  8
GEKO
  6
SOLID
 62
        7
100
AcDbLine
 10
1370.680419922
 20
-1336.895996094
 30
0.0
 11
1380.679443359
 21
-1336.895996094
 31
0.0
  0
TEXT
  5
5A2
100
AcDbEntity
  8
GEKO
  6
SOLID
 62
        7
100
AcDbText
 10
1360.679931641
 20
-1529.641357422
 30
0.0
 40
30.0
  1
375
 50
90.000002504
 72
        5
 11
1360.679928559
 21
-1459.150588989
 31
0.0
100
AcDbText
  0
ENDBLK
  5
5A3
100
AcDbEntity
  8
0
100
AcDbBlockEnd
  0
BLOCK
  5
5A7
100
AcDbEntity
  8
0
100
AcDbBlockBegin
  2
*D23
 70
        0
 10
0.0
 20
0.0
 30
0.0
  3
*D23
  1

  0
LINE
  5
5A8
100
AcDbEntity
  8
GEKO
  6
SOLID
 62
        7
100
AcDbLine
 10
774.495361328
 20
-1305.397216797
 30
0.0
 11
774.495361328
 21
-1221.447998047
 31
0.0
  0
LINE
  5
5A9
100
AcDbEntity
  8
GEKO
  6
SOLID
 62
        7
100
AcDbLine
 10
1134.495361328
 20
-1305.397216797
 30
0.0
 11
1134.495361328
 21
-1221.447998047
 31
0.0
  0
LINE
  5
5AA
100
AcDbEntity
  8
GEKO
  6
SOLID
 62
        7
100
AcDbLine
 10
774.495361328
 20
-1222.947998047
 30
0.0
 11
1134.495361328
 21
-1222.947998047
 31
0.0
  0
LINE
  5
5AB
100
AcDbEntity
  8
GEKO
  6
SOLID
 62
        7
100
AcDbLine
 10
804.495361328
 20
-1217.948486328
 30
0.0
 11
774.495361328
 21
-1222.947998047
 31
0.0
  0
LINE
  5
5AC
100
AcDbEntity
  8
GEKO
  6
SOLID
 62
        7
100
AcDbLine
 10
774.495361328
 20
-1222.947998047
 30
0.0
 11
804.495361328
 21
-1227.947509766
 31
0.0
  0
LINE
  5
5AD
100
AcDbEntity
  8
GEKO
  6
SOLID
 62
        7
100
AcDbLine
 10
804.495361328
 20
-1227.947509766
 30
0.0
 11
804.495361328
 21
-1217.948486328
 31
0.0
  0
LINE
  5
5AE
100
AcDbEntity
  8
GEKO
  6
SOLID
 62
        7
100
AcDbLine
 10
1134.495361328
 20
-1222.947998047
 30
0.0
 11
774.495361328
 21
-1222.947998047
 31
0.0
  0
LINE
  5
5AF
100
AcDbEntity
  8
GEKO
  6
SOLID
 62
        7
100
AcDbLine
 10
1104.495361328
 20
-1227.947509766
 30
0.0
 11
1134.495361328
 21
-1222.947998047
 31
0.0
  0
LINE
  5
5B0
100
AcDbEntity
  8
GEKO
  6
SOLID
 62
        7
100
AcDbLine
 10
1134.495361328
 20
-1222.947998047
 30
0.0
 11
1104.495361328
 21
-1217.948486328
 31
0.0
  0
LINE
  5
5B1
100
AcDbEntity
  8
GEKO
  6
SOLID
 62
        7
100
AcDbLine
 10
1104.495361328
 20
-1217.948486328
 30
0.0
 11
1104.495361328
 21
-1227.947509766
 31
0.0
  0
TEXT
  5
5B2
100
AcDbEntity
  8
GEKO
  6
SOLID
 62
        7
100
AcDbText
 10
813.256164551
 20
-1207.947998047
 30
0.0
 40
30.0
  1
%%c
 72
        5
 11
833.25462532
 21
-1207.947998047
 31
0.0
100
AcDbText
  0
TEXT
  5
5B3
100
AcDbEntity
  8
GEKO
  6
SOLID
 62
        7
100
AcDbText
 10
848.756164551
 20
-1207.947998047
 30
0.0
 40
30.0
  1
320
 72
        5
 11
919.246932983
 21
-1207.947998047
 31
0.0
100
AcDbText
  0
TEXT
  5
5B4
100
AcDbEntity
  8
GEKO
  6
SOLID
 62
        7
100
AcDbText
 10
928.256164551
 20
-1207.947998047
 30
0.0
 40
30.0
  1
-700max
 72
        5
 11
1104.734619141
 21
-1207.947998047
 31
0.0
100
AcDbText
  0
ENDBLK
  5
5B5
100
AcDbEntity
  8
0
100
AcDbBlockEnd
  0
BLOCK
  5
5C2
100
AcDbEntity
  8
0
100
AcDbBlockBegin
  2
*D24
 70
        0
 10
0.0
 20
0.0
 30
0.0
  3
*D24
  1

  0
LINE
  5
5C3
100
AcDbEntity
  8
GEKO
  6
SOLID
 62
        7
100
AcDbLine
 10
418.97845459
 20
-513.646179199
 30
0.0
 11
418.97845459
 21
-1140.984130859
 31
0.0
  0
LINE
  5
5C4
100
AcDbEntity
  8
GEKO
  6
SOLID
 62
        7
100
AcDbLine
 10
962.99407959
 20
-1150.232177734
 30
0.0
 11
962.99407959
 21
-1138.984130859
 31
0.0
  0
LINE
  5
5C5
100
AcDbEntity
  8
GEKO
  6
SOLID
 62
        7
100
AcDbLine
 10
418.97845459
 20
-1139.984130859
 30
0.0
 11
962.99407959
 21
-1139.984130859
 31
0.0
  0
LINE
  5
5C6
100
AcDbEntity
  8
GEKO
  6
SOLID
 62
        7
100
AcDbLine
 10
448.97845459
 20
-1134.984619141
 30
0.0
 11
418.97845459
 21
-1139.984130859
 31
0.0
  0
LINE
  5
5C7
100
AcDbEntity
  8
GEKO
  6
SOLID
 62
        7
100
AcDbLine
 10
418.97845459
 20
-1139.984130859
 30
0.0
 11
448.97845459
 21
-1144.983642578
 31
0.0
  0
LINE
  5
5C8
100
AcDbEntity
  8
GEKO
  6
SOLID
 62
        7
100
AcDbLine
 10
448.97845459
 20
-1144.983642578
 30
0.0
 11
448.97845459
 21
-1134.984619141
 31
0.0
  0
LINE
  5
5C9
100
AcDbEntity
  8
GEKO
  6
SOLID
 62
        7
100
AcDbLine
 10
962.99407959
 20
-1139.984130859
 30
0.0
 11
418.97845459
 21
-1139.984130859
 31
0.0
  0
LINE
  5
5CA
100
AcDbEntity
  8
GEKO
  6
SOLID
 62
        7
100
AcDbLine
 10
932.99407959
 20
-1144.983642578
 30
0.0
 11
962.99407959
 21
-1139.984130859
 31
0.0
  0
LINE
  5
5CB
100
AcDbEntity
  8
GEKO
  6
SOLID
 62
        7
100
AcDbLine
 10
962.99407959
 20
-1139.984130859
 30
0.0
 11
932.99407959
 21
-1134.984619141
 31
0.0
  0
LINE
  5
5CC
100
AcDbEntity
  8
GEKO
  6
SOLID
 62
        7
100
AcDbLine
 10
932.99407959
 20
-1134.984619141
 30
0.0
 11
932.99407959
 21
-1144.983642578
 31
0.0
  0
TEXT
  5
5CD
100
AcDbEntity
  8
GEKO
  6
SOLID
 62
        7
100
AcDbText
 10
650.791992188
 20
-1124.984130859
 30
0.0
 40
30.0
  1
545
 72
        5
 11
721.28276062
 21
-1124.984130859
 31
0.0
100
AcDbText
  0
ENDBLK
  5
5CE
100
AcDbEntity
  8
0
100
AcDbBlockEnd
  0
BLOCK
  5
5DD
100
AcDbEntity
  8
0
100
AcDbBlockBegin
  2
*D25
 70
        0
 10
0.0
 20
0.0
 30
0.0
  3
*D25
  1

  0
LINE
  5
5DE
100
AcDbEntity
  8
GEKO
  6
SOLID
 62
        7
100
AcDbLine
 10
405.144989014
 20
-516.111938477
 30
0.0
 11
405.144989014
 21
-806.400878906
 31
0.0
  0
LINE
  5
5DF
100
AcDbEntity
  8
GEKO
  6
SOLID
 62
        7
100
AcDbLine
 10
418.97845459
 20
-513.646179199
 30
0.0
 11
418.97845459
 21
-806.400878906
 31
0.0
  0
LINE
  5
5E0
100
AcDbEntity
  8
GEKO
  6
SOLID
 62
        7
100
AcDbLine
 10
405.144989014
 20
-805.400878906
 30
0.0
 11
313.651428223
 21
-805.400878906
 31
0.0
  0
LINE
  5
5E1
100
AcDbEntity
  8
GEKO
  6
SOLID
 62
        7
100
AcDbLine
 10
313.651428223
 20
-805.400878906
 30
0.0
 11
463.97845459
 21
-805.400878906
 31
0.0
  0
LINE
  5
5E2
100
AcDbEntity
  8
GEKO
  6
SOLID
 62
        7
100
AcDbLine
 10
375.144989014
 20
-810.400390625
 30
0.0
 11
405.144989014
 21
-805.400878906
 31
0.0
  0
LINE
  5
5E3
100
AcDbEntity
  8
GEKO
  6
SOLID
 62
        7
100
AcDbLine
 10
405.144989014
 20
-805.400878906
 30
0.0
 11
375.144989014
 21
-800.401367188
 31
0.0
  0
LINE
  5
5E4
100
AcDbEntity
  8
GEKO
  6
SOLID
 62
        7
100
AcDbLine
 10
375.144989014
 20
-800.401367188
 30
0.0
 11
375.144989014
 21
-810.400390625
 31
0.0
  0
LINE
  5
5E5
100
AcDbEntity
  8
GEKO
  6
SOLID
 62
        7
100
AcDbLine
 10
418.97845459
 20
-805.400878906
 30
0.0
 11
463.97845459
 21
-805.400878906
 31
0.0
  0
LINE
  5
5E6
100
AcDbEntity
  8
GEKO
  6
SOLID
 62
        7
100
AcDbLine
 10
463.97845459
 20
-805.400878906
 30
0.0
 11
313.651428223
 21
-805.400878906
 31
0.0
  0
LINE
  5
5E7
100
AcDbEntity
  8
GEKO
  6
SOLID
 62
        7
100
AcDbLine
 10
448.97845459
 20
-800.401367188
 30
0.0
 11
418.97845459
 21
-805.400878906
 31
0.0
  0
LINE
  5
5E8
100
AcDbEntity
  8
GEKO
  6
SOLID
 62
        7
100
AcDbLine
 10
418.97845459
 20
-805.400878906
 30
0.0
 11
448.97845459
 21
-810.400390625
 31
0.0
  0
LINE
  5
5E9
100
AcDbEntity
  8
GEKO
  6
SOLID
 62
        7
100
AcDbLine
 10
448.97845459
 20
-810.400390625
 30
0.0
 11
448.97845459
 21
-800.401367188
 31
0.0
  0
TEXT
  5
5EA
100
AcDbEntity
  8
GEKO
  6
SOLID
 62
        7
100
AcDbText
 10
326.901428223
 20
-790.400878906
 30
0.0
 40
30.0
  1
15
 72
        5
 11
370.895275116
 21
-790.400878906
 31
0.0
100
AcDbText
  0
ENDBLK
  5
5EB
100
AcDbEntity
  8
0
100
AcDbBlockEnd
  0
ENDSEC
  0
SECTION
  2
ENTITIES
  0
LINE
  5
56
100
AcDbEntity
  8
GEKO
  6
SOLID
 62
        7
100
AcDbLine
 10
743.924729417
 20
-809.664649257
 30
0.0
 11
745.270593674
 21
-814.687480647
 31
0.0
  0
LINE
  5
57
100
AcDbEntity
  8
GEKO
  6
SOLID
 62
        7
100
AcDbLine
 10
739.025749594
 20
-806.836222717
 30
0.0
 11
729.44944066
 21
-771.096968287
 31
0.0
  0
ARC
  5
58
100
AcDbEntity
  8
GEKO
  6
SOLID
 62
        7
100
AcDbCircle
 10
962.99409036
 20
-697.131180738
 30
0.0
 40
180.0
100
AcDbArc
 50
228.590377891
 51
311.409622109
  0
LINE
  5
5A
100
AcDbEntity
  8
GEKO
  6
L_DASH
 62
        7
100
AcDbLine
 10
836.96141895
 20
-825.644859922
 30
0.0
 11
843.935281362
 21
-832.131180738
 31
0.0
  0
LINE
  5
5B
100
AcDbEntity
  8
GEKO
  6
SOLID
 62
        7
100
AcDbLine
 10
738.255144896
 20
-488.177716506
 30
0.0
 11
806.583382088
 21
-743.182047579
 31
0.0
  0
LINE
  5
5C
100
AcDbEntity
  8
GEKO
  6
SOLID
 62
        7
100
AcDbLine
 10
805.808487704
 20
-739.248545908
 30
0.0
 11
816.916700449
 21
-736.272107853
 31
0.0
  0
ARC
  5
5D
100
AcDbEntity
  8
GEKO
  6
SOLID
 62
        7
100
AcDbCircle
 10
736.066974883
 20
-486.697204057
 30
0.0
 40
2.0
100
AcDbArc
 50
185.370324651
 51
285.000006837
  0
LINE
  5
5E
100
AcDbEntity
  8
GEKO
  6
SOLID
 62
        7
100
AcDbLine
 10
736.584613202
 20
-488.629055657
 30
0.0
 11
738.516464793
 21
-488.111417336
 31
0.0
  0
LINE
  5
5F
100
AcDbEntity
  8
GEKO
  6
SOLID
 62
        7
100
AcDbLine
 10
738.515534463
 20
-488.107945298
 30
0.0
 11
741.413311849
 21
-487.331487817
 31
0.0
  0
ARC
  5
60
100
AcDbEntity
  8
GEKO
  6
SOLID
 62
        7
100
AcDbCircle
 10
809.739942485
 20
-743.371443223
 30
0.0
 40
5.0
100
AcDbArc
 50
15.0
 51
105.259566314
  0
LINE
  5
61
100
AcDbEntity
  8
GEKO
  6
SOLID
 62
        7
100
AcDbLine
 10
734.512588784
 20
-461.228108744
 30
0.0
 11
599.282977428
 21
-497.462791196
 31
0.0
  0
LINE
  5
62
100
AcDbEntity
  8
GEKO
  6
SOLID
 62
        7
100
AcDbLine
 10
580.62261457
 20
-433.616954542
 30
0.0
 11
718.750003313
 21
-396.605814609
 31
0.0
  0
LINE
  5
63
100
AcDbEntity
  8
GEKO
  6
SOLID
 62
        7
100
AcDbLine
 10
598.894748687
 20
-496.013902503
 30
0.0
 11
734.124360044
 21
-459.779220051
 31
0.0
  0
LINE
  5
64
100
AcDbEntity
  8
GEKO
  6
SOLID
 62
        7
100
AcDbLine
 10
666.29470274
 20
-486.753978439
 30
0.0
 11
671.124331717
 21
-485.459882637
 31
0.0
  0
INSERT
  5
74
100
AcDbEntity
  8
GEKO
100
AcDbBlockReference
  2
*D0
 10
0.0
 20
0.0
 30
0.0
  0
INSERT
  5
86
100
AcDbEntity
  8
GEKO
100
AcDbBlockReference
  2
*D1
 10
0.0
 20
0.0
 30
0.0
  0
INSERT
  5
95
100
AcDbEntity
  8
GEKO
100
AcDbBlockReference
  2
*D2
 10
0.0
 20
0.0
 30
0.0
  0
INSERT
  5
A6
100
AcDbEntity
  8
GEKO
100
AcDbBlockReference
  2
*D3
 10
0.0
 20
0.0
 30
0.0
  0
INSERT
  5
B5
100
AcDbEntity
  8
GEKO
100
AcDbBlockReference
  2
*D4
 10
0.0
 20
0.0
 30
0.0
  0
LINE
  5
B6
100
AcDbEntity
  8
GEKO
  6
SOLID
 62
        7
100
AcDbLine
 10
508.100796673
 20
-274.407572083
 30
0.0
 11
508.529284528
 21
-274.407572083
 31
0.0
  0
LINE
  5
B7
100
AcDbEntity
  8
GEKO
  6
SOLID
 62
        7
100
AcDbLine
 10
665.34583596
 20
-485.144611888
 30
0.0
 11
665.682330262
 21
-486.400425121
 31
0.0
  0
LINE
  5
B8
100
AcDbEntity
  8
GEKO
  6
SOLID
 62
        7
100
AcDbLine
 10
665.828798858
 20
-485.015202308
 30
0.0
 11
666.29470274
 21
-486.753978439
 31
0.0
  0
LINE
  5
B9
100
AcDbEntity
  8
GEKO
  6
SOLID
 62
        7
100
AcDbLine
 10
665.682330262
 20
-486.400425121
 30
0.0
 11
671.477885035
 21
-484.847510159
 31
0.0
  0
LINE
  5
BA
100
AcDbEntity
  8
GEKO
  6
SOLID
 62
        7
100
AcDbLine
 10
666.29470274
 20
-486.753978439
 30
0.0
 11
665.682330262
 21
-486.400425121
 31
0.0
  0
LINE
  5
BB
100
AcDbEntity
  8
GEKO
  6
SOLID
 62
        7
100
AcDbLine
 10
672.426185808
 20
-483.247436958
 30
0.0
 11
664.061022843
 21
-485.488876689
 31
0.0
  0
LINE
  5
BC
100
AcDbEntity
  8
GEKO
  6
SOLID
 62
        7
100
AcDbLine
 10
664.224941043
 20
-480.523854445
 30
0.0
 11
665.339632713
 21
-484.683938405
 31
0.0
  0
ARC
  5
BD
100
AcDbEntity
  8
GEKO
  6
SOLID
 62
        7
100
AcDbCircle
 10
663.399526834
 20
-483.020141155
 30
0.0
 40
2.555823176
100
AcDbArc
 50
250.615765014
 51
319.384248661
  0
ARC
  5
BE
100
AcDbEntity
  8
GEKO
  6
SOLID
 62
        7
100
AcDbCircle
 10
665.770996228
 20
-475.140262181
 30
0.0
 40
9.553419824
100
AcDbArc
 50
267.412056083
 51
302.587957591
  0
LINE
  5
BF
100
AcDbEntity
  8
GEKO
  6
SOLID
 62
        7
100
AcDbLine
 10
662.551245058
 20
-485.431084982
 30
0.0
 11
661.436553388
 21
-481.271001022
 31
0.0
  0
LINE
  5
C0
100
AcDbEntity
  8
GEKO
  6
SOLID
 62
        7
100
AcDbLine
 10
738.515536084
 20
-488.10789141
 30
0.0
 11
741.131029473
 21
-487.407072069
 31
0.0
  0
ARC
  5
C1
100
AcDbEntity
  8
GEKO
  6
SOLID
 62
        7
100
AcDbCircle
 10
501.887022768
 20
-474.3324946
 30
0.0
 40
2.0
100
AcDbArc
 50
195.000006837
 51
274.713446226
  0
ARC
  5
C2
100
AcDbEntity
  8
GEKO
  6
SOLID
 62
        7
100
AcDbCircle
 10
483.482317087
 20
-424.963738607
 30
0.0
 40
15.0
100
AcDbArc
 50
302.104642014
 51
267.895371661
  0
ARC
  5
C3
100
AcDbEntity
  8
GEKO
  6
SOLID
 62
        7
100
AcDbCircle
 10
663.376659267
 20
-482.934798272
 30
0.0
 40
2.555823176
100
AcDbArc
 50
70.615765014
 51
139.384248661
  0
LINE
  5
C4
100
AcDbEntity
  8
GEKO
  6
SOLID
 62
        7
100
AcDbLine
 10
499.955171175
 20
-474.850132931
 30
0.0
 11
490.585408068
 21
-439.881717652
 31
0.0
  0
ARC
  5
C5
100
AcDbEntity
  8
GEKO
  6
SOLID
 62
        7
100
AcDbCircle
 10
669.370352838
 20
-488.573237515
 30
0.0
 40
9.553419824
100
AcDbArc
 50
87.412056083
 51
122.587957591
  0
LINE
  5
C6
100
AcDbEntity
  8
GEKO
  6
SOLID
 62
        7
100
AcDbLine
 10
543.404757581
 20
-814.735847673
 30
0.0
 11
473.523584281
 21
-553.935882914
 31
0.0
  0
ARC
  5
C7
100
AcDbEntity
  8
GEKO
  6
SOLID
 62
        7
100
AcDbCircle
 10
730.093311443
 20
-487.258760072
 30
0.0
 40
4.0
100
AcDbArc
 50
5.370324652
 51
105.0
  0
LINE
  5
C8
100
AcDbEntity
  8
GEKO
  6
SOLID
 62
        7
100
AcDbLine
 10
494.159616403
 20
-476.403047893
 30
0.0
 11
484.789853296
 21
-441.434632614
 31
0.0
  0
ARC
  5
C9
100
AcDbEntity
  8
GEKO
  6
SOLID
 62
        7
100
AcDbCircle
 10
492.227764814
 20
-476.920686204
 30
0.0
 40
2.0
100
AcDbArc
 50
295.286567449
 51
15.000006837
  0
LINE
  5
CA
100
AcDbEntity
  8
GEKO
  6
SOLID
 62
        7
100
AcDbLine
 10
662.715163258
 20
-480.466062738
 30
0.0
 11
671.080326223
 21
-478.224623007
 31
0.0
  0
ARC
  5
CB
100
AcDbEntity
  8
GEKO
  6
SOLID
 62
        7
100
AcDbCircle
 10
671.741822232
 20
-480.693358541
 30
0.0
 40
2.555823176
100
AcDbArc
 50
70.615765014
 51
139.384248661
  0
ARC
  5
CC
100
AcDbEntity
  8
GEKO
  6
SOLID
 62
        7
100
AcDbCircle
 10
492.517259661
 20
-439.364079321
 30
0.0
 40
2.0
100
AcDbArc
 50
122.104642014
 51
195.000006837
  0
CIRCLE
  5
CD
100
AcDbEntity
  8
GEKO
  6
SOLID
 62
        7
100
AcDbCircle
 10
483.482317087
 20
-424.963738607
 30
0.0
 40
5.0
  0
ARC
  5
CE
100
AcDbEntity
  8
GEKO
  6
SOLID
 62
        7
100
AcDbCircle
 10
482.858001707
 20
-441.952270925
 30
0.0
 40
2.0
100
AcDbArc
 50
15.000006837
 51
87.895371661
  0
LINE
  5
CF
100
AcDbEntity
  8
GEKO
  6
SOLID
 62
        7
100
AcDbLine
 10
672.590104008
 20
-478.282414714
 30
0.0
 11
673.704795678
 21
-482.442498674
 31
0.0
  0
LINE
  5
D0
100
AcDbEntity
  8
GEKO
  6
SOLID
 62
        7
100
AcDbLine
 10
671.141390732
 20
-483.591696926
 30
0.0
 11
671.477885035
 21
-484.847510159
 31
0.0
  0
ARC
  5
D1
100
AcDbEntity
  8
GEKO
  6
SOLID
 62
        7
100
AcDbCircle
 10
671.764689799
 20
-480.778701424
 30
0.0
 40
2.555823176
100
AcDbArc
 50
250.615765014
 51
319.384248661
  0
LINE
  5
D2
100
AcDbEntity
  8
GEKO
  6
SOLID
 62
        7
100
AcDbLine
 10
468.7102011
 20
-427.568463045
 30
0.0
 11
478.609412324
 21
-497.574806384
 31
0.0
  0
LINE
  5
D3
100
AcDbEntity
  8
GEKO
  6
SOLID
 62
        7
100
AcDbLine
 10
497.577705784
 20
-419.833434785
 30
0.0
 11
524.007924708
 21
-485.410305847
 31
0.0
  0
ARC
  5
D4
100
AcDbEntity
  8
GEKO
  6
SOLID
 62
        7
100
AcDbCircle
 10
504.187849916
 20
-502.237802239
 30
0.0
 40
26.0
100
AcDbArc
 50
40.331681854
 51
169.668331821
  0
ARC
  5
D5
100
AcDbEntity
  8
GEKO
  6
SOLID
 62
        7
100
AcDbCircle
 10
504.187849916
 20
-502.237802239
 30
0.0
 40
26.0
100
AcDbArc
 50
220.331681854
 51
349.668331821
  0
LINE
  5
D6
100
AcDbEntity
  8
GEKO
  6
SOLID
 62
        7
100
AcDbLine
 10
492.358947583
 20
-548.888960119
 30
0.0
 11
473.523584281
 21
-553.935882914
 31
0.0
  0
CIRCLE
  5
D7
100
AcDbEntity
  8
GEKO
  6
SOLID
 62
        7
100
AcDbCircle
 10
504.187849916
 20
-502.237802239
 30
0.0
 40
12.0
  0
LINE
  5
D8
100
AcDbEntity
  8
GEKO
  6
SOLID
 62
        7
100
AcDbLine
 10
492.359000257
 20
-548.888942635
 30
0.0
 11
478.609412325
 21
-497.574806384
 31
0.0
  0
LINE
  5
D9
100
AcDbEntity
  8
GEKO
  6
SOLID
 62
        7
100
AcDbLine
 10
669.801716353
 20
-479.029561291
 30
0.0
 11
670.916408023
 21
-483.189645251
 31
0.0
  0
LINE
  5
DA
100
AcDbEntity
  8
GEKO
  6
SOLID
 62
        7
100
AcDbLine
 10
589.405956821
 20
-518.11578447
 30
0.0
 11
660.220651527
 21
-782.399823035
 31
0.0
  0
LINE
  5
DB
100
AcDbEntity
  8
GEKO
  6
SOLID
 62
        7
100
AcDbLine
 10
537.75751264
 20
-536.724442098
 30
0.0
 11
524.007924708
 21
-485.410305847
 31
0.0
  0
LINE
  5
DC
100
AcDbEntity
  8
GEKO
  6
SOLID
 62
        7
100
AcDbLine
 10
670.658427835
 20
-483.721106506
 30
0.0
 11
671.124331717
 21
-485.459882637
 31
0.0
  0
LINE
  5
DD
100
AcDbEntity
  8
GEKO
  6
SOLID
 62
        7
100
AcDbLine
 10
671.124331717
 20
-485.459882637
 30
0.0
 11
671.477885035
 21
-484.847510159
 31
0.0
  0
ARC
  5
DE
100
AcDbEntity
  8
GEKO
  6
SOLID
 62
        7
100
AcDbCircle
 10
665.161688809
 20
-477.188974491
 30
0.0
 40
4.0
100
AcDbArc
 50
97.711505219
 51
180.999115693
  0
LINE
  5
DF
100
AcDbEntity
  8
GEKO
  6
SOLID
 62
        7
100
AcDbLine
 10
513.111129768
 20
-504.62868143
 30
0.0
 11
506.5791579
 21
-511.160654857
 31
0.0
  0
LINE
  5
E0
100
AcDbEntity
  8
GEKO
  6
SOLID
 62
        7
100
AcDbLine
 10
562.240120883
 20
-809.688924878
 30
0.0
 11
543.404757581
 21
-814.735847673
 31
0.0
  0
LINE
  5
E1
100
AcDbEntity
  8
GEKO
  6
SOLID
 62
        7
100
AcDbLine
 10
544.860576111
 20
-477.035969974
 30
0.0
 11
540.882584972
 21
-478.101869996
 31
0.0
  0
LINE
  5
E2
100
AcDbEntity
  8
GEKO
  6
SOLID
 62
        7
100
AcDbLine
 10
546.132966434
 20
-479.537153571
 30
0.0
 11
542.768317349
 21
-466.98011823
 31
0.0
  0
ARC
  5
E3
100
AcDbEntity
  8
GEKO
  6
SOLID
 62
        7
100
AcDbCircle
 10
532.464340253
 20
-476.470357278
 30
0.0
 40
12.409132974
100
AcDbArc
 50
357.387532852
 51
32.612480823
  0
ARC
  5
E4
100
AcDbEntity
  8
GEKO
  6
SOLID
 62
        7
100
AcDbCircle
 10
542.703841854
 20
-479.556445704
 30
0.0
 40
3.317273061
100
AcDbArc
 50
349.44687922
 51
49.44687922
  0
LINE
  5
E5
100
AcDbEntity
  8
GEKO
  6
SOLID
 62
        7
100
AcDbLine
 10
545.831866638
 20
-480.660873841
 30
0.0
 11
541.853875499
 21
-481.726773863
 31
0.0
  0
LINE
  5
E6
100
AcDbEntity
  8
GEKO
  6
SOLID
 62
        7
100
AcDbLine
 10
545.831866638
 20
-480.660873841
 30
0.0
 11
546.132966434
 21
-479.537153571
 31
0.0
  0
LINE
  5
E7
100
AcDbEntity
  8
GEKO
  6
SOLID
 62
        7
100
AcDbLine
 10
541.386059867
 20
-479.980862988
 30
0.0
 11
541.853875499
 21
-481.726773863
 31
0.0
  0
LINE
  5
E8
100
AcDbEntity
  8
GEKO
  6
SOLID
 62
        7
100
AcDbLine
 10
537.967705806
 20
-467.223398045
 30
0.0
 11
541.386059867
 21
-479.980862988
 31
0.0
  0
LINE
  5
E9
100
AcDbEntity
  8
GEKO
  6
SOLID
 62
        7
100
AcDbLine
 10
541.386059867
 20
-479.980862988
 30
0.0
 11
540.80650439
 21
-480.136154484
 31
0.0
  0
LINE
  5
EA
100
AcDbEntity
  8
GEKO
  6
SOLID
 62
        7
100
AcDbLine
 10
542.916987473
 20
-469.78240189
 30
0.0
 11
538.938996334
 21
-470.848301912
 31
0.0
  0
ARC
  5
EB
100
AcDbEntity
  8
GEKO
  6
SOLID
 62
        7
100
AcDbCircle
 10
539.788962689
 20
-468.677973753
 30
0.0
 40
3.317273061
100
AcDbArc
 50
340.553134455
 51
40.553134455
  0
LINE
  5
EC
100
AcDbEntity
  8
GEKO
  6
SOLID
 62
        7
100
AcDbLine
 10
541.945696945
 20
-466.157498023
 30
0.0
 11
542.768317349
 21
-466.98011823
 31
0.0
  0
LINE
  5
ED
100
AcDbEntity
  8
GEKO
  6
SOLID
 62
        7
100
AcDbLine
 10
541.945696945
 20
-466.157498023
 30
0.0
 11
537.38763679
 21
-467.378827144
 31
0.0
  0
LINE
  5
EE
100
AcDbEntity
  8
GEKO
  6
SOLID
 62
        7
100
AcDbLine
 10
540.27895556
 20
-478.167316387
 30
0.0
 11
536.656733827
 21
-479.137888239
 31
0.0
  0
LINE
  5
EF
100
AcDbEntity
  8
GEKO
  6
SOLID
 62
        7
100
AcDbLine
 10
536.744290084
 20
-479.464652483
 30
0.0
 11
525.652383065
 21
-482.436721431
 31
0.0
  0
LINE
  5
F0
100
AcDbEntity
  8
GEKO
  6
SOLID
 62
        7
100
AcDbLine
 10
536.545824317
 20
-478.723968509
 30
0.0
 11
524.713233323
 21
-481.894503224
 31
0.0
  0
LINE
  5
F1
100
AcDbEntity
  8
GEKO
  6
SOLID
 62
        7
100
AcDbLine
 10
534.673736801
 20
-471.73724612
 30
0.0
 11
536.744290084
 21
-479.464652483
 31
0.0
  0
LINE
  5
F2
100
AcDbEntity
  8
GEKO
  6
SOLID
 62
        7
100
AcDbLine
 10
538.383514791
 20
-471.093438514
 30
0.0
 11
534.761293059
 21
-472.064010365
 31
0.0
  0
LINE
  5
F3
100
AcDbEntity
  8
GEKO
  6
SOLID
 62
        7
100
AcDbLine
 10
534.872202569
 20
-472.477930094
 30
0.0
 11
523.039611575
 21
-475.648464809
 31
0.0
  0
LINE
  5
F4
100
AcDbEntity
  8
GEKO
  6
SOLID
 62
        7
100
AcDbLine
 10
534.673736801
 20
-471.73724612
 30
0.0
 11
523.581829782
 21
-474.709315067
 31
0.0
  0
LINE
  5
F5
100
AcDbEntity
  8
GEKO
  6
SOLID
 62
        7
100
AcDbLine
 10
523.039611575
 20
-475.648464809
 30
0.0
 11
524.713233323
 21
-481.894503224
 31
0.0
  0
LINE
  5
F6
100
AcDbEntity
  8
GEKO
  6
SOLID
 62
        7
100
AcDbLine
 10
523.039611575
 20
-475.648464809
 30
0.0
 11
523.581829782
 21
-474.709315067
 31
0.0
  0
LINE
  5
F7
100
AcDbEntity
  8
GEKO
  6
SOLID
 62
        7
100
AcDbLine
 10
523.581829782
 20
-474.709315067
 30
0.0
 11
525.652383065
 21
-482.436721431
 31
0.0
  0
LINE
  5
F8
100
AcDbEntity
  8
GEKO
  6
SOLID
 62
        7
100
AcDbLine
 10
525.652383065
 20
-482.436721431
 30
0.0
 11
524.713233323
 21
-481.894503224
 31
0.0
  0
LINE
  5
F9
100
AcDbEntity
  8
GEKO
  6
SOLID
 62
        7
100
AcDbLine
 10
475.947002091
 20
-478.746761771
 30
0.0
 11
472.362773346
 21
-479.707153428
 31
0.0
  0
LINE
  5
FA
100
AcDbEntity
  8
GEKO
  6
SOLID
 62
        7
100
AcDbLine
 10
476.511196031
 20
-482.736691243
 30
0.0
 11
473.398049988
 21
-483.570856609
 31
0.0
  0
LINE
  5
FB
100
AcDbEntity
  8
GEKO
  6
SOLID
 62
        7
100
AcDbLine
 10
506.578697876
 20
-511.16077812
 30
0.0
 11
506.901454807
 21
-512.365322809
 31
0.0
  0
LINE
  5
FC
100
AcDbEntity
  8
GEKO
  6
SOLID
 62
        7
100
AcDbLine
 10
556.004364343
 20
-495.300592585
 30
0.0
 11
554.746818385
 21
-493.886461579
 31
0.0
  0
LINE
  5
FD
100
AcDbEntity
  8
GEKO
  6
SOLID
 62
        7
100
AcDbLine
 10
557.377572449
 20
-494.507770297
 30
0.0
 11
556.004364343
 21
-495.300592585
 31
0.0
  0
LINE
  5
FE
100
AcDbEntity
  8
GEKO
  6
SOLID
 62
        7
100
AcDbLine
 10
562.312547418
 20
-495.733461022
 30
0.0
 11
557.377572449
 21
-494.507770297
 31
0.0
  0
LINE
  5
FF
100
AcDbEntity
  8
GEKO
  6
SOLID
 62
        7
100
AcDbLine
 10
510.720260777
 20
-495.705841142
 30
0.0
 11
513.111129768
 21
-504.62868143
 31
0.0
  0
ARC
  5
100
100
AcDbEntity
  8
GEKO
  6
SOLID
 62
        7
100
AcDbCircle
 10
539.123144198
 20
-483.840146728
 30
0.0
 40
18.574919576
100
AcDbArc
 50
293.257097068
 51
327.258223956
  0
ARC
  5
101
100
AcDbEntity
  8
GEKO
  6
SOLID
 62
        7
100
AcDbCircle
 10
539.123144198
 20
-483.840146728
 30
0.0
 40
32.574919576
100
AcDbArc
 50
-46.876735546
 51
-32.741776044
  0
LINE
  5
102
100
AcDbEntity
  8
GEKO
  6
SOLID
 62
        7
100
AcDbLine
 10
548.581360521
 20
-493.443565088
 30
0.0
 11
545.93946837
 21
-497.691770658
 31
0.0
  0
LINE
  5
103
100
AcDbEntity
  8
GEKO
  6
SOLID
 62
        7
100
AcDbLine
 10
523.84167458
 20
-470.916454254
 30
0.0
 11
524.40264883
 21
-473.010037656
 31
0.0
  0
LINE
  5
104
100
AcDbEntity
  8
GEKO
  6
SOLID
 62
        7
100
AcDbLine
 10
523.84167458
 20
-470.916454254
 30
0.0
 11
524.772483859
 21
-474.390280117
 31
0.0
  0
LINE
  5
105
100
AcDbEntity
  8
GEKO
  6
SOLID
 62
        7
100
AcDbLine
 10
528.574688087
 20
-469.26178478
 30
0.0
 11
523.74505911
 21
-470.555880582
 31
0.0
  0
LINE
  5
106
100
AcDbEntity
  8
GEKO
  6
SOLID
 62
        7
100
AcDbLine
 10
527.810633844
 20
-485.728804808
 30
0.0
 11
526.879824565
 21
-482.254978945
 31
0.0
  0
LINE
  5
107
100
AcDbEntity
  8
GEKO
  6
SOLID
 62
        7
100
AcDbLine
 10
532.640262821
 20
-484.434709006
 30
0.0
 11
527.810633844
 21
-485.728804808
 31
0.0
  0
LINE
  5
108
100
AcDbEntity
  8
GEKO
  6
SOLID
 62
        7
100
AcDbLine
 10
528.671303557
 20
-469.622358452
 30
0.0
 11
523.84167458
 21
-470.916454254
 31
0.0
  0
LINE
  5
109
100
AcDbEntity
  8
GEKO
  6
SOLID
 62
        7
100
AcDbLine
 10
522.590914707
 20
-466.248557088
 30
0.0
 11
523.74505911
 21
-470.555880582
 31
0.0
  0
LINE
  5
10A
100
AcDbEntity
  8
GEKO
  6
SOLID
 62
        7
100
AcDbLine
 10
506.5791579
 20
-511.160654857
 30
0.0
 11
497.656317041
 21
-508.769787996
 31
0.0
  0
LINE
  5
10B
100
AcDbEntity
  8
GEKO
  6
SOLID
 62
        7
100
AcDbLine
 10
544.597931643
 20
-473.810382633
 30
0.0
 11
558.371302651
 21
-470.119817233
 31
0.0
  0
LINE
  5
10C
100
AcDbEntity
  8
GEKO
  6
SOLID
 62
        7
100
AcDbLine
 10
546.111213685
 20
-479.61655702
 30
0.0
 11
559.924217613
 21
-475.915372006
 31
0.0
  0
LINE
  5
10D
100
AcDbEntity
  8
GEKO
  6
SOLID
 62
        7
100
AcDbLine
 10
535.536369301
 20
-479.788314036
 30
0.0
 11
536.460630073
 21
-483.237700553
 31
0.0
  0
LINE
  5
10E
100
AcDbEntity
  8
GEKO
  6
SOLID
 62
        7
100
AcDbLine
 10
531.672666119
 20
-480.823590678
 30
0.0
 11
538.54976758
 21
-506.489270489
 31
0.0
  0
LINE
  5
10F
100
AcDbEntity
  8
GEKO
  6
SOLID
 62
        7
100
AcDbLine
 10
535.536369301
 20
-479.788314036
 30
0.0
 11
536.590039654
 21
-483.720663451
 31
0.0
  0
LINE
  5
110
100
AcDbEntity
  8
GEKO
  6
SOLID
 62
        7
100
AcDbLine
 10
540.80599085
 20
-480.136292087
 30
0.0
 11
543.06520575
 21
-488.567792854
 31
0.0
  0
LINE
  5
111
100
AcDbEntity
  8
GEKO
  6
SOLID
 62
        7
100
AcDbLine
 10
535.596237522
 20
-460.693237252
 30
0.0
 11
540.80599085
 21
-480.136292087
 31
0.0
  0
LINE
  5
112
100
AcDbEntity
  8
GEKO
  6
SOLID
 62
        7
100
AcDbLine
 10
532.578342668
 20
-468.748813622
 30
0.0
 11
537.407971645
 21
-467.45471782
 31
0.0
  0
LINE
  5
113
100
AcDbEntity
  8
GEKO
  6
SOLID
 62
        7
100
AcDbLine
 10
536.590039654
 20
-483.720663451
 30
0.0
 11
538.235576773
 21
-489.861888655
 31
0.0
  0
LINE
  5
114
100
AcDbEntity
  8
GEKO
  6
SOLID
 62
        7
100
AcDbLine
 10
536.719449234
 20
-484.203626348
 30
0.0
 11
541.549078211
 21
-482.909530547
 31
0.0
  0
ARC
  5
115
100
AcDbEntity
  8
GEKO
  6
SOLID
 62
        7
100
AcDbCircle
 10
547.894834726
 20
-487.273697058
 30
0.0
 40
5.0
100
AcDbArc
 50
195.000006837
 51
240.000006837
  0
ARC
  5
116
100
AcDbEntity
  8
GEKO
  6
SOLID
 62
        7
100
AcDbCircle
 10
547.894834726
 20
-487.273697058
 30
0.0
 40
10.0
100
AcDbArc
 50
195.000006837
 51
240.000006837
  0
LINE
  5
117
100
AcDbEntity
  8
GEKO
  6
SOLID
 62
        7
100
AcDbLine
 10
530.766608545
 20
-461.987333054
 30
0.0
 11
533.465816018
 21
-472.060907673
 31
0.0
  0
LINE
  5
118
100
AcDbEntity
  8
GEKO
  6
SOLID
 62
        7
100
AcDbLine
 10
530.766608545
 20
-461.987333054
 30
0.0
 11
535.596237522
 21
-460.693237252
 31
0.0
  0
LINE
  5
119
100
AcDbEntity
  8
GEKO
  6
SOLID
 62
        7
100
AcDbLine
 10
542.894835761
 20
-495.933951686
 30
0.0
 11
549.093213766
 21
-499.51258591
 31
0.0
  0
LINE
  5
11A
100
AcDbEntity
  8
GEKO
  6
SOLID
 62
        7
100
AcDbLine
 10
545.394835244
 20
-491.603824369
 30
0.0
 11
553.11273901
 21
-496.059756958
 31
0.0
  0
ARC
  5
11B
100
AcDbEntity
  8
GEKO
  6
SOLID
 62
        7
100
AcDbCircle
 10
563.424032071
 20
-485.69270481
 30
0.0
 40
0.85
100
AcDbArc
 50
-164.999993163
 51
15.000006837
  0
LINE
  5
11C
100
AcDbEntity
  8
GEKO
  6
SOLID
 62
        7
100
AcDbLine
 10
568.365724305
 20
-467.959456851
 30
0.0
 11
569.659820107
 21
-472.789085828
 31
0.0
  0
LINE
  5
11D
100
AcDbEntity
  8
GEKO
  6
SOLID
 62
        7
100
AcDbLine
 10
567.753351827
 20
-467.605903533
 30
0.0
 11
568.365724305
 21
-467.959456851
 31
0.0
  0
LINE
  5
11E
100
AcDbEntity
  8
GEKO
  6
SOLID
 62
        7
100
AcDbLine
 10
569.659820107
 20
-472.789085828
 30
0.0
 11
569.30626679
 21
-473.401458306
 31
0.0
  0
LINE
  5
11F
100
AcDbEntity
  8
GEKO
  6
SOLID
 62
        7
100
AcDbLine
 10
560.013376503
 20
-469.679824661
 30
0.0
 11
567.753351827
 21
-467.605903533
 31
0.0
  0
LINE
  5
120
100
AcDbEntity
  8
GEKO
  6
SOLID
 62
        7
100
AcDbLine
 10
561.566291465
 20
-475.475379433
 30
0.0
 11
569.30626679
 21
-473.401458306
 31
0.0
  0
LINE
  5
121
100
AcDbEntity
  8
GEKO
  6
SOLID
 62
        7
100
AcDbLine
 10
541.03143989
 20
-480.977678956
 30
0.0
 11
541.610995367
 21
-480.82238746
 31
0.0
  0
LINE
  5
122
100
AcDbEntity
  8
GEKO
  6
SOLID
 62
        7
100
AcDbLine
 10
540.809380103
 20
-422.544073661
 30
0.0
 11
540.839861646
 21
-422.657832273
 31
0.0
  0
LINE
  5
123
100
AcDbEntity
  8
GEKO
  6
SOLID
 62
        7
100
AcDbLine
 10
543.880534605
 20
-432.073922035
 30
0.0
 11
543.268162127
 21
-431.720368718
 31
0.0
  0
LINE
  5
124
100
AcDbEntity
  8
GEKO
  6
SOLID
 62
        7
100
AcDbLine
 10
539.537517501
 20
-425.524823243
 30
0.0
 11
547.535029686
 21
-455.371930804
 31
0.0
  0
ARC
  5
125
100
AcDbEntity
  8
GEKO
  6
SOLID
 62
        7
100
AcDbCircle
 10
539.918561724
 20
-423.662752628
 30
0.0
 40
0.85
100
AcDbArc
 50
105.000014837
 51
284.999998837
  0
LINE
  5
126
100
AcDbEntity
  8
GEKO
  6
SOLID
 62
        7
100
AcDbLine
 10
541.422117459
 20
-425.989949988
 30
0.0
 11
548.979637071
 21
-454.194983697
 31
0.0
  0
ARC
  5
127
100
AcDbEntity
  8
GEKO
  6
SOLID
 62
        7
100
AcDbCircle
 10
540.358554426
 20
-425.304826963
 30
0.0
 40
0.85
100
AcDbArc
 50
93.305495837
 51
285.000006837
  0
ARC
  5
128
100
AcDbEntity
  8
GEKO
  6
SOLID
 62
        7
100
AcDbCircle
 10
539.918561853
 20
-423.662753111
 30
0.0
 40
0.85
100
AcDbArc
 50
93.305495837
 51
285.000006837
  0
ARC
  5
129
100
AcDbEntity
  8
GEKO
  6
SOLID
 62
        7
100
AcDbCircle
 10
548.796059183
 20
-456.794008376
 30
0.0
 40
0.85
100
AcDbArc
 50
93.305495837
 51
285.000006837
  0
ARC
  5
12A
100
AcDbEntity
  8
GEKO
  6
SOLID
 62
        7
100
AcDbCircle
 10
548.356066611
 20
-455.151934524
 30
0.0
 40
0.85
100
AcDbArc
 50
93.305495837
 51
285.000006837
  0
LINE
  5
12B
100
AcDbEntity
  8
GEKO
  6
SOLID
 62
        7
100
AcDbLine
 10
541.71984692
 20
-425.94198046
 30
0.0
 11
543.268162127
 21
-431.720368718
 31
0.0
  0
LINE
  5
12C
100
AcDbEntity
  8
GEKO
  6
SOLID
 62
        7
100
AcDbLine
 10
549.502712262
 20
-420.214701218
 30
0.0
 11
550.209818897
 21
-418.989956262
 31
0.0
  0
LINE
  5
12D
100
AcDbEntity
  8
GEKO
  6
SOLID
 62
        7
100
AcDbLine
 10
546.604934876
 20
-420.991158699
 30
0.0
 11
546.794449878
 21
-421.69843798
 31
0.0
  0
LINE
  5
12E
100
AcDbEntity
  8
GEKO
  6
SOLID
 62
        7
100
AcDbLine
 10
549.063716899
 20
-430.167453755
 30
0.0
 11
548.710163582
 21
-430.779826233
 31
0.0
  0
LINE
  5
12F
100
AcDbEntity
  8
GEKO
  6
SOLID
 62
        7
100
AcDbLine
 10
557.414283926
 20
-453.604776127
 30
0.0
 11
549.416771871
 21
-423.757669049
 31
0.0
  0
LINE
  5
130
100
AcDbEntity
  8
GEKO
  6
SOLID
 62
        7
100
AcDbLine
 10
556.737428109
 20
-457.453824648
 30
0.0
 11
564.245068998
 21
-485.472708518
 31
0.0
  0
LINE
  5
131
100
AcDbEntity
  8
GEKO
  6
SOLID
 62
        7
100
AcDbLine
 10
555.187827107
 20
-458.238930433
 30
0.0
 11
562.602995146
 21
-485.91270109
 31
0.0
  0
LINE
  5
132
100
AcDbEntity
  8
GEKO
  6
SOLID
 62
        7
100
AcDbLine
 10
555.529684097
 20
-453.139649864
 30
0.0
 11
547.972164485
 21
-424.934616156
 31
0.0
  0
LINE
  5
133
100
AcDbEntity
  8
GEKO
  6
SOLID
 62
        7
100
AcDbLine
 10
556.82990096
 20
-457.79893786
 30
0.0
 11
555.187827107
 21
-458.238930433
 31
0.0
  0
ARC
  5
134
100
AcDbEntity
  8
GEKO
  6
SOLID
 62
        7
100
AcDbCircle
 10
548.595734943
 20
-423.977665341
 30
0.0
 40
0.85
100
AcDbArc
 50
-86.694504163
 51
105.000006837
  0
ARC
  5
135
100
AcDbEntity
  8
GEKO
  6
SOLID
 62
        7
100
AcDbCircle
 10
548.155742241
 20
-422.335591006
 30
0.0
 40
0.85
100
AcDbArc
 50
-86.694504163
 51
105.000006837
  0
ARC
  5
136
100
AcDbEntity
  8
GEKO
  6
SOLID
 62
        7
100
AcDbCircle
 10
543.927153775
 20
-422.588653112
 30
0.0
 40
0.85
100
AcDbArc
 50
38.980731837
 51
105.000006837
  0
ARC
  5
137
100
AcDbEntity
  8
GEKO
  6
SOLID
 62
        7
100
AcDbCircle
 10
557.033239571
 20
-455.466846271
 30
0.0
 40
0.85
100
AcDbArc
 50
-86.694504163
 51
105.000006837
  0
ARC
  5
138
100
AcDbEntity
  8
GEKO
  6
SOLID
 62
        7
100
AcDbCircle
 10
556.593246999
 20
-453.824772419
 30
0.0
 40
0.85
100
AcDbArc
 50
-86.694504163
 51
105.000006837
  0
ARC
  5
139
100
AcDbEntity
  8
GEKO
  6
SOLID
 62
        7
100
AcDbCircle
 10
557.892251385
 20
-457.899980156
 30
0.0
 40
2.7
100
AcDbArc
 50
150.314968837
 51
187.068823837
  0
ARC
  5
13A
100
AcDbEntity
  8
GEKO
  6
SOLID
 62
        7
100
AcDbCircle
 10
557.703353903
 20
-457.195005493
 30
0.0
 40
1.0
100
AcDbArc
 50
113.874475837
 51
195.000006837
  0
LINE
  5
13B
100
AcDbEntity
  8
GEKO
  6
SOLID
 62
        7
100
AcDbLine
 10
547.674435153
 20
-424.982586167
 30
0.0
 11
549.063716899
 21
-430.167453755
 31
0.0
  0
LINE
  5
13C
100
AcDbEntity
  8
GEKO
  6
SOLID
 62
        7
100
AcDbLine
 10
533.480217051
 20
-424.50791792
 30
0.0
 11
549.502712262
 21
-420.214701218
 31
0.0
  0
LINE
  5
13D
100
AcDbEntity
  8
GEKO
  6
SOLID
 62
        7
100
AcDbLine
 10
543.880534605
 20
-432.073922035
 30
0.0
 11
548.710163582
 21
-430.779826233
 31
0.0
  0
LINE
  5
13E
100
AcDbEntity
  8
GEKO
  6
SOLID
 62
        7
100
AcDbLine
 10
543.707157489
 20
-421.76761618
 30
0.0
 11
539.698565438
 21
-422.841715696
 31
0.0
  0
LINE
  5
13F
100
AcDbEntity
  8
GEKO
  6
SOLID
 62
        7
100
AcDbLine
 10
548.204753051
 20
-423.184176955
 30
0.0
 11
540.138558141
 21
-424.483790031
 31
0.0
  0
LINE
  5
140
100
AcDbEntity
  8
GEKO
  6
SOLID
 62
        7
100
AcDbLine
 10
547.935745956
 20
-421.514554074
 30
0.0
 11
539.698565568
 21
-422.841716179
 31
0.0
  0
LINE
  5
141
100
AcDbEntity
  8
GEKO
  6
SOLID
 62
        7
100
AcDbLine
 10
549.016055471
 20
-457.615045296
 30
0.0
 11
557.253235859
 21
-456.287883191
 31
0.0
  0
LINE
  5
142
100
AcDbEntity
  8
GEKO
  6
SOLID
 62
        7
100
AcDbLine
 10
540.578550843
 20
-426.125864366
 30
0.0
 11
548.815731231
 21
-424.798702261
 31
0.0
  0
LINE
  5
143
100
AcDbEntity
  8
GEKO
  6
SOLID
 62
        7
100
AcDbLine
 10
556.642257809
 20
-454.673358368
 30
0.0
 11
548.576062898
 21
-455.972971444
 31
0.0
  0
LINE
  5
144
100
AcDbEntity
  8
GEKO
  6
SOLID
 62
        7
100
AcDbLine
 10
556.373250714
 20
-453.003735487
 30
0.0
 11
548.136070325
 21
-454.330897592
 31
0.0
  0
LINE
  5
145
100
AcDbEntity
  8
GEKO
  6
SOLID
 62
        7
100
AcDbLine
 10
544.256978208
 20
-396.773662968
 30
0.0
 11
550.209818897
 21
-418.989956262
 31
0.0
  0
ARC
  5
146
100
AcDbEntity
  8
GEKO
  6
SOLID
 62
        7
100
AcDbCircle
 10
483.482296055
 20
-424.963874205
 30
0.0
 40
50.0
100
AcDbArc
 50
-50.601268617
 51
260.6013666
  0
ARC
  5
147
100
AcDbEntity
  8
GEKO
  6
SOLID
 62
        7
100
AcDbCircle
 10
483.482296055
 20
-424.963874205
 30
0.0
 40
46.5
100
AcDbArc
 50
-49.240675652
 51
259.240780688
  0
LINE
  5
148
100
AcDbEntity
  8
GEKO
  6
SOLID
 62
        7
100
AcDbLine
 10
543.032233253
 20
-396.066556333
 30
0.0
 11
544.256978208
 21
-396.773662968
 31
0.0
  0
LINE
  5
149
100
AcDbEntity
  8
GEKO
  6
SOLID
 62
        7
100
AcDbLine
 10
527.009738042
 20
-400.359773034
 30
0.0
 11
543.032233253
 21
-396.066556333
 31
0.0
  0
LINE
  5
14A
100
AcDbEntity
  8
GEKO
  6
SOLID
 62
        7
100
AcDbLine
 10
507.431000527
 20
-305.70172784
 30
0.0
 11
532.407049503
 21
-398.913567097
 31
0.0
  0
LINE
  5
14B
100
AcDbEntity
  8
GEKO
  6
SOLID
 62
        7
100
AcDbLine
 10
517.090258481
 20
-303.113536237
 30
0.0
 11
542.066307457
 21
-396.325375493
 31
0.0
  0
LINE
  5
14C
100
AcDbEntity
  8
GEKO
  6
SOLID
 62
        7
100
AcDbLine
 10
472.362773346
 20
-479.707153428
 30
0.0
 11
479.609709837
 21
-506.753075699
 31
0.0
  0
LINE
  5
14D
100
AcDbEntity
  8
GEKO
  6
SOLID
 62
        7
100
AcDbLine
 10
462.339370851
 20
-474.692020774
 30
0.0
 11
475.886950474
 21
-478.322082061
 31
0.0
  0
LINE
  5
14E
100
AcDbEntity
  8
GEKO
  6
SOLID
 62
        7
100
AcDbLine
 10
462.339370851
 20
-474.692020774
 30
0.0
 11
463.37464657
 21
-470.828317345
 31
0.0
  0
LINE
  5
14F
100
AcDbEntity
  8
GEKO
  6
SOLID
 62
        7
100
AcDbLine
 10
463.37464657
 20
-470.828317345
 30
0.0
 11
475.27831914
 21
-474.017895275
 31
0.0
  0
LINE
  5
150
100
AcDbEntity
  8
GEKO
  6
SOLID
 62
        7
100
AcDbLine
 10
479.609709837
 20
-506.753075699
 30
0.0
 11
481.335673562
 21
-507.749561046
 31
0.0
  0
LINE
  5
151
100
AcDbEntity
  8
GEKO
  6
SOLID
 62
        7
100
AcDbLine
 10
463.788259637
 20
-475.080249169
 30
0.0
 11
464.823535356
 21
-471.21654574
 31
0.0
  0
LINE
  5
152
100
AcDbEntity
  8
GEKO
  6
SOLID
 62
        7
100
AcDbLine
 10
531.284246866
 20
-463.919184645
 30
0.0
 11
527.420543684
 21
-464.954461286
 31
0.0
  0
LINE
  5
153
100
AcDbEntity
  8
GEKO
  6
SOLID
 62
        7
100
AcDbLine
 10
524.003588288
 20
-454.58283362
 30
0.0
 11
515.151092081
 21
-463.43533194
 31
0.0
  0
LINE
  5
154
100
AcDbEntity
  8
GEKO
  6
SOLID
 62
        7
100
AcDbLine
 10
526.83201575
 20
-457.411260407
 30
0.0
 11
516.776096239
 21
-467.467182318
 31
0.0
  0
LINE
  5
155
100
AcDbEntity
  8
GEKO
  6
SOLID
 62
        7
100
AcDbLine
 10
526.83201575
 20
-457.411260407
 30
0.0
 11
524.003588288
 21
-454.58283362
 31
0.0
  0
LINE
  5
156
100
AcDbEntity
  8
GEKO
  6
SOLID
 62
        7
100
AcDbLine
 10
536.460630073
 20
-483.237700553
 30
0.0
 11
542.413470762
 21
-505.453993847
 31
0.0
  0
LINE
  5
157
100
AcDbEntity
  8
GEKO
  6
SOLID
 62
        7
100
AcDbLine
 10
531.284246866
 20
-463.919184645
 30
0.0
 11
533.465816018
 21
-472.060907673
 31
0.0
  0
LINE
  5
158
100
AcDbEntity
  8
GEKO
  6
SOLID
 62
        7
100
AcDbLine
 10
527.420543684
 20
-464.954461286
 30
0.0
 11
529.232277807
 21
-471.715941854
 31
0.0
  0
LINE
  5
159
100
AcDbEntity
  8
GEKO
  6
SOLID
 62
        7
100
AcDbLine
 10
522.590914707
 20
-466.248557088
 30
0.0
 11
523.74505911
 21
-470.555880582
 31
0.0
  0
LINE
  5
15A
100
AcDbEntity
  8
GEKO
  6
SOLID
 62
        7
100
AcDbLine
 10
529.232277807
 20
-471.715941854
 30
0.0
 11
529.602112836
 21
-473.096184315
 31
0.0
  0
LINE
  5
15B
100
AcDbEntity
  8
GEKO
  6
SOLID
 62
        7
100
AcDbLine
 10
525.771355705
 20
-458.471920705
 30
0.0
 11
522.942928243
 21
-455.643493918
 31
0.0
  0
LINE
  5
15C
100
AcDbEntity
  8
GEKO
  6
SOLID
 62
        7
100
AcDbLine
 10
661.162296955
 20
-477.258722596
 30
0.0
 11
661.291699048
 21
-477.7416875
 31
0.0
  0
LINE
  5
15D
100
AcDbEntity
  8
GEKO
  6
SOLID
 62
        7
100
AcDbLine
 10
531.820469411
 20
-481.375199808
 30
0.0
 11
535.684172592
 21
-480.339923167
 31
0.0
  0
LINE
  5
15E
100
AcDbEntity
  8
GEKO
  6
SOLID
 62
        7
100
AcDbLine
 10
529.491096967
 20
-472.68186765
 30
0.0
 11
533.354800149
 21
-471.646591008
 31
0.0
  0
LINE
  5
15F
100
AcDbEntity
  8
GEKO
  6
SOLID
 62
        7
100
AcDbLine
 10
523.626191349
 20
-470.11226027
 30
0.0
 11
518.4059337
 21
-471.511024759
 31
0.0
  0
LINE
  5
160
100
AcDbEntity
  8
GEKO
  6
SOLID
 62
        7
100
AcDbLine
 10
542.413470762
 20
-505.453993847
 30
0.0
 11
530.251734162
 21
-508.712722903
 31
0.0
  0
LINE
  5
161
100
AcDbEntity
  8
GEKO
  6
SOLID
 62
        7
100
AcDbLine
 10
522.590914707
 20
-466.248557088
 30
0.0
 11
516.899574356
 21
-467.773547867
 31
0.0
  0
LINE
  5
162
100
AcDbEntity
  8
GEKO
  6
SOLID
 62
        7
100
AcDbLine
 10
497.656317041
 20
-508.769787996
 30
0.0
 11
495.265448051
 21
-499.846947708
 31
0.0
  0
LINE
  5
163
100
AcDbEntity
  8
GEKO
  6
SOLID
 62
        7
100
AcDbLine
 10
495.265448051
 20
-499.846947708
 30
0.0
 11
501.797419919
 21
-493.314974281
 31
0.0
  0
LINE
  5
164
100
AcDbEntity
  8
GEKO
  6
SOLID
 62
        7
100
AcDbLine
 10
501.797419919
 20
-493.314974281
 30
0.0
 11
510.720260777
 21
-495.705841142
 31
0.0
  0
LINE
  5
165
100
AcDbEntity
  8
GEKO
  6
SOLID
 62
        7
100
AcDbLine
 10
507.784553845
 20
-305.089355363
 30
0.0
 11
507.431000527
 21
-305.70172784
 31
0.0
  0
LINE
  5
166
100
AcDbEntity
  8
GEKO
  6
SOLID
 62
        7
100
AcDbLine
 10
517.090258481
 20
-303.113536237
 30
0.0
 11
516.477886004
 21
-302.759982919
 31
0.0
  0
LINE
  5
167
100
AcDbEntity
  8
GEKO
  6
SOLID
 62
        7
100
AcDbLine
 10
507.784553845
 20
-305.089355363
 30
0.0
 11
516.477886004
 21
-302.759982919
 31
0.0
  0
CIRCLE
  5
168
100
AcDbEntity
  8
GEKO
  6
SOLID
 62
        7
100
AcDbCircle
 10
508.248932517
 20
-289.435782216
 30
0.0
 40
15.0
  0
LINE
  5
169
100
AcDbEntity
  8
GEKO
  6
SOLID
 62
        7
100
AcDbLine
 10
583.655237698
 20
-1471.895887841
 30
0.0
 11
726.655237698
 21
-1471.895887841
 31
0.0
  0
LINE
  5
16A
100
AcDbEntity
  8
GEKO
  6
SOLID
 62
        7
100
AcDbLine
 10
665.215533432
 20
-473.06691224
 30
0.0
 11
664.6249479
 21
-473.225149419
 31
0.0
  0
LINE
  5
16B
100
AcDbEntity
  8
GEKO
  6
SOLID
 62
        7
100
AcDbLine
 10
665.215458564
 20
-473.0669323
 30
0.0
 11
665.806041642
 21
-472.908685965
 31
0.0
  0
ARC
  5
16C
100
AcDbEntity
  8
GEKO
  6
SOLID
 62
        7
100
AcDbCircle
 10
667.323066426
 20
-476.609852773
 30
0.0
 40
4.0
100
AcDbArc
 50
29.000006837
 51
112.287617311
  0
LINE
  5
16D
100
AcDbEntity
  8
GEKO
  6
SOLID
 62
        7
100
AcDbLine
 10
564.159424166
 20
-494.944584119
 30
0.0
 11
562.312547418
 21
-495.733461022
 31
0.0
  0
LINE
  5
16E
100
AcDbEntity
  8
GEKO
  6
SOLID
 62
        7
100
AcDbLine
 10
566.522451529
 20
-501.458414039
 30
0.0
 11
564.159424166
 21
-494.944584119
 31
0.0
  0
LINE
  5
16F
100
AcDbEntity
  8
GEKO
  6
SOLID
 62
        7
100
AcDbLine
 10
670.821545022
 20
-474.670613884
 30
0.0
 11
670.950954602
 21
-475.153576782
 31
0.0
  0
LINE
  5
170
100
AcDbEntity
  8
GEKO
  6
SOLID
 62
        7
100
AcDbLine
 10
597.057631254
 20
-494.95324255
 30
0.0
 11
735.185019996
 21
-457.942102617
 31
0.0
  0
LINE
  5
171
100
AcDbEntity
  8
GEKO
  6
SOLID
 62
        7
100
AcDbLine
 10
653.154279859
 20
-428.053998271
 30
0.0
 11
671.604245442
 21
-432.997651649
 31
0.0
  0
LINE
  5
172
100
AcDbEntity
  8
GEKO
  6
SOLID
 62
        7
100
AcDbLine
 10
671.604245442
 20
-432.997651649
 30
0.0
 11
676.547898821
 21
-451.447617232
 31
0.0
  0
LINE
  5
173
100
AcDbEntity
  8
GEKO
  6
SOLID
 62
        7
100
AcDbLine
 10
676.547898821
 20
-451.447617232
 30
0.0
 11
663.041586616
 21
-464.953929437
 31
0.0
  0
ARC
  5
174
100
AcDbEntity
  8
GEKO
  6
SOLID
 62
        7
100
AcDbCircle
 10
525.194939751
 20
-520.750130929
 30
0.0
 40
2.0
100
AcDbArc
 50
15.000006837
 51
138.612381436
  0
ARC
  5
175
100
AcDbEntity
  8
GEKO
  6
SOLID
 62
        7
100
AcDbCircle
 10
492.227743783
 20
-476.920821802
 30
0.0
 40
2.0
100
AcDbArc
 50
295.286567449
 51
15.000006837
  0
ARC
  5
176
100
AcDbEntity
  8
GEKO
  6
SOLID
 62
        7
100
AcDbCircle
 10
483.482296055
 20
-424.963874205
 30
0.0
 40
15.0
100
AcDbArc
 50
-57.895357986
 51
267.895371661
  0
ARC
  5
177
100
AcDbEntity
  8
GEKO
  6
SOLID
 62
        7
100
AcDbCircle
 10
556.811718314
 20
-638.745498575
 30
0.0
 40
2.0
100
AcDbArc
 50
15.000006837
 51
177.000006837
  0
LINE
  5
178
100
AcDbEntity
  8
GEKO
  6
SOLID
 62
        7
100
AcDbLine
 10
494.159595374
 20
-476.403183476
 30
0.0
 11
484.789832267
 21
-441.434768196
 31
0.0
  0
LINE
  5
179
100
AcDbEntity
  8
GEKO
  6
SOLID
 62
        7
100
AcDbLine
 10
499.955150147
 20
-474.850268513
 30
0.0
 11
490.585387039
 21
-439.881853234
 31
0.0
  0
ARC
  5
17A
100
AcDbEntity
  8
GEKO
  6
SOLID
 62
        7
100
AcDbCircle
 10
547.247705847
 20
-603.052135161
 30
0.0
 40
2.0
100
AcDbArc
 50
213.000006837
 51
15.000006837
  0
ARC
  5
17B
100
AcDbEntity
  8
GEKO
  6
SOLID
 62
        7
100
AcDbCircle
 10
501.887001737
 20
-474.332630198
 30
0.0
 40
2.0
100
AcDbArc
 50
195.000006837
 51
274.713446226
  0
ARC
  5
17C
100
AcDbEntity
  8
GEKO
  6
SOLID
 62
        7
100
AcDbCircle
 10
499.729633617
 20
-529.880739703
 30
0.0
 40
2.0
100
AcDbArc
 50
80.838301756
 51
213.000006837
  0
ARC
  5
17D
100
AcDbEntity
  8
GEKO
  6
SOLID
 62
        7
100
AcDbCircle
 10
500.986102619
 20
-550.176313006
 30
0.0
 40
2.0
100
AcDbArc
 50
33.000006837
 51
195.000006837
  0
ARC
  5
17E
100
AcDbEntity
  8
GEKO
  6
SOLID
 62
        7
100
AcDbCircle
 10
483.482296055
 20
-424.963874205
 30
0.0
 40
6.0
100
AcDbArc
 50
117.000006837
 51
67.000006837
  0
ARC
  5
17F
100
AcDbEntity
  8
GEKO
  6
SOLID
 62
        7
100
AcDbCircle
 10
482.857980675
 20
-441.952406523
 30
0.0
 40
2.0
100
AcDbArc
 50
15.000006837
 51
87.895371661
  0
CIRCLE
  5
180
100
AcDbEntity
  8
GEKO
  6
SOLID
 62
        7
100
AcDbCircle
 10
483.482296055
 20
-424.963874205
 30
0.0
 40
5.0
  0
ARC
  5
181
100
AcDbEntity
  8
GEKO
  6
SOLID
 62
        7
100
AcDbCircle
 10
492.517238629
 20
-439.364214919
 30
0.0
 40
2.0
100
AcDbArc
 50
122.104642014
 51
195.000006837
  0
LINE
  5
182
100
AcDbEntity
  8
GEKO
  6
SOLID
 62
        7
100
AcDbLine
 10
498.052292612
 20
-530.970017967
 30
0.0
 11
545.570364842
 21
-604.141413425
 31
0.0
  0
LINE
  5
183
100
AcDbEntity
  8
GEKO
  6
SOLID
 62
        7
100
AcDbLine
 10
497.577684756
 20
-419.833570367
 30
0.0
 11
524.007903679
 21
-485.410441429
 31
0.0
  0
LINE
  5
184
100
AcDbEntity
  8
GEKO
  6
SOLID
 62
        7
100
AcDbLine
 10
468.710180072
 20
-427.568598627
 30
0.0
 11
478.609391295
 21
-497.574941967
 31
0.0
  0
ARC
  5
185
100
AcDbEntity
  8
GEKO
  6
SOLID
 62
        7
100
AcDbCircle
 10
504.187828885
 20
-502.237937838
 30
0.0
 40
26.0
100
AcDbArc
 50
40.331681854
 51
169.668331821
  0
LINE
  5
186
100
AcDbEntity
  8
GEKO
  6
SOLID
 62
        7
100
AcDbLine
 10
838.699423375
 20
-832.131180738
 30
0.0
 11
814.569589356
 21
-742.077414202
 31
0.0
  0
LINE
  5
187
100
AcDbEntity
  8
GEKO
  6
SOLID
 62
        7
100
AcDbLine
 10
825.439971222
 20
-782.646258069
 30
0.0
 11
822.542193744
 21
-783.422715204
 31
0.0
  0
ARC
  5
188
100
AcDbEntity
  8
GEKO
  6
SOLID
 62
        7
100
AcDbCircle
 10
822.801012789
 20
-784.38864103
 30
0.0
 40
1.0
100
AcDbArc
 50
105.0
 51
195.0
  0
LINE
  5
189
100
AcDbEntity
  8
GEKO
  6
SOLID
 62
        7
100
AcDbLine
 10
828.046744045
 20
-807.829679906
 30
0.0
 11
821.835086962
 21
-784.647460075
 31
0.0
  0
ARC
  5
18A
100
AcDbEntity
  8
GEKO
  6
SOLID
 62
        7
100
AcDbCircle
 10
829.012669871
 20
-807.570860861
 30
0.0
 40
1.0
100
AcDbArc
 50
195.0
 51
285.0
  0
LINE
  5
18B
100
AcDbEntity
  8
GEKO
  6
SOLID
 62
        7
100
AcDbLine
 10
832.169266395
 20
-807.760329552
 30
0.0
 11
829.271488916
 21
-808.536786687
 31
0.0
  0
LINE
  5
18C
100
AcDbEntity
  8
GEKO
  6
SOLID
 62
        7
100
AcDbLine
 10
736.981059004
 20
-507.704459374
 30
0.0
 11
743.051590752
 21
-506.077442706
 31
0.0
  0
LINE
  5
18D
100
AcDbEntity
  8
GEKO
  6
SOLID
 62
        7
100
AcDbLine
 10
741.856156254
 20
-501.61602255
 30
0.0
 11
735.785335404
 21
-503.243116703
 31
0.0
  0
LINE
  5
18E
100
AcDbEntity
  8
GEKO
  6
SOLID
 62
        7
100
AcDbLine
 10
739.465287257
 20
-492.693182238
 30
0.0
 11
733.393887955
 21
-494.320431427
 31
0.0
  0
LINE
  5
18F
100
AcDbEntity
  8
GEKO
  6
SOLID
 62
        7
100
AcDbLine
 10
738.269852758
 20
-488.231762083
 30
0.0
 11
732.19816423
 21
-489.859088789
 31
0.0
  0
ARC
  5
190
100
AcDbEntity
  8
GEKO
  6
SOLID
 62
        7
100
AcDbCircle
 10
736.055733333
 20
-491.216160236
 30
0.0
 40
4.089315873
100
AcDbArc
 50
160.619469491
 51
229.387973086
  0
ARC
  5
191
100
AcDbEntity
  8
GEKO
  6
SOLID
 62
        7
100
AcDbCircle
 10
748.663781796
 20
-495.009694638
 30
0.0
 40
15.285466596
100
AcDbArc
 50
177.415765198
 51
212.591677379
  0
LINE
  5
192
100
AcDbEntity
  8
GEKO
  6
SOLID
 62
        7
100
AcDbLine
 10
732.105853767
 20
-492.27473927
 30
0.0
 11
735.693024875
 21
-505.658766936
 31
0.0
  0
ARC
  5
193
100
AcDbEntity
  8
GEKO
  6
SOLID
 62
        7
100
AcDbCircle
 10
739.64290444
 20
-504.600187901
 30
0.0
 40
4.089315873
100
AcDbArc
 50
160.619469491
 51
229.387973086
  0
LINE
  5
194
100
AcDbEntity
  8
GEKO
  6
SOLID
 62
        7
100
AcDbLine
 10
738.255127156
 20
-488.177650301
 30
0.0
 11
750.812162496
 21
-484.813001216
 31
0.0
  0
ARC
  5
195
100
AcDbEntity
  8
GEKO
  6
SOLID
 62
        7
100
AcDbCircle
 10
751.329800816
 20
-486.744852813
 30
0.0
 40
2.0
100
AcDbArc
 50
15.000006837
 51
105.000006837
  0
LINE
  5
196
100
AcDbEntity
  8
GEKO
  6
SOLID
 62
        7
100
AcDbLine
 10
753.261652408
 20
-486.227214486
 30
0.0
 11
786.390490708
 21
-609.8656632
 31
0.0
  0
LINE
  5
197
100
AcDbEntity
  8
GEKO
  6
SOLID
 62
        7
100
AcDbLine
 10
805.533839488
 20
-739.264493976
 30
0.0
 11
799.46193982
 21
-740.891032696
 31
0.0
  0
LINE
  5
198
100
AcDbEntity
  8
GEKO
  6
SOLID
 62
        7
100
AcDbLine
 10
801.947596718
 20
-725.880280246
 30
0.0
 11
795.876564759
 21
-727.506586525
 31
0.0
  0
ARC
  5
199
100
AcDbEntity
  8
GEKO
  6
SOLID
 62
        7
100
AcDbCircle
 10
798.538781574
 20
-724.402543566
 30
0.0
 40
4.089315873
100
AcDbArc
 50
160.612033752
 51
229.380537346
  0
ARC
  5
19A
100
AcDbEntity
  8
GEKO
  6
SOLID
 62
        7
100
AcDbCircle
 10
802.124215697
 20
-737.787036656
 30
0.0
 40
4.089315873
100
AcDbArc
 50
160.612033752
 51
229.380537346
  0
LINE
  5
19B
100
AcDbEntity
  8
GEKO
  6
SOLID
 62
        7
100
AcDbLine
 10
804.338464651
 20
-734.803120843
 30
0.0
 11
798.266854218
 21
-736.429582083
 31
0.0
  0
ARC
  5
19C
100
AcDbEntity
  8
GEKO
  6
SOLID
 62
        7
100
AcDbCircle
 10
811.146337613
 20
-728.197714185
 30
0.0
 40
15.285466596
100
AcDbArc
 50
177.408329459
 51
212.584241639
  0
LINE
  5
19D
100
AcDbEntity
  8
GEKO
  6
SOLID
 62
        7
100
AcDbLine
 10
798.174230258
 20
-738.845220564
 30
0.0
 11
794.588796135
 21
-725.460727474
 31
0.0
  0
LINE
  5
19E
100
AcDbEntity
  8
GEKO
  6
SOLID
 62
        7
100
AcDbLine
 10
805.548080398
 20
-739.318250911
 30
0.0
 11
816.408263614
 21
-736.408272199
 31
0.0
  0
LINE
  5
19F
100
AcDbEntity
  8
GEKO
  6
SOLID
 62
        7
100
AcDbLine
 10
819.018562898
 20
-731.635228241
 30
0.0
 11
786.390490708
 21
-609.8656632
 31
0.0
  0
ARC
  5
1A0
100
AcDbEntity
  8
GEKO
  6
SOLID
 62
        7
100
AcDbCircle
 10
815.154859716
 20
-732.670504888
 30
0.0
 40
4.0
100
AcDbArc
 50
295.358271577
 51
15.000006837
  0
LINE
  5
1A1
100
AcDbEntity
  8
GEKO
  6
SOLID
 62
        7
100
AcDbLine
 10
794.681419904
 20
-723.045088779
 30
0.0
 11
800.752162752
 21
-721.418859947
 31
0.0
  0
LINE
  5
1A2
100
AcDbEntity
  8
GEKO
  6
SOLID
 62
        7
100
AcDbLine
 10
594.860544497
 20
-519.353166039
 30
0.0
 11
665.000505719
 21
-781.119064964
 31
0.0
  0
ARC
  5
1A3
100
AcDbEntity
  8
GEKO
  6
SOLID
 62
        7
100
AcDbCircle
 10
504.187828885
 20
-502.237937838
 30
0.0
 40
26.0
100
AcDbArc
 50
220.331681854
 51
349.668331821
  0
CIRCLE
  5
1A4
100
AcDbEntity
  8
GEKO
  6
SOLID
 62
        7
100
AcDbCircle
 10
504.187828885
 20
-502.237937838
 30
0.0
 40
19.0
  0
CIRCLE
  5
1A5
100
AcDbEntity
  8
GEKO
  6
SOLID
 62
        7
100
AcDbCircle
 10
504.187828885
 20
-502.237937838
 30
0.0
 40
12.0
  0
LINE
  5
1A6
100
AcDbEntity
  8
GEKO
  6
SOLID
 62
        7
100
AcDbLine
 10
558.704617554
 20
-815.812761045
 30
0.0
 11
569.057383969
 21
-854.449792861
 31
0.0
  0
ARC
  5
1A7
100
AcDbEntity
  8
GEKO
  6
SOLID
 62
        7
100
AcDbCircle
 10
495.251240093
 20
-528.773524901
 30
0.0
 40
2.0
100
AcDbArc
 50
71.387632239
 51
195.000006837
  0
ARC
  5
1A8
100
AcDbEntity
  8
GEKO
  6
SOLID
 62
        7
100
AcDbCircle
 10
570.606955649
 20
-719.448678431
 30
0.0
 40
20.0
100
AcDbArc
 50
177.000006837
 51
213.000006837
  0
ARC
  5
1A9
100
AcDbEntity
  8
GEKO
  6
SOLID
 62
        7
100
AcDbCircle
 10
543.185922227
 20
-707.668108673
 30
0.0
 40
2.0
100
AcDbArc
 50
195.000006837
 51
357.000006837
  0
ARC
  5
1AA
100
AcDbEntity
  8
GEKO
  6
SOLID
 62
        7
100
AcDbCircle
 10
552.749934694
 20
-743.361472087
 30
0.0
 40
2.0
100
AcDbArc
 50
33.000006837
 51
195.000006837
  0
ARC
  5
1AB
100
AcDbEntity
  8
GEKO
  6
SOLID
 62
        7
100
AcDbCircle
 10
571.956931443
 20
-815.0429256
 30
0.0
 40
2.0
100
AcDbArc
 50
195.000006837
 51
285.000006837
  0
ARC
  5
1AC
100
AcDbEntity
  8
GEKO
  6
SOLID
 62
        7
100
AcDbCircle
 10
595.247647544
 20
-808.802194051
 30
0.0
 40
2.0
100
AcDbArc
 50
285.000006837
 51
33.000006837
  0
ARC
  5
1AD
100
AcDbEntity
  8
GEKO
  6
SOLID
 62
        7
100
AcDbCircle
 10
599.011537921
 20
-796.237294242
 30
0.0
 40
2.0
100
AcDbArc
 50
213.000006837
 51
15.000006837
  0
ARC
  5
1AE
100
AcDbEntity
  8
GEKO
  6
SOLID
 62
        7
100
AcDbCircle
 10
601.900631101
 20
-807.019531628
 30
0.0
 40
2.0
100
AcDbArc
 50
285.000006837
 51
15.000006837
  0
LINE
  5
1AF
100
AcDbEntity
  8
GEKO
  6
SOLID
 62
        7
100
AcDbLine
 10
554.4272757
 20
-742.272193811
 30
0.0
 11
596.924988551
 21
-807.712915774
 31
0.0
  0
LINE
  5
1B0
100
AcDbEntity
  8
GEKO
  6
SOLID
 62
        7
100
AcDbLine
 10
550.63436483
 20
-718.401961684
 30
0.0
 11
554.814459233
 21
-638.640826895
 31
0.0
  0
LINE
  5
1B1
100
AcDbEntity
  8
GEKO
  6
SOLID
 62
        7
100
AcDbLine
 10
553.833545591
 20
-730.341461128
 30
0.0
 11
597.334196916
 21
-797.326572506
 31
0.0
  0
LINE
  5
1B2
100
AcDbEntity
  8
GEKO
  6
SOLID
 62
        7
100
AcDbLine
 10
570.025079853
 20
-815.560563915
 30
0.0
 11
493.319388503
 21
-529.291163215
 31
0.0
  0
LINE
  5
1B3
100
AcDbEntity
  8
GEKO
  6
SOLID
 62
        7
100
AcDbLine
 10
603.832482692
 20
-806.501893302
 30
0.0
 11
527.126791343
 21
-520.232492602
 31
0.0
  0
LINE
  5
1B4
100
AcDbEntity
  8
GEKO
  6
SOLID
 62
        7
100
AcDbLine
 10
572.474569765
 20
-816.974777185
 30
0.0
 11
602.418269422
 21
-808.951383213
 31
0.0
  0
LINE
  5
1B5
100
AcDbEntity
  8
GEKO
  6
SOLID
 62
        7
100
AcDbLine
 10
574.534060847
 20
-855.570511548
 30
0.0
 11
619.932573231
 21
-843.40601101
 31
0.0
  0
LINE
  5
1B6
100
AcDbEntity
  8
GEKO
  6
SOLID
 62
        7
100
AcDbLine
 10
619.932573231
 20
-843.40601101
 30
0.0
 11
524.007903679
 21
-485.410441429
 31
0.0
  0
LINE
  5
1B7
100
AcDbEntity
  8
GEKO
  6
SOLID
 62
        7
100
AcDbLine
 10
574.534060847
 20
-855.570511548
 30
0.0
 11
478.609391295
 21
-497.574941967
 31
0.0
  0
LINE
  5
1B8
100
AcDbEntity
  8
GEKO
  6
SOLID
 62
        7
100
AcDbLine
 10
502.663443626
 20
-549.08703473
 30
0.0
 11
546.164094951
 21
-616.072146108
 31
0.0
  0
ARC
  5
1B9
100
AcDbEntity
  8
GEKO
  6
SOLID
 62
        7
100
AcDbCircle
 10
529.390684892
 20
-626.964928816
 30
0.0
 40
20.0
100
AcDbArc
 50
357.000006837
 51
33.000006837
  0
LINE
  5
1BA
100
AcDbEntity
  8
GEKO
  6
SOLID
 62
        7
100
AcDbLine
 10
545.183181309
 20
-707.772780341
 30
0.0
 11
549.363275713
 21
-628.011645552
 31
0.0
  0
LINE
  5
1BB
100
AcDbEntity
  8
GEKO
  6
SOLID
 62
        7
100
AcDbLine
 10
663.041586616
 20
-464.953929437
 30
0.0
 11
644.591621033
 21
-460.010276059
 31
0.0
  0
CIRCLE
  5
1BC
100
AcDbEntity
  8
GEKO
  6
SOLID
 62
        7
100
AcDbCircle
 10
658.097933238
 20
-446.503963854
 30
0.0
 40
10.0
  0
LINE
  5
1BD
100
AcDbEntity
  8
GEKO
  6
SOLID
 62
        7
100
AcDbLine
 10
733.736131476
 20
-458.330331312
 30
0.0
 11
598.506515796
 21
-494.564997626
 31
0.0
  0
LINE
  5
1BE
100
AcDbEntity
  8
GEKO
  6
SOLID
 62
        7
100
AcDbLine
 10
569.625816381
 20
-844.980105739
 30
0.0
 11
561.60239494
 21
-815.036303564
 31
0.0
  0
LINE
  5
1BF
100
AcDbEntity
  8
GEKO
  6
SOLID
 62
        7
100
AcDbLine
 10
582.071506432
 20
-433.228707657
 30
0.0
 11
717.301122112
 21
-396.994041342
 31
0.0
  0
LINE
  5
1C0
100
AcDbEntity
  8
GEKO
  6
SOLID
 62
        7
100
AcDbLine
 10
565.604827284
 20
-822.246174124
 30
0.0
 11
563.672975693
 21
-822.763812445
 31
0.0
  0
LINE
  5
1C1
100
AcDbEntity
  8
GEKO
  6
SOLID
 62
        7
100
AcDbLine
 10
734.124360044
 20
-459.779220051
 30
0.0
 11
598.894744363
 21
-496.013886365
 31
0.0
  0
LINE
  5
1C2
100
AcDbEntity
  8
GEKO
  6
SOLID
 62
        7
100
AcDbLine
 10
582.459734999
 20
-434.677596396
 30
0.0
 11
717.68935068
 21
-398.442930082
 31
0.0
  0
LINE
  5
1C3
100
AcDbEntity
  8
GEKO
  6
SOLID
 62
        7
100
AcDbLine
 10
561.410050827
 20
-829.773247638
 30
0.0
 11
562.375970472
 21
-829.514430125
 31
0.0
  0
LINE
  5
1C4
100
AcDbEntity
  8
GEKO
  6
SOLID
 62
        7
100
AcDbLine
 10
564.420117692
 20
-841.006964749
 30
0.0
 11
565.386037336
 21
-840.748147236
 31
0.0
  0
CIRCLE
  5
1C5
100
AcDbEntity
  8
GEKO
  6
SOLID
 62
        7
100
AcDbCircle
 10
658.097933238
 20
-446.503963854
 30
0.0
 40
16.5
  0
LINE
  5
1C6
100
AcDbEntity
  8
GEKO
  6
SOLID
 62
        7
100
AcDbLine
 10
663.128811811
 20
-478.802419866
 30
0.0
 11
662.740583244
 21
-477.353531127
 31
0.0
  0
LINE
  5
1C7
100
AcDbEntity
  8
GEKO
  6
SOLID
 62
        7
100
AcDbLine
 10
669.890292595
 20
-476.99068655
 30
0.0
 11
669.502064028
 21
-475.541797811
 31
0.0
  0
ARC
  5
1C8
100
AcDbEntity
  8
GEKO
  6
SOLID
 62
        7
100
AcDbCircle
 10
564.440258914
 20
-839.536652119
 30
0.0
 40
0.400000006
100
AcDbArc
 50
105.000006837
 51
195.000006837
  0
ARC
  5
1C9
100
AcDbEntity
  8
GEKO
  6
SOLID
 62
        7
100
AcDbCircle
 10
562.162650253
 20
-831.036504936
 30
0.0
 40
0.400000006
100
AcDbArc
 50
195.000006837
 51
285.000006837
  0
LINE
  5
1CA
100
AcDbEntity
  8
GEKO
  6
SOLID
 62
        7
100
AcDbLine
 10
564.420117692
 20
-841.006964749
 30
0.0
 11
564.033747368
 21
-841.110492414
 31
0.0
  0
LINE
  5
1CB
100
AcDbEntity
  8
GEKO
  6
SOLID
 62
        7
100
AcDbLine
 10
561.410050827
 20
-829.773247638
 30
0.0
 11
564.420117692
 21
-841.006964749
 31
0.0
  0
LINE
  5
1CC
100
AcDbEntity
  8
GEKO
  6
SOLID
 62
        7
100
AcDbLine
 10
561.023680503
 20
-829.876775303
 30
0.0
 11
561.410050827
 21
-829.773247638
 31
0.0
  0
LINE
  5
1CD
100
AcDbEntity
  8
GEKO
  6
SOLID
 62
        7
100
AcDbLine
 10
556.338741525
 20
-831.324491831
 30
0.0
 11
559.252613194
 21
-842.199203754
 31
0.0
  0
ARC
  5
1CE
100
AcDbEntity
  8
GEKO
  6
SOLID
 62
        7
100
AcDbCircle
 10
559.54809714
 20
-830.464547175
 30
0.0
 40
3.322569529
100
AcDbArc
 50
160.615757684
 51
229.384255991
  0
LINE
  5
1CF
100
AcDbEntity
  8
GEKO
  6
SOLID
 62
        7
100
AcDbLine
 10
557.385161429
 20
-832.986684638
 30
0.0
 11
561.55742338
 21
-831.868729884
 31
0.0
  0
ARC
  5
1D0
100
AcDbEntity
  8
GEKO
  6
SOLID
 62
        7
100
AcDbCircle
 10
569.791937881
 20
-833.547457939
 30
0.0
 40
12.419443168
100
AcDbArc
 50
177.412052161
 51
212.587961513
  0
LINE
  5
1D1
100
AcDbEntity
  8
GEKO
  6
SOLID
 62
        7
100
AcDbLine
 10
559.327742542
 20
-840.236492587
 30
0.0
 11
563.500004492
 21
-839.118537833
 31
0.0
  0
LINE
  5
1D2
100
AcDbEntity
  8
GEKO
  6
SOLID
 62
        7
100
AcDbLine
 10
717.30111462
 20
-396.99404335
 30
0.0
 11
734.512588784
 21
-461.228108744
 31
0.0
  0
LINE
  5
1D3
100
AcDbEntity
  8
GEKO
  6
SOLID
 62
        7
100
AcDbLine
 10
718.750003313
 20
-396.605814609
 30
0.0
 11
735.185019996
 21
-457.942102618
 31
0.0
  0
ARC
  5
1D4
100
AcDbEntity
  8
GEKO
  6
SOLID
 62
        7
100
AcDbCircle
 10
562.461968809
 20
-841.339259099
 30
0.0
 40
3.322569529
100
AcDbArc
 50
160.615757684
 51
229.384255991
  0
LINE
  5
1D5
100
AcDbEntity
  8
GEKO
  6
SOLID
 62
        7
100
AcDbLine
 10
564.471295048
 20
-842.743441808
 30
0.0
 11
560.299033098
 21
-843.861396562
 31
0.0
  0
LINE
  5
1D6
100
AcDbEntity
  8
GEKO
  6
SOLID
 62
        7
100
AcDbLine
 10
560.586132823
 20
-828.24382591
 30
0.0
 11
564.471295048
 21
-842.743441808
 31
0.0
  0
LINE
  5
1D7
100
AcDbEntity
  8
GEKO
  6
SOLID
 62
        7
100
AcDbLine
 10
556.413870873
 20
-829.361780663
 30
0.0
 11
560.586132823
 21
-828.24382591
 31
0.0
  0
CIRCLE
  5
1D8
100
AcDbEntity
  8
GEKO
  6
SOLID
 62
        7
100
AcDbCircle
 10
706.394224552
 20
-433.563011599
 30
0.0
 40
6.0
  0
LINE
  5
1D9
100
AcDbEntity
  8
GEKO
  6
SOLID
 62
        7
100
AcDbLine
 10
709.465281954
 20
-445.024353855
 30
0.0
 11
698.003939698
 21
-441.953296453
 31
0.0
  0
LINE
  5
1DA
100
AcDbEntity
  8
GEKO
  6
SOLID
 62
        7
100
AcDbLine
 10
717.855566808
 20
-436.634069
 30
0.0
 11
709.465281954
 21
-445.024353855
 31
0.0
  0
LINE
  5
1DB
100
AcDbEntity
  8
GEKO
  6
SOLID
 62
        7
100
AcDbLine
 10
563.931794853
 20
-823.72973824
 30
0.0
 11
564.638901488
 21
-822.504993284
 31
0.0
  0
LINE
  5
1DC
100
AcDbEntity
  8
GEKO
  6
SOLID
 62
        7
100
AcDbLine
 10
563.950382063
 20
-839.253888353
 30
0.0
 11
564.916301708
 21
-838.995070841
 31
0.0
  0
LINE
  5
1DD
100
AcDbEntity
  8
GEKO
  6
SOLID
 62
        7
100
AcDbLine
 10
714.784509407
 20
-425.172726744
 30
0.0
 11
717.855566808
 21
-436.634069
 31
0.0
  0
LINE
  5
1DE
100
AcDbEntity
  8
GEKO
  6
SOLID
 62
        7
100
AcDbLine
 10
717.301122112
 20
-396.994041342
 30
0.0
 11
734.124360044
 21
-459.779220051
 31
0.0
  0
LINE
  5
1DF
100
AcDbEntity
  8
GEKO
  6
SOLID
 62
        7
100
AcDbLine
 10
703.32316715
 20
-422.101669342
 30
0.0
 11
714.784509407
 21
-425.172726744
 31
0.0
  0
LINE
  5
1E0
100
AcDbEntity
  8
GEKO
  6
SOLID
 62
        7
100
AcDbLine
 10
562.845752374
 20
-831.267679217
 30
0.0
 11
561.87983273
 21
-831.526496729
 31
0.0
  0
LINE
  5
1E1
100
AcDbEntity
  8
GEKO
  6
SOLID
 62
        7
100
AcDbLine
 10
570.850533868
 20
-845.687109856
 30
0.0
 11
564.638901488
 21
-822.504993284
 31
0.0
  0
LINE
  5
1E2
100
AcDbEntity
  8
GEKO
  6
SOLID
 62
        7
100
AcDbLine
 10
694.932882296
 20
-430.491954197
 30
0.0
 11
703.32316715
 21
-422.101669342
 31
0.0
  0
LINE
  5
1E3
100
AcDbEntity
  8
GEKO
  6
SOLID
 62
        7
100
AcDbLine
 10
698.003939698
 20
-441.953296453
 30
0.0
 11
694.932882296
 21
-430.491954197
 31
0.0
  0
LINE
  5
1E4
100
AcDbEntity
  8
GEKO
  6
SOLID
 62
        7
100
AcDbLine
 10
563.534246531
 20
-814.518665243
 30
0.0
 11
561.60239494
 21
-815.036303564
 31
0.0
  0
LINE
  5
1E5
100
AcDbEntity
  8
GEKO
  6
SOLID
 62
        7
100
AcDbLine
 10
561.60239494
 20
-815.036303564
 30
0.0
 11
558.704617554
 21
-815.812761045
 31
0.0
  0
LINE
  5
1E6
100
AcDbEntity
  8
GEKO
  6
SOLID
 62
        7
100
AcDbLine
 10
569.625816381
 20
-844.980105739
 30
0.0
 11
571.955161355
 21
-853.67333538
 31
0.0
  0
LINE
  5
1E7
100
AcDbEntity
  8
GEKO
  6
SOLID
 62
        7
100
AcDbLine
 10
573.887012946
 20
-853.155697059
 30
0.0
 11
571.955161355
 21
-853.67333538
 31
0.0
  0
LINE
  5
1E8
100
AcDbEntity
  8
GEKO
  6
SOLID
 62
        7
100
AcDbLine
 10
571.955161355
 20
-853.67333538
 30
0.0
 11
569.057383969
 21
-854.449792861
 31
0.0
  0
LINE
  5
1E9
100
AcDbEntity
  8
GEKO
  6
SOLID
 62
        7
100
AcDbLine
 10
580.62261457
 20
-433.616954542
 30
0.0
 11
597.057631254
 21
-494.95324255
 31
0.0
  0
LINE
  5
1EA
100
AcDbEntity
  8
GEKO
  6
SOLID
 62
        7
100
AcDbLine
 10
573.887012946
 20
-853.155697059
 30
0.0
 11
571.816487133
 21
-845.428393214
 31
0.0
  0
LINE
  5
1EB
100
AcDbEntity
  8
GEKO
  6
SOLID
 62
        7
100
AcDbLine
 10
571.816487133
 20
-845.428393214
 30
0.0
 11
569.884635542
 21
-845.946031534
 31
0.0
  0
LINE
  5
1EC
100
AcDbEntity
  8
GEKO
  6
SOLID
 62
        7
100
AcDbLine
 10
569.625816381
 20
-844.980105739
 30
0.0
 11
570.850561337
 21
-845.687212374
 31
0.0
  0
LINE
  5
1ED
100
AcDbEntity
  8
GEKO
  6
SOLID
 62
        7
100
AcDbLine
 10
582.071503263
 20
-433.228725802
 30
0.0
 11
599.282977428
 21
-497.462791196
 31
0.0
  0
ARC
  5
1EE
100
AcDbEntity
  8
GEKO
  6
SOLID
 62
        7
100
AcDbCircle
 10
650.888057235
 20
-415.273562757
 30
0.0
 40
4.0
100
AcDbArc
 50
29.000006837
 51
112.287617311
  0
ARC
  5
1EF
100
AcDbEntity
  8
GEKO
  6
SOLID
 62
        7
100
AcDbCircle
 10
648.726679618
 20
-415.852684475
 30
0.0
 40
4.0
100
AcDbArc
 50
97.711505219
 51
180.999115693
  0
LINE
  5
1F0
100
AcDbEntity
  8
GEKO
  6
SOLID
 62
        7
100
AcDbLine
 10
648.780524241
 20
-411.730622224
 30
0.0
 11
648.189938709
 21
-411.888859403
 31
0.0
  0
LINE
  5
1F1
100
AcDbEntity
  8
GEKO
  6
SOLID
 62
        7
100
AcDbLine
 10
644.727287764
 20
-415.92243258
 30
0.0
 11
644.856689857
 21
-416.405397484
 31
0.0
  0
LINE
  5
1F2
100
AcDbEntity
  8
GEKO
  6
SOLID
 62
        7
100
AcDbLine
 10
648.780449372
 20
-411.730642284
 30
0.0
 11
649.371032451
 21
-411.57239595
 31
0.0
  0
LINE
  5
1F3
100
AcDbEntity
  8
GEKO
  6
SOLID
 62
        7
100
AcDbLine
 10
654.386535831
 20
-413.334323869
 30
0.0
 11
654.515945411
 21
-413.817286766
 31
0.0
  0
LINE
  5
1F4
100
AcDbEntity
  8
GEKO
  6
SOLID
 62
        7
100
AcDbLine
 10
644.591621033
 20
-460.010276059
 30
0.0
 11
639.647967654
 21
-441.560310475
 31
0.0
  0
LINE
  5
1F5
100
AcDbEntity
  8
GEKO
  6
SOLID
 62
        7
100
AcDbLine
 10
639.647967654
 20
-441.560310475
 30
0.0
 11
653.154279859
 21
-428.053998271
 31
0.0
  0
LINE
  5
1F6
100
AcDbEntity
  8
GEKO
  6
SOLID
 62
        7
100
AcDbLine
 10
610.612870198
 20
-462.472461247
 30
0.0
 11
622.074212454
 21
-465.543518649
 31
0.0
  0
LINE
  5
1F7
100
AcDbEntity
  8
GEKO
  6
SOLID
 62
        7
100
AcDbLine
 10
602.222585343
 20
-470.862746102
 30
0.0
 11
610.612870198
 21
-462.472461247
 31
0.0
  0
LINE
  5
1F8
100
AcDbEntity
  8
GEKO
  6
SOLID
 62
        7
100
AcDbLine
 10
635.343393686
 20
-829.441469171
 30
0.0
 11
617.473766471
 21
-834.229623638
 31
0.0
  0
LINE
  5
1F9
100
AcDbEntity
  8
GEKO
  6
SOLID
 62
        7
100
AcDbLine
 10
628.096437575
 20
-802.395473673
 30
0.0
 11
610.226920519
 21
-807.18403926
 31
0.0
  0
LINE
  5
1FA
100
AcDbEntity
  8
GEKO
  6
SOLID
 62
        7
100
AcDbLine
 10
628.096126458
 20
-802.395557045
 30
0.0
 11
631.849274302
 21
-816.401199901
 31
0.0
  0
LINE
  5
1FB
100
AcDbEntity
  8
GEKO
  6
SOLID
 62
        7
100
AcDbLine
 10
635.343393686
 20
-829.441469171
 30
0.0
 11
631.590568066
 21
-815.435739972
 31
0.0
  0
LINE
  5
1FC
100
AcDbEntity
  8
GEKO
  6
SOLID
 62
        7
100
AcDbLine
 10
605.293642745
 20
-482.324088358
 30
0.0
 11
602.222585343
 21
-470.862746102
 31
0.0
  0
LINE
  5
1FD
100
AcDbEntity
  8
GEKO
  6
SOLID
 62
        7
100
AcDbLine
 10
616.754985001
 20
-485.39514576
 30
0.0
 11
605.293642745
 21
-482.324088358
 31
0.0
  0
LINE
  5
1FE
100
AcDbEntity
  8
GEKO
  6
SOLID
 62
        7
100
AcDbLine
 10
628.097426058
 20
-802.399162742
 30
0.0
 11
620.369809715
 21
-804.469772289
 31
0.0
  0
LINE
  5
1FF
100
AcDbEntity
  8
GEKO
  6
SOLID
 62
        7
100
AcDbLine
 10
625.145269856
 20
-477.004860905
 30
0.0
 11
616.754985001
 21
-485.39514576
 31
0.0
  0
LINE
  5
200
100
AcDbEntity
  8
GEKO
  6
SOLID
 62
        7
100
AcDbLine
 10
663.304284394
 20
-833.33726878
 30
0.0
 11
650.880991327
 21
-786.972929989
 31
0.0
  0
LINE
  5
201
100
AcDbEntity
  8
GEKO
  6
SOLID
 62
        7
100
AcDbLine
 10
622.074212454
 20
-465.543518649
 30
0.0
 11
625.145269856
 21
-477.004860905
 31
0.0
  0
LINE
  5
202
100
AcDbEntity
  8
GEKO
  6
SOLID
 62
        7
100
AcDbLine
 10
644.280406375
 20
-847.341870339
 30
0.0
 11
646.324216482
 21
-854.96946986
 31
0.0
  0
ARC
  5
203
100
AcDbEntity
  8
GEKO
  6
SOLID
 62
        7
100
AcDbCircle
 10
654.534585741
 20
-852.769507015
 30
0.0
 40
0.5
100
AcDbArc
 50
195.00000563
 51
285.00000563
  0
ARC
  5
204
100
AcDbEntity
  8
GEKO
  6
SOLID
 62
        7
100
AcDbCircle
 10
645.841253583
 20
-855.098879459
 30
0.0
 40
0.5
100
AcDbArc
 50
285.00000563
 51
15.00000563
  0
LINE
  5
205
100
AcDbEntity
  8
GEKO
  6
SOLID
 62
        7
100
AcDbLine
 10
655.871402567
 20
-852.928945944
 30
0.0
 11
644.76325592
 21
-855.905366288
 31
0.0
  0
LINE
  5
206
100
AcDbEntity
  8
GEKO
  6
SOLID
 62
        7
100
AcDbLine
 10
644.76325592
 20
-855.905366288
 30
0.0
 11
644.840901672
 21
-856.195144039
 31
0.0
  0
LINE
  5
207
100
AcDbEntity
  8
GEKO
  6
SOLID
 62
        7
100
AcDbLine
 10
655.871402567
 20
-852.928945944
 30
0.0
 11
655.949048319
 21
-853.218723694
 31
0.0
  0
LINE
  5
208
100
AcDbEntity
  8
GEKO
  6
SOLID
 62
        7
100
AcDbLine
 10
646.251714881
 20
-860.993498851
 30
0.0
 11
657.126426805
 21
-858.079627182
 31
0.0
  0
ARC
  5
209
100
AcDbEntity
  8
GEKO
  6
SOLID
 62
        7
100
AcDbCircle
 10
645.391770224
 20
-857.784143254
 30
0.0
 40
3.322569529
100
AcDbArc
 50
250.615756476
 51
319.384254784
  0
LINE
  5
20A
100
AcDbEntity
  8
GEKO
  6
SOLID
 62
        7
100
AcDbLine
 10
647.913907689
 20
-859.947078947
 30
0.0
 11
646.77007102
 21
-855.678224423
 31
0.0
  0
ARC
  5
20B
100
AcDbEntity
  8
GEKO
  6
SOLID
 62
        7
100
AcDbCircle
 10
648.474680988
 20
-847.540302513
 30
0.0
 40
12.419443168
100
AcDbArc
 50
267.412050954
 51
302.587960306
  0
LINE
  5
20C
100
AcDbEntity
  8
GEKO
  6
SOLID
 62
        7
100
AcDbLine
 10
655.163715638
 20
-858.004497834
 30
0.0
 11
654.01987897
 21
-853.73564331
 31
0.0
  0
ARC
  5
20D
100
AcDbEntity
  8
GEKO
  6
SOLID
 62
        7
100
AcDbCircle
 10
656.266482148
 20
-854.870271585
 30
0.0
 40
3.322569529
100
AcDbArc
 50
250.615756476
 51
319.384254784
  0
LINE
  5
20E
100
AcDbEntity
  8
GEKO
  6
SOLID
 62
        7
100
AcDbLine
 10
657.644782944
 20
-852.764352754
 30
0.0
 11
658.788619613
 21
-857.033207278
 31
0.0
  0
LINE
  5
20F
100
AcDbEntity
  8
GEKO
  6
SOLID
 62
        7
100
AcDbLine
 10
643.145167046
 20
-856.649514979
 30
0.0
 11
657.644782944
 21
-852.764352754
 31
0.0
  0
LINE
  5
210
100
AcDbEntity
  8
GEKO
  6
SOLID
 62
        7
100
AcDbLine
 10
644.289003714
 20
-860.918369503
 30
0.0
 11
643.145167046
 21
-856.649514979
 31
0.0
  0
LINE
  5
211
100
AcDbEntity
  8
GEKO
  6
SOLID
 62
        7
100
AcDbLine
 10
654.051622845
 20
-852.898916577
 30
0.0
 11
652.007812738
 21
-845.271317056
 31
0.0
  0
LINE
  5
212
100
AcDbEntity
  8
GEKO
  6
SOLID
 62
        7
100
AcDbLine
 10
642.706853212
 20
-847.76350284
 30
0.0
 11
653.581565136
 21
-844.849631171
 31
0.0
  0
LINE
  5
213
100
AcDbEntity
  8
GEKO
  6
SOLID
 62
        7
100
AcDbLine
 10
642.909593998
 20
-841.270336441
 30
0.0
 11
644.369046061
 21
-846.717083089
 31
0.0
  0
LINE
  5
214
100
AcDbEntity
  8
GEKO
  6
SOLID
 62
        7
100
AcDbLine
 10
650.159401947
 20
-839.327755328
 30
0.0
 11
651.61885401
 21
-844.774501977
 31
0.0
  0
ARC
  5
215
100
AcDbEntity
  8
GEKO
  6
SOLID
 62
        7
100
AcDbCircle
 10
652.721620285
 20
-841.640274836
 30
0.0
 40
3.32257028
100
AcDbArc
 50
250.615766548
 51
319.384247127
  0
ARC
  5
216
100
AcDbEntity
  8
GEKO
  6
SOLID
 62
        7
100
AcDbCircle
 10
644.929818481
 20
-834.310303357
 30
0.0
 40
12.419446412
100
AcDbArc
 50
267.412056905
 51
302.58795677
  0
ARC
  5
217
100
AcDbEntity
  8
GEKO
  6
SOLID
 62
        7
100
AcDbCircle
 10
641.846908361
 20
-844.554146505
 30
0.0
 40
3.32257028
100
AcDbArc
 50
250.615766548
 51
319.384247127
  0
LINE
  5
218
100
AcDbEntity
  8
GEKO
  6
SOLID
 62
        7
100
AcDbLine
 10
639.284690024
 20
-842.241626997
 30
0.0
 11
640.744142086
 21
-847.688373646
 31
0.0
  0
LINE
  5
219
100
AcDbEntity
  8
GEKO
  6
SOLID
 62
        7
100
AcDbLine
 10
655.243757985
 20
-843.803211421
 30
0.0
 11
653.784305922
 21
-838.356464772
 31
0.0
  0
ARC
  5
21A
100
AcDbEntity
  8
GEKO
  6
SOLID
 62
        7
100
AcDbCircle
 10
641.806827722
 20
-844.404563593
 30
0.0
 40
3.32257028
100
AcDbArc
 50
70.615766548
 51
139.384247127
  0
LINE
  5
21B
100
AcDbEntity
  8
GEKO
  6
SOLID
 62
        7
100
AcDbLine
 10
651.821594796
 20
-838.281335578
 30
0.0
 11
640.946882872
 21
-841.195207247
 31
0.0
  0
ARC
  5
21C
100
AcDbEntity
  8
GEKO
  6
SOLID
 62
        7
100
AcDbCircle
 10
649.598629526
 20
-851.734535072
 30
0.0
 40
12.419446412
100
AcDbArc
 50
87.412056905
 51
122.58795677
  0
CIRCLE
  5
21D
100
AcDbEntity
  8
GEKO
  6
SOLID
 62
        7
100
AcDbCircle
 10
613.6839276
 20
-473.933803503
 30
0.0
 40
6.0
  0
ARC
  5
21E
100
AcDbEntity
  8
GEKO
  6
SOLID
 62
        7
100
AcDbCircle
 10
652.681539646
 20
-841.490691924
 30
0.0
 40
3.32257028
100
AcDbArc
 50
70.615766548
 51
139.384247127
  0
LINE
  5
21F
100
AcDbEntity
  8
GEKO
  6
SOLID
 62
        7
100
AcDbLine
 10
802.790400456
 20
-747.304203103
 30
0.0
 11
657.901531145
 21
-786.127077158
 31
0.0
  0
LINE
  5
220
100
AcDbEntity
  8
GEKO
  6
SOLID
 62
        7
100
AcDbLine
 10
670.894253008
 20
-834.616552134
 30
0.0
 11
657.125073664
 21
-783.229299772
 31
0.0
  0
LINE
  5
221
100
AcDbEntity
  8
GEKO
  6
SOLID
 62
        7
100
AcDbLine
 10
814.437262673
 20
-790.770863896
 30
0.0
 11
669.548393362
 21
-829.593737952
 31
0.0
  0
LINE
  5
222
100
AcDbEntity
  8
GEKO
  6
SOLID
 62
        7
100
AcDbLine
 10
812.62552855
 20
-784.009383328
 30
0.0
 11
667.736659239
 21
-822.832257384
 31
0.0
  0
LINE
  5
223
100
AcDbEntity
  8
GEKO
  6
SOLID
 62
        7
100
AcDbLine
 10
749.255357126
 20
-817.967907691
 30
0.0
 11
671.981293494
 21
-838.673440521
 31
0.0
  0
LINE
  5
224
100
AcDbEntity
  8
GEKO
  6
SOLID
 62
        7
100
AcDbLine
 10
671.981293494
 20
-838.673440521
 30
0.0
 11
670.894253008
 21
-834.616552134
 31
0.0
  0
LINE
  5
225
100
AcDbEntity
  8
GEKO
  6
SOLID
 62
        7
100
AcDbLine
 10
736.127922399
 20
-807.612693544
 30
0.0
 11
737.16319904
 21
-811.476396726
 31
0.0
  0
LINE
  5
226
100
AcDbEntity
  8
GEKO
  6
SOLID
 62
        7
100
AcDbLine
 10
745.787180353
 20
-805.024501941
 30
0.0
 11
736.127922399
 21
-807.612693545
 31
0.0
  0
LINE
  5
227
100
AcDbEntity
  8
GEKO
  6
SOLID
 62
        7
100
AcDbLine
 10
745.787180353
 20
-805.024501941
 30
0.0
 11
746.822456994
 21
-808.888205122
 31
0.0
  0
LINE
  5
228
100
AcDbEntity
  8
GEKO
  6
SOLID
 62
        7
100
AcDbLine
 10
739.596099173
 20
-820.556099296
 30
0.0
 11
816.870162805
 21
-799.850566467
 31
0.0
  0
LINE
  5
229
100
AcDbEntity
  8
GEKO
  6
SOLID
 62
        7
100
AcDbLine
 10
733.313143842
 20
-770.061691646
 30
0.0
 11
742.889452775
 21
-805.800946076
 31
0.0
  0
LINE
  5
22A
100
AcDbEntity
  8
GEKO
  6
SOLID
 62
        7
100
AcDbLine
 10
741.406890492
 20
-815.722757288
 30
0.0
 11
740.061026235
 21
-810.699925899
 31
0.0
  0
LINE
  5
22B
100
AcDbEntity
  8
GEKO
  6
SOLID
 62
        7
100
AcDbLine
 10
746.719482367
 20
-814.299251906
 30
0.0
 11
739.958001799
 21
-816.110986029
 31
0.0
  0
LINE
  5
22C
100
AcDbEntity
  8
GEKO
  6
SOLID
 62
        7
100
AcDbLine
 10
747.260794892
 20
-816.84592564
 30
0.0
 11
746.719482367
 21
-814.299251906
 31
0.0
  0
LINE
  5
22D
100
AcDbEntity
  8
GEKO
  6
SOLID
 62
        7
100
AcDbLine
 10
744.494634773
 20
-817.587116363
 30
0.0
 11
747.260794892
 21
-816.84592564
 31
0.0
  0
LINE
  5
22E
100
AcDbEntity
  8
GEKO
  6
SOLID
 62
        7
100
AcDbLine
 10
744.184051768
 20
-816.428005363
 30
0.0
 11
744.494634773
 21
-817.587116363
 31
0.0
  0
LINE
  5
22F
100
AcDbEntity
  8
GEKO
  6
SOLID
 62
        7
100
AcDbLine
 10
743.218125973
 20
-816.686824523
 30
0.0
 11
744.184051768
 21
-816.428005363
 31
0.0
  0
LINE
  5
230
100
AcDbEntity
  8
GEKO
  6
SOLID
 62
        7
100
AcDbLine
 10
743.528708978
 20
-817.845935524
 30
0.0
 11
743.218125973
 21
-816.686824523
 31
0.0
  0
LINE
  5
231
100
AcDbEntity
  8
GEKO
  6
SOLID
 62
        7
100
AcDbLine
 10
740.762548859
 20
-818.587126248
 30
0.0
 11
743.528708978
 21
-817.845935524
 31
0.0
  0
LINE
  5
232
100
AcDbEntity
  8
GEKO
  6
SOLID
 62
        7
100
AcDbLine
 10
739.958001799
 20
-816.110986029
 30
0.0
 11
740.762548859
 21
-818.587126248
 31
0.0
  0
LINE
  5
233
100
AcDbEntity
  8
GEKO
  6
SOLID
 62
        7
100
AcDbLine
 10
736.210871419
 20
-769.285247511
 30
0.0
 11
726.551613465
 21
-771.873439114
 31
0.0
  0
LINE
  5
234
100
AcDbEntity
  8
GEKO
  6
SOLID
 62
        7
100
AcDbLine
 10
726.551613465
 20
-771.873439114
 30
0.0
 11
725.516336824
 21
-768.009735933
 31
0.0
  0
LINE
  5
235
100
AcDbEntity
  8
GEKO
  6
SOLID
 62
        7
100
AcDbLine
 10
736.210871419
 20
-769.285247511
 30
0.0
 11
735.175594778
 21
-765.421544329
 31
0.0
  0
LINE
  5
236
100
AcDbEntity
  8
GEKO
  6
SOLID
 62
        7
100
AcDbLine
 10
816.870162805
 20
-799.850566465
 30
0.0
 11
815.783122319
 21
-795.793678078
 31
0.0
  0
LINE
  5
237
100
AcDbEntity
  8
GEKO
  6
SOLID
 62
        7
100
AcDbLine
 10
815.783122319
 20
-795.793678078
 30
0.0
 11
802.013942975
 21
-744.406425717
 31
0.0
  0
ARC
  5
238
100
AcDbEntity
  8
GEKO
  6
SOLID
 62
        7
100
AcDbCircle
 10
661.372432803
 20
-833.854907106
 30
0.0
 40
2.0
100
AcDbArc
 50
285.0
 51
15.000006837
  0
LINE
  5
239
100
AcDbEntity
  8
GEKO
  6
SOLID
 62
        7
100
AcDbLine
 10
601.826534366
 20
-449.048850595
 30
0.0
 11
600.328457585
 21
-443.457951933
 31
0.0
  0
ARC
  5
23A
100
AcDbEntity
  8
GEKO
  6
SOLID
 62
        7
100
AcDbCircle
 10
652.812842918
 20
-786.455291674
 30
0.0
 40
2.0
100
AcDbArc
 50
105.0
 51
195.000006837
  0
LINE
  5
23B
100
AcDbEntity
  8
GEKO
  6
SOLID
 62
        7
100
AcDbLine
 10
639.636241795
 20
-686.458343299
 30
0.0
 11
781.219104604
 21
-648.521320493
 31
0.0
  0
LINE
  5
23C
100
AcDbEntity
  8
GEKO
  6
SOLID
 62
        7
100
AcDbLine
 10
621.001270547
 20
-616.911683807
 30
0.0
 11
762.584125057
 21
-578.974663224
 31
0.0
  0
LINE
  5
23D
100
AcDbEntity
  8
GEKO
  6
SOLID
 62
        7
100
AcDbLine
 10
636.789232298
 20
-675.83315921
 30
0.0
 11
778.37209384
 21
-637.896136744
 31
0.0
  0
LINE
  5
23E
100
AcDbEntity
  8
GEKO
  6
SOLID
 62
        7
100
AcDbLine
 10
1092.99409036
 20
-481.069910494
 30
0.0
 11
1115.06114403
 21
-563.425275964
 31
0.0
  0
ARC
  5
23F
100
AcDbEntity
  8
GEKO
  6
SOLID
 62
        7
100
AcDbCircle
 10
906.657998688
 20
-617.554255414
 30
0.0
 40
5.0
100
AcDbArc
 50
30.0
 51
125.296380912
  0
ARC
  5
240
100
AcDbEntity
  8
GEKO
  6
SOLID
 62
        7
100
AcDbCircle
 10
922.246455956
 20
-608.554255414
 30
0.0
 40
5.0
100
AcDbArc
 50
114.703619088
 51
210.0
  0
ARC
  5
241
100
AcDbEntity
  8
GEKO
  6
SOLID
 62
        7
100
AcDbCircle
 10
1003.741725439
 20
-608.554255414
 30
0.0
 40
5.0
100
AcDbArc
 50
330.0
 51
65.296380912
  0
ARC
  5
242
100
AcDbEntity
  8
GEKO
  6
SOLID
 62
        7
100
AcDbCircle
 10
1019.330182707
 20
-617.554255414
 30
0.0
 40
5.0
100
AcDbArc
 50
54.703619088
 51
150.0
  0
ARC
  5
243
100
AcDbEntity
  8
GEKO
  6
SOLID
 62
        7
100
AcDbCircle
 10
1060.077817449
 20
-688.131229075
 30
0.0
 40
5.0
100
AcDbArc
 50
270.0
 51
5.296380912
  0
ARC
  5
244
100
AcDbEntity
  8
GEKO
  6
SOLID
 62
        7
100
AcDbCircle
 10
1060.077817449
 20
-706.131229075
 30
0.0
 40
5.0
100
AcDbArc
 50
354.703619088
 51
90.0
  0
ARC
  5
245
100
AcDbEntity
  8
GEKO
  6
SOLID
 62
        7
100
AcDbCircle
 10
1019.330182707
 20
-776.708202736
 30
0.0
 40
5.0
100
AcDbArc
 50
210.0
 51
305.296380912
  0
LINE
  5
246
100
AcDbEntity
  8
GEKO
  6
SOLID
 62
        7
100
AcDbLine
 10
1122.993825948
 20
-567.131180738
 30
0.0
 11
1119.890773162
 21
-567.131180738
 31
0.0
  0
ARC
  5
247
100
AcDbEntity
  8
GEKO
  6
SOLID
 62
        7
100
AcDbCircle
 10
1003.741725439
 20
-785.708202736
 30
0.0
 40
5.0
100
AcDbArc
 50
294.703619088
 51
30.0
  0
CIRCLE
  5
248
100
AcDbEntity
  8
GEKO
  6
SOLID
 62
        7
100
AcDbCircle
 10
1224.210775707
 20
-697.131103698
 30
0.0
 40
3.49999994
  0
LINE
  5
249
100
AcDbEntity
  8
GEKO
  6
SOLID
 62
        7
100
AcDbLine
 10
990.493978832
 20
-1086.219238702
 30
0.0
 11
975.493978832
 21
-1086.219238702
 31
0.0
  0
LINE
  5
24A
100
AcDbEntity
  8
GEKO
  6
SOLID
 62
        7
100
AcDbLine
 10
990.493978832
 20
-1080.219238463
 30
0.0
 11
975.493978832
 21
-1080.219238463
 31
0.0
  0
CIRCLE
  5
24B
100
AcDbEntity
  8
GEKO
  6
SOLID
 62
        7
100
AcDbCircle
 10
962.993978832
 20
-1070.01923846
 30
0.0
 40
3.49999994
  0
CIRCLE
  5
24C
100
AcDbEntity
  8
GEKO
  6
SOLID
 62
        7
100
AcDbCircle
 10
962.993978832
 20
-997.919238459
 30
0.0
 40
3.49999994
  0
LINE
  5
24E
100
AcDbEntity
  8
GEKO
  6
CENTER
 62
        7
100
AcDbLine
 10
962.99409036
 20
-455.16059002
 30
0.0
 11
962.99409036
 21
-947.235069445
 31
0.0
  0
LINE
  5
24F
100
AcDbEntity
  8
GEKO
  6
SOLID
 62
        7
100
AcDbLine
 10
990.493978832
 20
-1006.419238459
 30
0.0
 11
975.493978832
 21
-1006.419238459
 31
0.0
  0
LINE
  5
250
100
AcDbEntity
  8
GEKO
  6
SOLID
 62
        7
100
AcDbLine
 10
990.493978832
 20
-1012.419238697
 30
0.0
 11
975.493978832
 21
-1012.419238697
 31
0.0
  0
LINE
  5
251
100
AcDbEntity
  8
GEKO
  6
CENTER
 62
        7
100
AcDbLine
 10
962.99409036
 20
-1112.36202508
 30
0.0
 11
962.99409036
 21
-1151.232220093
 31
0.0
  0
LINE
  5
252
100
AcDbEntity
  8
GEKO
  6
SOLID
 62
        7
100
AcDbLine
 10
935.493978832
 20
-1006.419238459
 30
0.0
 11
950.493978832
 21
-1006.419238459
 31
0.0
  0
LINE
  5
253
100
AcDbEntity
  8
GEKO
  6
SOLID
 62
        7
100
AcDbLine
 10
935.493978832
 20
-1012.419238697
 30
0.0
 11
950.493978832
 21
-1012.419238697
 31
0.0
  0
LINE
  5
254
100
AcDbEntity
  8
GEKO
  6
SOLID
 62
        7
100
AcDbLine
 10
935.493978832
 20
-1080.219238463
 30
0.0
 11
950.493978832
 21
-1080.219238463
 31
0.0
  0
LINE
  5
255
100
AcDbEntity
  8
GEKO
  6
SOLID
 62
        7
100
AcDbLine
 10
935.493978832
 20
-1086.219238702
 30
0.0
 11
950.493978832
 21
-1086.219238702
 31
0.0
  0
LINE
  5
256
100
AcDbEntity
  8
GEKO
  6
SOLID
 62
        7
100
AcDbLine
 10
1231.710775707
 20
-669.631103698
 30
0.0
 11
1231.710775707
 21
-684.631103698
 31
0.0
  0
LINE
  5
257
100
AcDbEntity
  8
GEKO
  6
SOLID
 62
        7
100
AcDbLine
 10
1237.710775945
 20
-669.631103698
 30
0.0
 11
1237.710775945
 21
-684.631103698
 31
0.0
  0
LINE
  5
258
100
AcDbEntity
  8
GEKO
  6
CENTER
 62
        7
100
AcDbLine
 10
962.99409036
 20
-990.418184452
 30
0.0
 11
962.99409036
 21
-1020.084823451
 31
0.0
  0
LINE
  5
259
100
AcDbEntity
  8
GEKO
  6
SOLID
 62
        7
100
AcDbLine
 10
1231.710775707
 20
-724.631103698
 30
0.0
 11
1231.710775707
 21
-709.631103698
 31
0.0
  0
LINE
  5
25A
100
AcDbEntity
  8
GEKO
  6
SOLID
 62
        7
100
AcDbLine
 10
1237.710775945
 20
-724.631103698
 30
0.0
 11
1237.710775945
 21
-709.631103698
 31
0.0
  0
ARC
  5
25B
100
AcDbEntity
  8
GEKO
  6
SOLID
 62
        7
100
AcDbCircle
 10
1119.890773162
 20
-562.131180738
 30
0.0
 40
5.0
100
AcDbArc
 50
195.0
 51
270.0
  0
LINE
  5
25C
100
AcDbEntity
  8
GEKO
  6
SOLID
 62
        7
100
AcDbLine
 10
929.869409183
 20
-746.504860444
 30
0.0
 11
910.988125707
 21
-779.208202736
 31
0.0
  0
LINE
  5
25D
100
AcDbEntity
  8
GEKO
  6
SOLID
 62
        7
100
AcDbLine
 10
936.797612413
 20
-750.504860444
 30
0.0
 11
917.916328937
 21
-783.208202736
 31
0.0
  0
LINE
  5
25E
100
AcDbEntity
  8
GEKO
  6
SOLID
 62
        7
100
AcDbLine
 10
903.672930898
 20
-693.131229075
 30
0.0
 11
865.910363946
 21
-693.131229075
 31
0.0
  0
LINE
  5
25F
100
AcDbEntity
  8
GEKO
  6
SOLID
 62
        7
100
AcDbLine
 10
903.672930898
 20
-701.131229075
 30
0.0
 11
865.910363946
 21
-701.131229075
 31
0.0
  0
LINE
  5
260
100
AcDbEntity
  8
GEKO
  6
SOLID
 62
        7
100
AcDbLine
 10
936.797612413
 20
-643.757597706
 30
0.0
 11
917.916328937
 21
-611.054255414
 31
0.0
  0
LINE
  5
261
100
AcDbEntity
  8
GEKO
  6
SOLID
 62
        7
100
AcDbLine
 10
929.869409182
 20
-647.757597706
 30
0.0
 11
910.988125707
 21
-615.054255414
 31
0.0
  0
LINE
  5
262
100
AcDbEntity
  8
GEKO
  6
SOLID
 62
        7
100
AcDbLine
 10
996.118772213
 20
-647.757597706
 30
0.0
 11
1015.000055689
 21
-615.054255414
 31
0.0
  0
LINE
  5
263
100
AcDbEntity
  8
GEKO
  6
SOLID
 62
        7
100
AcDbLine
 10
989.190568982
 20
-643.757597706
 30
0.0
 11
1008.071852458
 21
-611.054255414
 31
0.0
  0
LINE
  5
264
100
AcDbEntity
  8
GEKO
  6
SOLID
 62
        7
100
AcDbLine
 10
1022.315250497
 20
-701.131229075
 30
0.0
 11
1060.077817449
 21
-701.131229075
 31
0.0
  0
LINE
  5
265
100
AcDbEntity
  8
GEKO
  6
SOLID
 62
        7
100
AcDbLine
 10
1022.315250497
 20
-693.131229075
 30
0.0
 11
1060.077817449
 21
-693.131229075
 31
0.0
  0
LINE
  5
266
100
AcDbEntity
  8
GEKO
  6
SOLID
 62
        7
100
AcDbLine
 10
989.190568982
 20
-750.504860443
 30
0.0
 11
1008.071852458
 21
-783.208202736
 31
0.0
  0
LINE
  5
267
100
AcDbEntity
  8
GEKO
  6
SOLID
 62
        7
100
AcDbLine
 10
996.118772213
 20
-746.504860443
 30
0.0
 11
1015.000055689
 21
-779.208202736
 31
0.0
  0
LINE
  5
268
100
AcDbEntity
  8
GEKO
  6
SOLID
 62
        7
100
AcDbLine
 10
902.542989991
 20
-576.507927513
 30
0.0
 11
893.305737201
 21
-576.588495275
 31
0.0
  0
LINE
  5
269
100
AcDbEntity
  8
GEKO
  6
SOLID
 62
        7
100
AcDbLine
 10
907.23139021
 20
-584.467339229
 30
0.0
 11
902.542990024
 21
-576.50792757
 31
0.0
  0
LINE
  5
26A
100
AcDbEntity
  8
GEKO
  6
SOLID
 62
        7
100
AcDbLine
 10
893.305737011
 20
-576.588495421
 30
0.0
 11
888.75688447
 21
-584.62847495
 31
0.0
  0
LINE
  5
26B
100
AcDbEntity
  8
GEKO
  6
SOLID
 62
        7
100
AcDbLine
 10
888.756884251
 20
-584.628475045
 30
0.0
 11
893.445284437
 21
-592.587886705
 31
0.0
  0
LINE
  5
26C
100
AcDbEntity
  8
GEKO
  6
SOLID
 62
        7
100
AcDbLine
 10
893.445284471
 20
-592.587886762
 30
0.0
 11
902.682537261
 21
-592.507318999
 31
0.0
  0
LINE
  5
26D
100
AcDbEntity
  8
GEKO
  6
SOLID
 62
        7
100
AcDbLine
 10
902.682537451
 20
-592.507318854
 30
0.0
 11
907.231389992
 21
-584.467339325
 31
0.0
  0
LINE
  5
26E
100
AcDbEntity
  8
GEKO
  6
SOLID
 62
        7
100
AcDbLine
 10
1037.231383785
 20
-584.467389395
 30
0.0
 11
1032.542983661
 21
-576.507977699
 31
0.0
  0
LINE
  5
26F
100
AcDbEntity
  8
GEKO
  6
SOLID
 62
        7
100
AcDbLine
 10
1032.682531149
 20
-592.507368947
 30
0.0
 11
1037.231383752
 21
-584.467389453
 31
0.0
  0
LINE
  5
270
100
AcDbEntity
  8
GEKO
  6
SOLID
 62
        7
100
AcDbLine
 10
1032.54298344
 20
-576.507977607
 30
0.0
 11
1023.305730651
 21
-576.588545514
 31
0.0
  0
LINE
  5
271
100
AcDbEntity
  8
GEKO
  6
SOLID
 62
        7
100
AcDbLine
 10
1023.305730459
 20
-576.588545372
 30
0.0
 11
1018.756877856
 21
-584.628524866
 31
0.0
  0
LINE
  5
272
100
AcDbEntity
  8
GEKO
  6
SOLID
 62
        7
100
AcDbLine
 10
1018.756877823
 20
-584.628524924
 30
0.0
 11
1023.445277948
 21
-592.587936619
 31
0.0
  0
LINE
  5
273
100
AcDbEntity
  8
GEKO
  6
SOLID
 62
        7
100
AcDbLine
 10
1023.445278168
 20
-592.587936711
 30
0.0
 11
1032.682530957
 21
-592.507368805
 31
0.0
  0
LINE
  5
274
100
AcDbEntity
  8
GEKO
  6
SOLID
 62
        7
100
AcDbLine
 10
1097.682484492
 20
-705.090690957
 30
0.0
 11
1102.231337158
 21
-697.050711498
 31
0.0
  0
LINE
  5
275
100
AcDbEntity
  8
GEKO
  6
SOLID
 62
        7
100
AcDbLine
 10
1088.445231636
 20
-705.171258792
 30
0.0
 11
1097.682484426
 21
-705.090690957
 31
0.0
  0
LINE
  5
276
100
AcDbEntity
  8
GEKO
  6
SOLID
 62
        7
100
AcDbLine
 10
1102.231337127
 20
-697.050711261
 30
0.0
 11
1097.542936879
 21
-689.091299638
 31
0.0
  0
LINE
  5
277
100
AcDbEntity
  8
GEKO
  6
SOLID
 62
        7
100
AcDbLine
 10
1097.542936906
 20
-689.091299401
 30
0.0
 11
1088.305684116
 21
-689.171867235
 31
0.0
  0
LINE
  5
278
100
AcDbEntity
  8
GEKO
  6
SOLID
 62
        7
100
AcDbLine
 10
1088.30568405
 20
-689.171867236
 30
0.0
 11
1083.756831384
 21
-697.211846695
 31
0.0
  0
LINE
  5
279
100
AcDbEntity
  8
GEKO
  6
SOLID
 62
        7
100
AcDbLine
 10
1083.756831415
 20
-697.211846931
 30
0.0
 11
1088.445231663
 21
-705.171258554
 31
0.0
  0
LINE
  5
27A
100
AcDbEntity
  8
GEKO
  6
CENTER
 62
        7
100
AcDbLine
 10
744.309272953
 20
-697.131180738
 30
0.0
 11
1166.021144098
 21
-697.131180738
 31
0.0
  0
LINE
  5
27B
100
AcDbEntity
  8
GEKO
  6
SOLID
 62
        7
100
AcDbLine
 10
1023.445191405
 20
-817.754530637
 30
0.0
 11
1032.682444195
 21
-817.673962874
 31
0.0
  0
LINE
  5
27C
100
AcDbEntity
  8
GEKO
  6
SOLID
 62
        7
100
AcDbLine
 10
1018.756791185
 20
-809.79511892
 30
0.0
 11
1023.445191371
 21
-817.754530579
 31
0.0
  0
LINE
  5
27D
100
AcDbEntity
  8
GEKO
  6
SOLID
 62
        7
100
AcDbLine
 10
1032.682444384
 20
-817.673962729
 30
0.0
 11
1037.231296925
 21
-809.633983199
 31
0.0
  0
LINE
  5
27E
100
AcDbEntity
  8
GEKO
  6
SOLID
 62
        7
100
AcDbLine
 10
1037.231297144
 20
-809.633983104
 30
0.0
 11
1032.542896958
 21
-801.674571444
 31
0.0
  0
LINE
  5
27F
100
AcDbEntity
  8
GEKO
  6
SOLID
 62
        7
100
AcDbLine
 10
1032.542896924
 20
-801.674571387
 30
0.0
 11
1023.305644134
 21
-801.75513915
 31
0.0
  0
LINE
  5
280
100
AcDbEntity
  8
GEKO
  6
SOLID
 62
        7
100
AcDbLine
 10
1023.305643944
 20
-801.755139295
 30
0.0
 11
1018.756791404
 21
-809.795118824
 31
0.0
  0
LINE
  5
281
100
AcDbEntity
  8
GEKO
  6
SOLID
 62
        7
100
AcDbLine
 10
888.75679761
 20
-809.795068755
 30
0.0
 11
893.445197734
 21
-817.75448045
 31
0.0
  0
LINE
  5
282
100
AcDbEntity
  8
GEKO
  6
SOLID
 62
        7
100
AcDbLine
 10
893.305650246
 20
-801.755089203
 30
0.0
 11
888.756797643
 21
-809.795068697
 31
0.0
  0
LINE
  5
283
100
AcDbEntity
  8
GEKO
  6
SOLID
 62
        7
100
AcDbLine
 10
893.445197955
 20
-817.754480542
 30
0.0
 11
902.682450744
 21
-817.673912636
 31
0.0
  0
LINE
  5
284
100
AcDbEntity
  8
GEKO
  6
SOLID
 62
        7
100
AcDbLine
 10
902.682450936
 20
-817.673912778
 30
0.0
 11
907.231303539
 21
-809.633933284
 31
0.0
  0
LINE
  5
285
100
AcDbEntity
  8
GEKO
  6
SOLID
 62
        7
100
AcDbLine
 10
907.231303572
 20
-809.633933226
 30
0.0
 11
902.542903447
 21
-801.67452153
 31
0.0
  0
LINE
  5
286
100
AcDbEntity
  8
GEKO
  6
SOLID
 62
        7
100
AcDbLine
 10
902.542903227
 20
-801.674521438
 30
0.0
 11
893.305650438
 21
-801.755089345
 31
0.0
  0
LINE
  5
287
100
AcDbEntity
  8
GEKO
  6
SOLID
 62
        7
100
AcDbLine
 10
828.305696903
 20
-689.171767193
 30
0.0
 11
823.756844237
 21
-697.211746651
 31
0.0
  0
LINE
  5
288
100
AcDbEntity
  8
GEKO
  6
SOLID
 62
        7
100
AcDbLine
 10
823.756844268
 20
-697.211746888
 30
0.0
 11
828.445244516
 21
-705.171158511
 31
0.0
  0
LINE
  5
289
100
AcDbEntity
  8
GEKO
  6
SOLID
 62
        7
100
AcDbLine
 10
828.44524449
 20
-705.171158748
 30
0.0
 11
837.682497279
 21
-705.090590914
 31
0.0
  0
LINE
  5
28A
100
AcDbEntity
  8
GEKO
  6
SOLID
 62
        7
100
AcDbLine
 10
837.682497345
 20
-705.090590913
 30
0.0
 11
842.231350011
 21
-697.050611455
 31
0.0
  0
LINE
  5
28B
100
AcDbEntity
  8
GEKO
  6
SOLID
 62
        7
100
AcDbLine
 10
842.23134998
 20
-697.050611218
 30
0.0
 11
837.542949732
 21
-689.091199595
 31
0.0
  0
LINE
  5
28C
100
AcDbEntity
  8
GEKO
  6
SOLID
 62
        7
100
AcDbLine
 10
837.542949759
 20
-689.091199357
 30
0.0
 11
828.30569697
 21
-689.171767192
 31
0.0
  0
LINE
  5
28D
100
AcDbEntity
  8
GEKO
  6
CENTER
 62
        7
100
AcDbLine
 10
894.068926548
 20
-816.513115301
 30
0.0
 11
901.406439803
 21
-803.804169542
 31
0.0
  0
LINE
  5
28E
100
AcDbEntity
  8
GEKO
  6
CENTER
 62
        7
100
AcDbLine
 10
1030.737744632
 20
-814.46667958
 30
0.0
 11
1025.43522866
 21
-805.282452509
 31
0.0
  0
ARC
  5
28F
100
AcDbEntity
  8
GEKO
  6
SOLID
 62
        7
100
AcDbCircle
 10
962.994090698
 20
-697.131229075
 30
0.0
 40
140.0
100
AcDbArc
 50
291.786789298
 51
248.213210702
  0
LINE
  5
290
100
AcDbEntity
  8
GEKO
  6
CENTER
 62
        7
100
AcDbLine
 10
1031.052547686
 20
-579.250523687
 30
0.0
 11
1023.604390479
 21
-592.151110391
 31
0.0
  0
LINE
  5
291
100
AcDbEntity
  8
GEKO
  6
CENTER
 62
        7
100
AcDbLine
 10
895.312311615
 20
-579.902948957
 30
0.0
 11
901.027756435
 21
-589.802389773
 31
0.0
  0
ARC
  5
292
100
AcDbEntity
  8
GEKO
  6
SOLID
 62
        7
100
AcDbCircle
 10
962.994090698
 20
-697.131229075
 30
0.0
 40
102.5
100
AcDbArc
 50
125.296380912
 51
174.703619088
  0
ARC
  5
293
100
AcDbEntity
  8
GEKO
  6
SOLID
 62
        7
100
AcDbCircle
 10
962.994090698
 20
-697.131229075
 30
0.0
 40
55.0
100
AcDbArc
 50
128.626926559
 51
171.373073441
  0
ARC
  5
294
100
AcDbEntity
  8
GEKO
  6
SOLID
 62
        7
100
AcDbCircle
 10
962.994090698
 20
-697.131229075
 30
0.0
 40
102.5
100
AcDbArc
 50
65.296380912
 51
114.703619088
  0
ARC
  5
295
100
AcDbEntity
  8
GEKO
  6
SOLID
 62
        7
100
AcDbCircle
 10
962.994090698
 20
-697.131229075
 30
0.0
 40
55.0
100
AcDbArc
 50
68.626926559
 51
111.373073441
  0
ARC
  5
296
100
AcDbEntity
  8
GEKO
  6
SOLID
 62
        7
100
AcDbCircle
 10
962.994090698
 20
-697.131229075
 30
0.0
 40
102.5
100
AcDbArc
 50
5.296380912
 51
54.703619088
  0
ARC
  5
297
100
AcDbEntity
  8
GEKO
  6
SOLID
 62
        7
100
AcDbCircle
 10
962.994090698
 20
-697.131229075
 30
0.0
 40
55.0
100
AcDbArc
 50
8.626926559
 51
51.373073441
  0
ARC
  5
298
100
AcDbEntity
  8
GEKO
  6
SOLID
 62
        7
100
AcDbCircle
 10
962.994090698
 20
-697.131229075
 30
0.0
 40
102.5
100
AcDbArc
 50
305.296380912
 51
354.703619088
  0
ARC
  5
299
100
AcDbEntity
  8
GEKO
  6
SOLID
 62
        7
100
AcDbCircle
 10
962.994090698
 20
-697.131229075
 30
0.0
 40
55.0
100
AcDbArc
 50
308.626926559
 51
351.373073441
  0
ARC
  5
29A
100
AcDbEntity
  8
GEKO
  6
SOLID
 62
        7
100
AcDbCircle
 10
962.994090698
 20
-697.131229075
 30
0.0
 40
102.5
100
AcDbArc
 50
245.296380912
 51
294.703619088
  0
ARC
  5
29B
100
AcDbEntity
  8
GEKO
  6
SOLID
 62
        7
100
AcDbCircle
 10
962.994090698
 20
-697.131229075
 30
0.0
 40
55.0
100
AcDbArc
 50
248.626926559
 51
291.373073441
  0
ARC
  5
29C
100
AcDbEntity
  8
GEKO
  6
CENTER
 62
        7
100
AcDbCircle
 10
962.994090698
 20
-697.131229075
 30
0.0
 40
130.0
100
AcDbArc
 50
115.296871235
 51
125.006955124
  0
ARC
  5
29D
100
AcDbEntity
  8
GEKO
  6
CENTER
 62
        7
100
AcDbCircle
 10
962.994090698
 20
-697.131229075
 30
0.0
 40
130.0
100
AcDbArc
 50
175.296871235
 51
185.006955124
  0
ARC
  5
29E
100
AcDbEntity
  8
GEKO
  6
CENTER
 62
        7
100
AcDbCircle
 10
962.994090698
 20
-697.131229075
 30
0.0
 40
130.0
100
AcDbArc
 50
235.296871235
 51
245.006955124
  0
ARC
  5
29F
100
AcDbEntity
  8
GEKO
  6
CENTER
 62
        7
100
AcDbCircle
 10
962.994090698
 20
-697.131229075
 30
0.0
 40
130.0
100
AcDbArc
 50
295.296871235
 51
305.006955124
  0
ARC
  5
2A0
100
AcDbEntity
  8
GEKO
  6
CENTER
 62
        7
100
AcDbCircle
 10
962.994090698
 20
-697.131229075
 30
0.0
 40
130.0
100
AcDbArc
 50
355.296871235
 51
5.006955124
  0
ARC
  5
2A1
100
AcDbEntity
  8
GEKO
  6
CENTER
 62
        7
100
AcDbCircle
 10
962.994090698
 20
-697.131229075
 30
0.0
 40
130.0
100
AcDbArc
 50
55.296871235
 51
65.006955124
  0
ARC
  5
2A2
100
AcDbEntity
  8
GEKO
  6
SOLID
 62
        7
100
AcDbCircle
 10
962.994090698
 20
-697.131229075
 30
0.0
 40
102.5
100
AcDbArc
 50
185.296380912
 51
234.703619088
  0
ARC
  5
2A3
100
AcDbEntity
  8
GEKO
  6
SOLID
 62
        7
100
AcDbCircle
 10
962.994090698
 20
-697.131229075
 30
0.0
 40
55.0
100
AcDbArc
 50
188.626926559
 51
231.373073441
  0
CIRCLE
  5
2A4
100
AcDbEntity
  8
GEKO
  6
SOLID
 62
        7
100
AcDbCircle
 10
962.994090698
 20
-697.131229075
 30
0.0
 40
40.0
  0
LINE
  5
2A5
100
AcDbEntity
  8
GEKO
  6
SOLID
 62
        7
100
AcDbLine
 10
1014.955614925
 20
-827.131229075
 30
0.0
 11
911.03256647
 21
-827.131229075
 31
0.0
  0
ARC
  5
2A6
100
AcDbEntity
  8
GEKO
  6
SOLID
 62
        7
100
AcDbCircle
 10
922.246455956
 20
-785.708202736
 30
0.0
 40
5.0
100
AcDbArc
 50
150.0
 51
245.296380912
  0
ARC
  5
2A7
100
AcDbEntity
  8
GEKO
  6
SOLID
 62
        7
100
AcDbCircle
 10
906.657998688
 20
-776.708202736
 30
0.0
 40
5.0
100
AcDbArc
 50
234.703619088
 51
330.0
  0
ARC
  5
2A8
100
AcDbEntity
  8
GEKO
  6
SOLID
 62
        7
100
AcDbCircle
 10
865.910363946
 20
-706.131229075
 30
0.0
 40
5.0
100
AcDbArc
 50
90.0
 51
185.296380912
  0
ARC
  5
2A9
100
AcDbEntity
  8
GEKO
  6
SOLID
 62
        7
100
AcDbCircle
 10
865.910363946
 20
-688.131229075
 30
0.0
 40
5.0
100
AcDbArc
 50
174.703619088
 51
270.0
  0
ARC
  5
2AA
100
AcDbEntity
  8
GEKO
  6
SOLID
 62
        7
100
AcDbCircle
 10
925.539282164
 20
-650.257597706
 30
0.0
 40
5.0
100
AcDbArc
 50
308.626926559
 51
30.0
  0
ARC
  5
2AB
100
AcDbEntity
  8
GEKO
  6
SOLID
 62
        7
100
AcDbCircle
 10
941.127739432
 20
-641.257597706
 30
0.0
 40
5.0
100
AcDbArc
 50
210.0
 51
291.373073441
  0
ARC
  5
2AC
100
AcDbEntity
  8
GEKO
  6
SOLID
 62
        7
100
AcDbCircle
 10
984.860441963
 20
-641.257597706
 30
0.0
 40
5.0
100
AcDbArc
 50
248.626926559
 51
330.0
  0
ARC
  5
2AD
100
AcDbEntity
  8
GEKO
  6
SOLID
 62
        7
100
AcDbCircle
 10
1000.448899231
 20
-650.257597706
 30
0.0
 40
5.0
100
AcDbArc
 50
150.0
 51
231.373073441
  0
ARC
  5
2AE
100
AcDbEntity
  8
GEKO
  6
SOLID
 62
        7
100
AcDbCircle
 10
1022.315250497
 20
-688.131229075
 30
0.0
 40
5.0
100
AcDbArc
 50
188.626926559
 51
270.0
  0
ARC
  5
2AF
100
AcDbEntity
  8
GEKO
  6
SOLID
 62
        7
100
AcDbCircle
 10
1022.315250497
 20
-706.131229075
 30
0.0
 40
5.0
100
AcDbArc
 50
90.0
 51
171.373073441
  0
ARC
  5
2B0
100
AcDbEntity
  8
GEKO
  6
SOLID
 62
        7
100
AcDbCircle
 10
1000.448899232
 20
-744.004860443
 30
0.0
 40
5.0
100
AcDbArc
 50
128.626926559
 51
210.0
  0
ARC
  5
2B1
100
AcDbEntity
  8
GEKO
  6
SOLID
 62
        7
100
AcDbCircle
 10
984.860441963
 20
-753.004860443
 30
0.0
 40
5.0
100
AcDbArc
 50
30.0
 51
111.373073441
  0
ARC
  5
2B2
100
AcDbEntity
  8
GEKO
  6
SOLID
 62
        7
100
AcDbCircle
 10
941.127739432
 20
-753.004860443
 30
0.0
 40
5.0
100
AcDbArc
 50
68.626926559
 51
150.0
  0
ARC
  5
2B3
100
AcDbEntity
  8
GEKO
  6
SOLID
 62
        7
100
AcDbCircle
 10
925.539282164
 20
-744.004860443
 30
0.0
 40
5.0
100
AcDbArc
 50
330.0
 51
51.373073441
  0
ARC
  5
2B4
100
AcDbEntity
  8
GEKO
  6
SOLID
 62
        7
100
AcDbCircle
 10
903.672930898
 20
-706.131229075
 30
0.0
 40
5.0
100
AcDbArc
 50
8.626926559
 51
90.0
  0
ARC
  5
2B5
100
AcDbEntity
  8
GEKO
  6
SOLID
 62
        7
100
AcDbCircle
 10
903.672930898
 20
-688.131229075
 30
0.0
 40
5.0
100
AcDbArc
 50
270.0
 51
351.373073441
  0
LINE
  5
2B6
100
AcDbEntity
  8
GEKO
  6
SOLID
 62
        7
100
AcDbLine
 10
999.994073225
 20
-831.131407573
 30
0.0
 11
1000.994073296
 21
-832.131407502
 31
0.0
  0
LINE
  5
2B7
100
AcDbEntity
  8
GEKO
  6
SOLID
 62
        7
100
AcDbLine
 10
1024.994074012
 20
-832.131405829
 30
0.0
 11
1025.994073942
 21
-831.131405758
 31
0.0
  0
LINE
  5
2B8
100
AcDbEntity
  8
GEKO
  6
SOLID
 62
        7
100
AcDbLine
 10
1024.99407399
 20
-832.131405829
 30
0.0
 11
1000.99407399
 21
-832.13140753
 31
0.0
  0
LINE
  5
2B9
100
AcDbEntity
  8
GEKO
  6
SOLID
 62
        7
100
AcDbLine
 10
1025.994073971
 20
-831.13139929
 30
0.0
 11
1025.994073687
 21
-827.13139929
 31
0.0
  0
LINE
  5
2BA
100
AcDbEntity
  8
GEKO
  6
SOLID
 62
        7
100
AcDbLine
 10
999.994073225
 20
-831.131401134
 30
0.0
 11
999.994072941
 21
-827.131401134
 31
0.0
  0
ARC
  5
2BB
100
AcDbEntity
  8
GEKO
  6
L_DASH
 62
        7
100
AcDbCircle
 10
962.99409036
 20
-697.131180738
 30
0.0
 40
180.0
100
AcDbArc
 50
27.266228167
 51
214.944465687
  0
LINE
  5
2BC
100
AcDbEntity
  8
GEKO
  6
SOLID
 62
        7
100
AcDbLine
 10
1214.002579601
 20
-697.131180738
 30
0.0
 11
1287.065220025
 21
-697.131180738
 31
0.0
  0
LINE
  5
2BD
100
AcDbEntity
  8
GEKO
  6
CENTER
 62
        7
100
AcDbLine
 10
962.99409036
 20
-1058.465724655
 30
0.0
 11
962.99409036
 21
-1119.519479479
 31
0.0
  0
LINE
  5
2BE
100
AcDbEntity
  8
GEKO
  6
SOLID
 62
        7
100
AcDbLine
 10
1097.99409036
 20
-827.131180738
 30
0.0
 11
1122.993825948
 21
-827.131180738
 31
0.0
  0
LINE
  5
2BF
100
AcDbEntity
  8
GEKO
  6
SOLID
 62
        7
100
AcDbLine
 10
832.99409036
 20
-480.131454681
 30
0.0
 11
832.99409036
 21
-477.111468796
 31
0.0
  0
ARC
  5
2C0
100
AcDbEntity
  8
GEKO
  6
SOLID
 62
        7
100
AcDbCircle
 10
827.99409036
 20
-480.131454681
 30
0.0
 40
5.0
100
AcDbArc
 50
270.0
 51
360.0
  0
ARC
  5
2C1
100
AcDbEntity
  8
GEKO
  6
SOLID
 62
        7
100
AcDbCircle
 10
1097.99409036
 20
-832.131180738
 30
0.0
 40
5.0
100
AcDbArc
 50
90.0
 51
180.0
  0
LINE
  5
2C2
100
AcDbEntity
  8
GEKO
  6
SOLID
 62
        7
100
AcDbLine
 10
1122.993825948
 20
-827.131180738
 30
0.0
 11
1122.993825948
 21
-767.131180738
 31
0.0
  0
LINE
  5
2C3
100
AcDbEntity
  8
GEKO
  6
SOLID
 62
        7
100
AcDbLine
 10
1032.99409036
 20
-832.131180738
 30
0.0
 11
1092.99409036
 21
-832.131180738
 31
0.0
  0
ARC
  5
2C4
100
AcDbEntity
  8
GEKO
  6
SOLID
 62
        7
100
AcDbCircle
 10
1027.99409036
 20
-832.131180738
 30
0.0
 40
5.0
100
AcDbArc
 50
360.0
 51
90.0
  0
LINE
  5
2C5
100
AcDbEntity
  8
GEKO
  6
SOLID
 62
        7
100
AcDbLine
 10
897.99409036
 20
-827.131180738
 30
0.0
 11
1027.99409036
 21
-827.131180738
 31
0.0
  0
LINE
  5
2C6
100
AcDbEntity
  8
GEKO
  6
SOLID
 62
        7
100
AcDbLine
 10
749.623749184
 20
-485.131454681
 30
0.0
 11
827.99409036
 21
-485.131454681
 31
0.0
  0
ARC
  5
2C7
100
AcDbEntity
  8
GEKO
  6
SOLID
 62
        7
100
AcDbCircle
 10
1122.993825948
 20
-762.131180738
 30
0.0
 40
5.0
100
AcDbArc
 50
180.0
 51
270.0
  0
LINE
  5
2C8
100
AcDbEntity
  8
GEKO
  6
SOLID
 62
        7
100
AcDbLine
 10
892.99409036
 20
-832.131180738
 30
0.0
 11
862.994105619
 21
-832.131180738
 31
0.0
  0
LINE
  5
2C9
100
AcDbEntity
  8
GEKO
  6
SOLID
 62
        7
100
AcDbLine
 10
897.99409036
 20
-485.131454681
 30
0.0
 11
1027.99409036
 21
-485.131454681
 31
0.0
  0
LINE
  5
2CA
100
AcDbEntity
  8
GEKO
  6
SOLID
 62
        7
100
AcDbLine
 10
1074.49409036
 20
-797.131180738
 30
0.0
 11
1074.49409036
 21
-832.131180738
 31
0.0
  0
LINE
  5
2CB
100
AcDbEntity
  8
GEKO
  6
SOLID
 62
        7
100
AcDbLine
 10
1056.49409036
 20
-797.131180738
 30
0.0
 11
1056.49409036
 21
-832.131180738
 31
0.0
  0
ARC
  5
2CC
100
AcDbEntity
  8
GEKO
  6
SOLID
 62
        7
100
AcDbCircle
 10
897.99409036
 20
-832.131180738
 30
0.0
 40
5.0
100
AcDbArc
 50
90.0
 51
180.0
  0
LINE
  5
2CD
100
AcDbEntity
  8
GEKO
  6
SOLID
 62
        7
100
AcDbLine
 10
838.699423375
 20
-832.131180738
 30
0.0
 11
862.99409036
 21
-832.131180738
 31
0.0
  0
LINE
  5
2CE
100
AcDbEntity
  8
GEKO
  6
SOLID
 62
        7
100
AcDbLine
 10
1032.99409036
 20
-477.111468796
 30
0.0
 11
1092.99409036
 21
-477.111468796
 31
0.0
  0
LINE
  5
2CF
100
AcDbEntity
  8
GEKO
  6
SOLID
 62
        7
100
AcDbLine
 10
1122.993825948
 20
-627.131180738
 30
0.0
 11
1122.993825948
 21
-567.131180738
 31
0.0
  0
ARC
  5
2D0
100
AcDbEntity
  8
GEKO
  6
SOLID
 62
        7
100
AcDbCircle
 10
1122.993825948
 20
-632.131180738
 30
0.0
 40
5.0
100
AcDbArc
 50
90.0
 51
180.0
  0
LINE
  5
2D1
100
AcDbEntity
  8
GEKO
  6
SOLID
 62
        7
100
AcDbLine
 10
892.99409036
 20
-480.131454681
 30
0.0
 11
892.99409036
 21
-477.111468796
 31
0.0
  0
LINE
  5
2D2
100
AcDbEntity
  8
GEKO
  6
SOLID
 62
        7
100
AcDbLine
 10
1117.993825948
 20
-762.131180738
 30
0.0
 11
1117.993825948
 21
-632.131180738
 31
0.0
  0
LINE
  5
2D3
100
AcDbEntity
  8
GEKO
  6
SOLID
 62
        7
100
AcDbLine
 10
1092.99409036
 20
-481.069910494
 30
0.0
 11
1092.99409036
 21
-477.111468796
 31
0.0
  0
ARC
  5
2D4
100
AcDbEntity
  8
GEKO
  6
SOLID
 62
        7
100
AcDbCircle
 10
897.99409036
 20
-480.131454681
 30
0.0
 40
5.0
100
AcDbArc
 50
180.0
 51
270.0
  0
LINE
  5
2D5
100
AcDbEntity
  8
GEKO
  6
SOLID
 62
        7
100
AcDbLine
 10
1032.99409036
 20
-480.131454681
 30
0.0
 11
1032.99409036
 21
-477.111468796
 31
0.0
  0
ARC
  5
2D6
100
AcDbEntity
  8
GEKO
  6
SOLID
 62
        7
100
AcDbCircle
 10
1027.99409036
 20
-480.131454681
 30
0.0
 40
5.0
100
AcDbArc
 50
270.0
 51
0.0
  0
LINE
  5
2D7
100
AcDbEntity
  8
GEKO
  6
SOLID
 62
        7
100
AcDbLine
 10
1072.49409036
 20
-789.131180738
 30
0.0
 11
1072.49409036
 21
-832.131180738
 31
0.0
  0
LINE
  5
2D8
100
AcDbEntity
  8
GEKO
  6
SOLID
 62
        7
100
AcDbLine
 10
832.99409036
 20
-477.111468796
 30
0.0
 11
892.99409036
 21
-477.111468796
 31
0.0
  0
LINE
  5
2D9
100
AcDbEntity
  8
GEKO
  6
SOLID
 62
        7
100
AcDbLine
 10
1058.49409036
 20
-789.131180738
 30
0.0
 11
1058.49409036
 21
-832.131180738
 31
0.0
  0
LINE
  5
2DA
100
AcDbEntity
  8
GEKO
  6
SOLID
 62
        7
100
AcDbLine
 10
1057.49409036
 20
-797.131180738
 30
0.0
 11
1073.49409036
 21
-797.131180738
 31
0.0
  0
LINE
  5
2DB
100
AcDbEntity
  8
GEKO
  6
SOLID
 62
        7
100
AcDbLine
 10
1058.49409036
 20
-789.131180738
 30
0.0
 11
1072.49409036
 21
-789.131180738
 31
0.0
  0
LINE
  5
2DC
100
AcDbEntity
  8
GEKO
  6
SOLID
 62
        7
100
AcDbLine
 10
1072.49409036
 20
-789.131180738
 30
0.0
 11
1065.49409036
 21
-785.089728854
 31
0.0
  0
LINE
  5
2DD
100
AcDbEntity
  8
GEKO
  6
SOLID
 62
        7
100
AcDbLine
 10
1058.49409036
 20
-789.131180738
 30
0.0
 11
1065.49409036
 21
-785.089728854
 31
0.0
  0
LINE
  5
2DE
100
AcDbEntity
  8
GEKO
  6
SOLID
 62
        7
100
AcDbLine
 10
1087.993843669
 20
-808.631164659
 30
0.0
 11
1122.993843669
 21
-808.631164659
 31
0.0
  0
LINE
  5
2DF
100
AcDbEntity
  8
GEKO
  6
SOLID
 62
        7
100
AcDbLine
 10
1087.993843669
 20
-790.631164659
 30
0.0
 11
1122.993843669
 21
-790.631164659
 31
0.0
  0
LINE
  5
2E0
100
AcDbEntity
  8
GEKO
  6
SOLID
 62
        7
100
AcDbLine
 10
1079.993843669
 20
-792.631164659
 30
0.0
 11
1122.993843669
 21
-792.631164659
 31
0.0
  0
LINE
  5
2E1
100
AcDbEntity
  8
GEKO
  6
SOLID
 62
        7
100
AcDbLine
 10
1079.993843669
 20
-806.631164659
 30
0.0
 11
1122.993843669
 21
-806.631164659
 31
0.0
  0
LINE
  5
2E2
100
AcDbEntity
  8
GEKO
  6
SOLID
 62
        7
100
AcDbLine
 10
1087.993843669
 20
-807.631164659
 30
0.0
 11
1087.993843669
 21
-791.631164659
 31
0.0
  0
LINE
  5
2E3
100
AcDbEntity
  8
GEKO
  6
SOLID
 62
        7
100
AcDbLine
 10
1079.993843669
 20
-806.631164659
 30
0.0
 11
1079.993843669
 21
-792.631164659
 31
0.0
  0
LINE
  5
2E4
100
AcDbEntity
  8
GEKO
  6
SOLID
 62
        7
100
AcDbLine
 10
1079.993843669
 20
-792.631164659
 30
0.0
 11
1075.952391784
 21
-799.631164659
 31
0.0
  0
LINE
  5
2E5
100
AcDbEntity
  8
GEKO
  6
SOLID
 62
        7
100
AcDbLine
 10
1079.993843669
 20
-806.631164659
 30
0.0
 11
1075.952391784
 21
-799.631164659
 31
0.0
  0
LINE
  5
2E6
100
AcDbEntity
  8
GEKO
  6
CENTER
 62
        7
100
AcDbLine
 10
1071.538924594
 20
-799.631164659
 30
0.0
 11
1128.713381513
 21
-799.631164659
 31
0.0
  0
LINE
  5
2E7
100
AcDbEntity
  8
GEKO
  6
SOLID
 62
        7
100
AcDbLine
 10
869.494102248
 20
-512.111468114
 30
0.0
 11
869.494102248
 21
-477.111468114
 31
0.0
  0
LINE
  5
2E8
100
AcDbEntity
  8
GEKO
  6
SOLID
 62
        7
100
AcDbLine
 10
851.494102248
 20
-512.111468114
 30
0.0
 11
851.494102248
 21
-477.111468114
 31
0.0
  0
LINE
  5
2E9
100
AcDbEntity
  8
GEKO
  6
SOLID
 62
        7
100
AcDbLine
 10
853.494102248
 20
-520.111468114
 30
0.0
 11
853.494102248
 21
-477.111468114
 31
0.0
  0
LINE
  5
2EA
100
AcDbEntity
  8
GEKO
  6
SOLID
 62
        7
100
AcDbLine
 10
867.494102248
 20
-520.111468114
 30
0.0
 11
867.494102248
 21
-477.111468114
 31
0.0
  0
LINE
  5
2EB
100
AcDbEntity
  8
GEKO
  6
SOLID
 62
        7
100
AcDbLine
 10
868.494102248
 20
-512.111468114
 30
0.0
 11
852.494102248
 21
-512.111468114
 31
0.0
  0
LINE
  5
2EC
100
AcDbEntity
  8
GEKO
  6
SOLID
 62
        7
100
AcDbLine
 10
867.494102248
 20
-520.111468114
 30
0.0
 11
853.494102248
 21
-520.111468114
 31
0.0
  0
LINE
  5
2ED
100
AcDbEntity
  8
GEKO
  6
SOLID
 62
        7
100
AcDbLine
 10
853.494102248
 20
-520.111468114
 30
0.0
 11
860.494102248
 21
-524.152919998
 31
0.0
  0
LINE
  5
2EE
100
AcDbEntity
  8
GEKO
  6
SOLID
 62
        7
100
AcDbLine
 10
867.494102248
 20
-520.111468114
 30
0.0
 11
860.494102248
 21
-524.152919998
 31
0.0
  0
LINE
  5
2EF
100
AcDbEntity
  8
GEKO
  6
CENTER
 62
        7
100
AcDbLine
 10
860.494102248
 20
-528.566387188
 30
0.0
 11
860.494102248
 21
-471.39193027
 31
0.0
  0
LINE
  5
2F0
100
AcDbEntity
  8
GEKO
  6
SOLID
 62
        7
100
AcDbLine
 10
1074.494086989
 20
-512.111468114
 30
0.0
 11
1074.494086989
 21
-477.111468114
 31
0.0
  0
LINE
  5
2F1
100
AcDbEntity
  8
GEKO
  6
SOLID
 62
        7
100
AcDbLine
 10
1056.494086989
 20
-512.111468114
 30
0.0
 11
1056.494086989
 21
-477.111468114
 31
0.0
  0
LINE
  5
2F2
100
AcDbEntity
  8
GEKO
  6
SOLID
 62
        7
100
AcDbLine
 10
1058.494086989
 20
-520.111468114
 30
0.0
 11
1058.494086989
 21
-477.111468114
 31
0.0
  0
LINE
  5
2F3
100
AcDbEntity
  8
GEKO
  6
SOLID
 62
        7
100
AcDbLine
 10
1072.494086989
 20
-520.111468114
 30
0.0
 11
1072.494086989
 21
-477.111468114
 31
0.0
  0
LINE
  5
2F4
100
AcDbEntity
  8
GEKO
  6
SOLID
 62
        7
100
AcDbLine
 10
1073.494086989
 20
-512.111468114
 30
0.0
 11
1057.494086989
 21
-512.111468114
 31
0.0
  0
LINE
  5
2F5
100
AcDbEntity
  8
GEKO
  6
SOLID
 62
        7
100
AcDbLine
 10
1072.494086989
 20
-520.111468114
 30
0.0
 11
1058.494086989
 21
-520.111468114
 31
0.0
  0
LINE
  5
2F6
100
AcDbEntity
  8
GEKO
  6
SOLID
 62
        7
100
AcDbLine
 10
1058.494086989
 20
-520.111468114
 30
0.0
 11
1065.494086989
 21
-524.152919998
 31
0.0
  0
LINE
  5
2F7
100
AcDbEntity
  8
GEKO
  6
SOLID
 62
        7
100
AcDbLine
 10
1072.494086989
 20
-520.111468114
 30
0.0
 11
1065.494086989
 21
-524.152919998
 31
0.0
  0
MTEXT
  5
2F8
100
AcDbEntity
  8
GEKO
  6
SOLID
 62
        7
100
AcDbMText
 10
285.739624093
 20
-1539.61541748
 30
0.0
 40
30.0
 41
0.0
 71
        4
 72
        5
  1
\f|b0|i0|c177|p0;:
 11
-0.000000044
 21
1.0
 31
0.0
 73
        2
 44
1.0
  0
LINE
  5
2F9
100
AcDbEntity
  8
GEKO
  6
CENTER
 62
        7
100
AcDbLine
 10
1065.494086989
 20
-528.566387188
 30
0.0
 11
1065.494086989
 21
-471.39193027
 31
0.0
  0
LINE
  5
2FA
100
AcDbEntity
  8
GEKO
  6
SOLID
 62
        7
100
AcDbLine
 10
851.494105619
 20
-797.131180738
 30
0.0
 11
851.494105619
 21
-832.131180738
 31
0.0
  0
LINE
  5
2FB
100
AcDbEntity
  8
GEKO
  6
SOLID
 62
        7
100
AcDbLine
 10
869.494105619
 20
-797.131180738
 30
0.0
 11
869.494105619
 21
-832.131180738
 31
0.0
  0
LINE
  5
2FC
100
AcDbEntity
  8
GEKO
  6
SOLID
 62
        7
100
AcDbLine
 10
867.494105619
 20
-789.131180738
 30
0.0
 11
867.494105619
 21
-832.131180738
 31
0.0
  0
LINE
  5
2FD
100
AcDbEntity
  8
GEKO
  6
SOLID
 62
        7
100
AcDbLine
 10
853.494105619
 20
-789.131180738
 30
0.0
 11
853.494105619
 21
-832.131180738
 31
0.0
  0
LINE
  5
2FE
100
AcDbEntity
  8
GEKO
  6
SOLID
 62
        7
100
AcDbLine
 10
852.494105619
 20
-797.131180738
 30
0.0
 11
868.494105619
 21
-797.131180738
 31
0.0
  0
LINE
  5
2FF
100
AcDbEntity
  8
GEKO
  6
SOLID
 62
        7
100
AcDbLine
 10
853.494105619
 20
-789.131180738
 30
0.0
 11
867.494105619
 21
-789.131180738
 31
0.0
  0
LINE
  5
300
100
AcDbEntity
  8
GEKO
  6
SOLID
 62
        7
100
AcDbLine
 10
867.494105619
 20
-789.131180738
 30
0.0
 11
860.494105619
 21
-785.089728854
 31
0.0
  0
LINE
  5
301
100
AcDbEntity
  8
GEKO
  6
SOLID
 62
        7
100
AcDbLine
 10
853.494105619
 20
-789.131180738
 30
0.0
 11
860.494105619
 21
-785.089728854
 31
0.0
  0
LINE
  5
302
100
AcDbEntity
  8
GEKO
  6
CENTER
 62
        7
100
AcDbLine
 10
860.494105619
 20
-780.676261664
 30
0.0
 11
860.494105619
 21
-837.850718582
 31
0.0
  0
LINE
  5
303
100
AcDbEntity
  8
GEKO
  6
SOLID
 62
        7
100
AcDbLine
 10
1087.993843669
 20
-603.631164659
 30
0.0
 11
1122.993843669
 21
-603.631164659
 31
0.0
  0
LINE
  5
304
100
AcDbEntity
  8
GEKO
  6
SOLID
 62
        7
100
AcDbLine
 10
1087.993843669
 20
-585.631164659
 30
0.0
 11
1122.993843669
 21
-585.631164659
 31
0.0
  0
LINE
  5
305
100
AcDbEntity
  8
GEKO
  6
SOLID
 62
        7
100
AcDbLine
 10
1079.993843669
 20
-587.631164659
 30
0.0
 11
1122.993843669
 21
-587.631164659
 31
0.0
  0
LINE
  5
306
100
AcDbEntity
  8
GEKO
  6
SOLID
 62
        7
100
AcDbLine
 10
1079.993843669
 20
-601.631164659
 30
0.0
 11
1122.993843669
 21
-601.631164659
 31
0.0
  0
LINE
  5
307
100
AcDbEntity
  8
GEKO
  6
SOLID
 62
        7
100
AcDbLine
 10
1087.993843669
 20
-602.631164659
 30
0.0
 11
1087.993843669
 21
-586.631164659
 31
0.0
  0
LINE
  5
308
100
AcDbEntity
  8
GEKO
  6
SOLID
 62
        7
100
AcDbLine
 10
1079.993843669
 20
-601.631164659
 30
0.0
 11
1079.993843669
 21
-587.631164659
 31
0.0
  0
LINE
  5
309
100
AcDbEntity
  8
GEKO
  6
SOLID
 62
        7
100
AcDbLine
 10
1079.993843669
 20
-587.631164659
 30
0.0
 11
1075.952391784
 21
-594.631164659
 31
0.0
  0
LINE
  5
30A
100
AcDbEntity
  8
GEKO
  6
SOLID
 62
        7
100
AcDbLine
 10
1079.993843669
 20
-601.631164659
 30
0.0
 11
1075.952391784
 21
-594.631164659
 31
0.0
  0
LINE
  5
30B
100
AcDbEntity
  8
GEKO
  6
CENTER
 62
        7
100
AcDbLine
 10
1071.538924594
 20
-594.631164659
 30
0.0
 11
1128.713381513
 21
-594.631164659
 31
0.0
  0
LINE
  5
30C
100
AcDbEntity
  8
GEKO
  6
CENTER
 62
        7
100
AcDbLine
 10
1065.494075101
 20
-780.676261664
 30
0.0
 11
1065.494075101
 21
-837.850718582
 31
0.0
  0
ARC
  5
30D
100
AcDbEntity
  8
GEKO
  6
SOLID
 62
        7
100
AcDbCircle
 10
962.99409036
 20
-697.131180738
 30
0.0
 40
180.0
100
AcDbArc
 50
214.944465687
 51
225.558431786
  0
ARC
  5
30E
100
AcDbEntity
  8
GEKO
  6
L_DASH
 62
        7
100
AcDbCircle
 10
962.99409036
 20
-697.131180738
 30
0.0
 40
180.0
100
AcDbArc
 50
311.409622109
 51
332.733771833
  0
LINE
  5
30F
100
AcDbEntity
  8
GEKO
  6
SOLID
 62
        7
100
AcDbLine
 10
1122.993825948
 20
-627.131180738
 30
0.0
 11
1122.993825948
 21
-567.131180738
 31
0.0
  0
ARC
  5
310
100
AcDbEntity
  8
GEKO
  6
SOLID
 62
        7
100
AcDbCircle
 10
1122.993825948
 20
-632.131180738
 30
0.0
 40
5.0
100
AcDbArc
 50
90.0
 51
180.0
  0
LINE
  5
311
100
AcDbEntity
  8
GEKO
  6
SOLID
 62
        7
100
AcDbLine
 10
1117.993825948
 20
-762.131180738
 30
0.0
 11
1117.993825948
 21
-632.131180738
 31
0.0
  0
LINE
  5
312
100
AcDbEntity
  8
GEKO
  6
SOLID
 62
        7
100
AcDbLine
 10
600.328457585
 20
-443.457951933
 30
0.0
 11
604.421279465
 21
-439.365130053
 31
0.0
  0
LINE
  5
313
100
AcDbEntity
  8
GEKO
  6
SOLID
 62
        7
100
AcDbLine
 10
604.421279465
 20
-439.365130053
 30
0.0
 11
610.012178127
 21
-440.863206834
 31
0.0
  0
LINE
  5
314
100
AcDbEntity
  8
GEKO
  6
SOLID
 62
        7
100
AcDbLine
 10
610.012178127
 20
-440.863206834
 30
0.0
 11
611.510254908
 21
-446.454105496
 31
0.0
  0
LINE
  5
315
100
AcDbEntity
  8
GEKO
  6
SOLID
 62
        7
100
AcDbLine
 10
611.510254908
 20
-446.454105496
 30
0.0
 11
607.417433028
 21
-450.546927376
 31
0.0
  0
LINE
  5
316
100
AcDbEntity
  8
GEKO
  6
SOLID
 62
        7
100
AcDbLine
 10
607.417433028
 20
-450.546927376
 30
0.0
 11
601.826534366
 21
-449.048850595
 31
0.0
  0
LINE
  5
317
100
AcDbEntity
  8
GEKO
  6
SOLID
 62
        7
100
AcDbLine
 10
598.894744363
 20
-496.013886365
 30
0.0
 11
582.071506432
 21
-433.228707657
 31
0.0
  0
LINE
  5
318
100
AcDbEntity
  8
GEKO
  6
SOLID
 62
        7
100
AcDbLine
 10
655.602925869
 20
-420.462357685
 30
0.0
 11
647.237762636
 21
-422.703796418
 31
0.0
  0
LINE
  5
319
100
AcDbEntity
  8
GEKO
  6
SOLID
 62
        7
100
AcDbLine
 10
652.978456918
 20
-416.244481705
 30
0.0
 11
654.093148091
 21
-420.404565798
 31
0.0
  0
LINE
  5
31A
100
AcDbEntity
  8
GEKO
  6
SOLID
 62
        7
100
AcDbLine
 10
645.891903651
 20
-417.680982306
 30
0.0
 11
654.257066884
 21
-415.439543573
 31
0.0
  0
LINE
  5
31B
100
AcDbEntity
  8
GEKO
  6
SOLID
 62
        7
100
AcDbLine
 10
647.401681429
 20
-417.738774194
 30
0.0
 11
648.516372602
 21
-421.898858286
 31
0.0
  0
LINE
  5
31C
100
AcDbEntity
  8
GEKO
  6
SOLID
 62
        7
100
AcDbLine
 10
457.655237698
 20
-1619.895887841
 30
0.0
 11
457.655237698
 21
-1483.895887841
 31
0.0
  0
LINE
  5
31D
100
AcDbEntity
  8
GEKO
  6
SOLID
 62
        7
100
AcDbLine
 10
653.873065013
 20
-490.082218478
 30
0.0
 11
657.237712599
 21
-502.63925422
 31
0.0
  0
CIRCLE
  5
31E
100
AcDbEntity
  8
GEKO
  6
SOLID
 62
        7
100
AcDbCircle
 10
650.155237698
 20
-1466.895887841
 30
0.0
 40
5.0
  0
LINE
  5
31F
100
AcDbEntity
  8
GEKO
  6
SOLID
 62
        7
100
AcDbLine
 10
729.058035264
 20
-483.395056762
 30
0.0
 11
594.860544497
 21
-519.353166039
 31
0.0
  0
LINE
  5
320
100
AcDbEntity
  8
GEKO
  6
SOLID
 62
        7
100
AcDbLine
 10
580.2706895
 20
-516.01557264
 30
0.0
 11
575.514227793
 21
-517.290062713
 31
0.0
  0
LINE
  5
321
100
AcDbEntity
  8
GEKO
  6
SOLID
 62
        7
100
AcDbLine
 10
572.029496762
 20
-512.012276065
 30
0.0
 11
646.051682262
 21
-788.266833237
 31
0.0
  0
LINE
  5
322
100
AcDbEntity
  8
GEKO
  6
SOLID
 62
        7
100
AcDbLine
 10
638.190554074
 20
-840.066472846
 30
0.0
 11
631.978896992
 21
-816.884253016
 31
0.0
  0
LINE
  5
323
100
AcDbEntity
  8
GEKO
  6
SOLID
 62
        7
100
AcDbLine
 10
571.51182378
 20
-510.080294193
 30
0.0
 11
651.42357527
 21
-488.668004916
 31
0.0
  0
LINE
  5
324
100
AcDbEntity
  8
GEKO
  6
SOLID
 62
        7
100
AcDbLine
 10
643.930361918
 20
-791.941067852
 30
0.0
 11
628.475548698
 21
-796.082172573
 31
0.0
  0
ARC
  5
325
100
AcDbEntity
  8
GEKO
  6
SOLID
 62
        7
100
AcDbCircle
 10
628.993186787
 20
-798.014024232
 30
0.0
 40
2.0
100
AcDbArc
 50
105.0
 51
195.0
  0
LINE
  5
326
100
AcDbEntity
  8
GEKO
  6
SOLID
 62
        7
100
AcDbLine
 10
627.061335135
 20
-798.531662316
 30
0.0
 11
631.978896992
 21
-816.884253016
 31
0.0
  0
LINE
  5
327
100
AcDbEntity
  8
GEKO
  6
SOLID
 62
        7
100
AcDbLine
 10
738.968557707
 20
-761.299385168
 30
0.0
 11
651.81224193
 21
-784.652849595
 31
0.0
  0
ARC
  5
328
100
AcDbEntity
  8
GEKO
  6
SOLID
 62
        7
100
AcDbCircle
 10
643.153904782
 20
-789.043290379
 30
0.0
 40
3.0
100
AcDbArc
 50
285.0
 51
15.0
  0
LINE
  5
329
100
AcDbEntity
  8
GEKO
  6
SOLID
 62
        7
100
AcDbLine
 10
669.422124244
 20
-779.93429585
 30
0.0
 11
668.882791516
 21
-780.078809619
 31
0.0
  0
ARC
  5
32A
100
AcDbEntity
  8
GEKO
  6
SOLID
 62
        7
100
AcDbCircle
 10
640.122405726
 20
-839.548834762
 30
0.0
 40
2.0
100
AcDbArc
 50
195.0
 51
269.604187082
  0
LINE
  5
32B
100
AcDbEntity
  8
GEKO
  6
SOLID
 62
        7
100
AcDbLine
 10
661.890070909
 20
-835.78675881
 30
0.0
 11
652.959298729
 21
-838.179752004
 31
0.0
  0
ARC
  5
32C
100
AcDbEntity
  8
GEKO
  6
SOLID
 62
        7
100
AcDbCircle
 10
573.961348415
 20
-511.494637974
 30
0.0
 40
2.0
100
AcDbArc
 50
105.000006837
 51
195.0
  0
ARC
  5
32D
100
AcDbEntity
  8
GEKO
  6
SOLID
 62
        7
100
AcDbCircle
 10
651.941213359
 20
-490.599856574
 30
0.0
 40
2.0
100
AcDbArc
 50
15.0
 51
105.0
  0
ARC
  5
32E
100
AcDbEntity
  8
GEKO
  6
SOLID
 62
        7
100
AcDbCircle
 10
593.307630225
 20
-513.557611087
 30
0.0
 40
6.0
100
AcDbArc
 50
229.437366895
 51
285.0
  0
ARC
  5
32F
100
AcDbEntity
  8
GEKO
  6
SOLID
 62
        7
100
AcDbCircle
 10
576.031865909
 20
-519.221914471
 30
0.0
 40
2.0
100
AcDbArc
 50
105.0
 51
195.0
  0
LINE
  5
330
100
AcDbEntity
  8
GEKO
  6
SOLID
 62
        7
100
AcDbLine
 10
589.36166896
 20
-518.077875256
 30
0.0
 11
589.405956821
 21
-518.11578447
 31
0.0
  0
ARC
  5
331
100
AcDbEntity
  8
GEKO
  6
SOLID
 62
        7
100
AcDbCircle
 10
582.85887995
 20
-525.674830909
 30
0.0
 40
10.0
100
AcDbArc
 50
49.437366895
 51
105.0
  0
LINE
  5
332
100
AcDbEntity
  8
GEKO
  6
SOLID
 62
        7
100
AcDbLine
 10
806.583382089
 20
-743.182047578
 30
0.0
 11
738.968557707
 21
-761.299385168
 31
0.0
  0
LINE
  5
333
100
AcDbEntity
  8
GEKO
  6
SOLID
 62
        7
100
AcDbLine
 10
623.848280043
 20
-627.536867896
 30
0.0
 11
765.431135821
 21
-589.599846974
 31
0.0
  0
LINE
  5
334
100
AcDbEntity
  8
GEKO
  6
SOLID
 62
        7
100
AcDbLine
 10
575.911750276
 20
-526.501043426
 30
0.0
 11
537.757459967
 21
-536.724459582
 31
0.0
  0
LINE
  5
335
100
AcDbEntity
  8
GEKO
  6
SOLID
 62
        7
100
AcDbLine
 10
473.523584281
 20
-553.935882914
 30
0.0
 11
465.358617498
 21
-545.770918079
 31
0.0
  0
LINE
  5
336
100
AcDbEntity
  8
GEKO
  6
SOLID
 62
        7
100
AcDbLine
 10
645.792892453
 20
-787.301016524
 30
0.0
 11
607.638633267
 21
-797.524424341
 31
0.0
  0
LINE
  5
337
100
AcDbEntity
  8
GEKO
  6
SOLID
 62
        7
100
AcDbLine
 10
543.404757581
 20
-814.735847673
 30
0.0
 11
540.416174005
 21
-825.889398746
 31
0.0
  0
LINE
  5
338
100
AcDbEntity
  8
GEKO
  6
SOLID
 62
        7
100
AcDbLine
 10
465.358617498
 20
-545.770918079
 30
0.0
 11
455.480579951
 21
-548.417731526
 31
0.0
  0
LINE
  5
339
100
AcDbEntity
  8
GEKO
  6
SOLID
 62
        7
100
AcDbLine
 10
540.416174005
 20
-825.889398746
 30
0.0
 11
530.538136458
 21
-828.536212193
 31
0.0
  0
ARC
  5
33A
100
AcDbEntity
  8
GEKO
  6
SOLID
 62
        7
100
AcDbCircle
 10
962.99409036
 20
-697.131180738
 30
0.0
 40
180.0
100
AcDbArc
 50
332.733771833
 51
27.266228167
  0
ARC
  5
33B
100
AcDbEntity
  8
GEKO
  6
SOLID
 62
        7
100
AcDbCircle
 10
646.576266923
 20
-420.235060805
 30
0.0
 40
2.555823176
100
AcDbArc
 50
250.615758176
 51
319.384241824
  0
INSERT
  5
34A
100
AcDbEntity
  8
GEKO
100
AcDbBlockReference
  2
*D5
 10
0.0
 20
0.0
 30
0.0
  0
INSERT
  5
359
100
AcDbEntity
  8
GEKO
100
AcDbBlockReference
  2
*D6
 10
0.0
 20
0.0
 30
0.0
  0
ARC
  5
35A
100
AcDbEntity
  8
GEKO
  6
SOLID
 62
        7
100
AcDbCircle
 10
648.947737256
 20
-412.355182114
 30
0.0
 40
9.553419824
100
AcDbArc
 50
267.412049246
 51
302.587950754
  0
ARC
  5
35B
100
AcDbEntity
  8
GEKO
  6
SOLID
 62
        7
100
AcDbCircle
 10
654.941430155
 20
-417.993622072
 30
0.0
 40
2.555823176
100
AcDbArc
 50
250.615758176
 51
319.384241824
  0
INSERT
  5
364
100
AcDbEntity
  8
0
100
AcDbBlockReference
  2
*H7
 10
0.0
 20
0.0
 30
0.0
  0
INSERT
  5
36D
100
AcDbEntity
  8
0
100
AcDbBlockReference
  2
*H8
 10
0.0
 20
0.0
 30
0.0
  0
INSERT
  5
376
100
AcDbEntity
  8
0
100
AcDbBlockReference
  2
*H9
 10
0.0
 20
0.0
 30
0.0
  0
LINE
  5
377
100
AcDbEntity
  8
GEKO
  6
SOLID
 62
        7
100
AcDbLine
 10
655.766844662
 20
-415.497335461
 30
0.0
 11
656.881535835
 21
-419.657419553
 31
0.0
  0
INSERT
  5
386
100
AcDbEntity
  8
GEKO
100
AcDbBlockReference
  2
*D10
 10
0.0
 20
0.0
 30
0.0
  0
INSERT
  5
397
100
AcDbEntity
  8
GEKO
100
AcDbBlockReference
  2
*D11
 10
0.0
 20
0.0
 30
0.0
  0
INSERT
  5
3A6
100
AcDbEntity
  8
GEKO
100
AcDbBlockReference
  2
*D12
 10
0.0
 20
0.0
 30
0.0
  0
INSERT
  5
3B7
100
AcDbEntity
  8
GEKO
100
AcDbBlockReference
  2
*D13
 10
0.0
 20
0.0
 30
0.0
  0
ARC
  5
3B8
100
AcDbEntity
  8
GEKO
  6
SOLID
 62
        7
100
AcDbCircle
 10
654.918562598
 20
-417.908279186
 30
0.0
 40
2.555823176
100
AcDbArc
 50
70.615758176
 51
139.384241824
  0
ARC
  5
3B9
100
AcDbEntity
  8
GEKO
  6
SOLID
 62
        7
100
AcDbCircle
 10
652.547092264
 20
-425.788157877
 30
0.0
 40
9.553419824
100
AcDbArc
 50
87.412049246
 51
122.587950754
  0
ARC
  5
3BA
100
AcDbEntity
  8
GEKO
  6
SOLID
 62
        7
100
AcDbCircle
 10
646.553399365
 20
-420.149717919
 30
0.0
 40
2.555823176
100
AcDbArc
 50
70.615758176
 51
139.384241824
  0
LINE
  5
3BB
100
AcDbEntity
  8
GEKO
  6
SOLID
 62
        7
100
AcDbLine
 10
645.727984858
 20
-422.64600453
 30
0.0
 11
644.613293685
 21
-418.485920438
 31
0.0
  0
INSERT
  5
3CA
100
AcDbEntity
  8
GEKO
100
AcDbBlockReference
  2
*D14
 10
0.0
 20
0.0
 30
0.0
  0
LINE
  5
3CB
100
AcDbEntity
  8
GEKO
  6
CENTER
 62
        7
100
AcDbLine
 10
444.876679866
 20
-701.374080001
 30
0.0
 11
1119.380936494
 21
-520.641166011
 31
0.0
  0
LINE
  5
3CC
100
AcDbEntity
  8
GEKO
  6
SOLID
 62
        7
100
AcDbLine
 10
646.693802447
 20
-417.466129897
 30
0.0
 11
646.30557388
 21
-416.017241157
 31
0.0
  0
LINE
  5
3CD
100
AcDbEntity
  8
GEKO
  6
SOLID
 62
        7
100
AcDbLine
 10
653.455283231
 20
-415.654396581
 30
0.0
 11
653.067054664
 21
-414.205507842
 31
0.0
  0
LINE
  5
3CE
100
AcDbEntity
  8
GEKO
  6
SOLID
 62
        7
100
AcDbLine
 10
543.933301151
 20
-496.533509793
 30
0.0
 11
551.046070152
 21
-508.853183691
 31
0.0
  0
ARC
  5
3CF
100
AcDbEntity
  8
GEKO
  6
SOLID
 62
        7
100
AcDbCircle
 10
552.77812084
 20
-507.853183484
 30
0.0
 40
2.0
100
AcDbArc
 50
210.000006837
 51
285.000006837
  0
LINE
  5
3D0
100
AcDbEntity
  8
GEKO
  6
SOLID
 62
        7
100
AcDbLine
 10
541.637015486
 20
-502.556225383
 30
0.0
 11
548.634261298
 21
-514.675807301
 31
0.0
  0
ARC
  5
3D1
100
AcDbEntity
  8
GEKO
  6
SOLID
 62
        7
100
AcDbCircle
 10
550.366311986
 20
-513.675807095
 30
0.0
 40
2.0
100
AcDbArc
 50
210.000006837
 51
285.000006837
  0
LINE
  5
3D2
100
AcDbEntity
  8
GEKO
  6
SOLID
 62
        7
100
AcDbLine
 10
550.883950307
 20
-515.607658686
 30
0.0
 11
641.382960913
 21
-491.358510303
 31
0.0
  0
LINE
  5
3D3
100
AcDbEntity
  8
GEKO
  6
SOLID
 62
        7
100
AcDbLine
 10
553.295759161
 20
-509.785035075
 30
0.0
 11
630.429607733
 21
-489.117072775
 31
0.0
  0
LINE
  5
3D4
100
AcDbEntity
  8
GEKO
  6
SOLID
 62
        7
100
AcDbLine
 10
631.72370265
 20
-493.946700754
 30
0.0
 11
630.429607733
 21
-489.117072775
 31
0.0
  0
LINE
  5
3D5
100
AcDbEntity
  8
GEKO
  6
SOLID
 62
        7
100
AcDbLine
 10
716.655237698
 20
-1627.895889841
 30
0.0
 11
726.655237698
 21
-1627.895889841
 31
0.0
  0
CIRCLE
  5
3D6
100
AcDbEntity
  8
GEKO
  6
SOLID
 62
        7
100
AcDbCircle
 10
650.155237698
 20
-1633.895887841
 30
0.0
 40
5.0
  0
LINE
  5
3D7
100
AcDbEntity
  8
GEKO
  6
SOLID
 62
        7
100
AcDbLine
 10
648.655237698
 20
-1638.665583849
 30
0.0
 11
648.655237698
 21
-1629.126191834
 31
0.0
  0
LINE
  5
3D8
100
AcDbEntity
  8
GEKO
  6
SOLID
 62
        7
100
AcDbLine
 10
651.655237698
 20
-1638.665583849
 30
0.0
 11
651.655237698
 21
-1629.126191834
 31
0.0
  0
LINE
  5
3D9
100
AcDbEntity
  8
GEKO
  6
SOLID
 62
        7
100
AcDbLine
 10
651.655237698
 20
-1471.665583849
 30
0.0
 11
651.655237698
 21
-1462.126191834
 31
0.0
  0
LINE
  5
3DA
100
AcDbEntity
  8
GEKO
  6
SOLID
 62
        7
100
AcDbLine
 10
631.72370265
 20
-493.946700754
 30
0.0
 11
630.429607733
 21
-489.117072775
 31
0.0
  0
ARC
  5
3DB
100
AcDbEntity
  8
GEKO
  6
SOLID
 62
        7
100
AcDbCircle
 10
539.123144198
 20
-483.840146728
 30
0.0
 40
32.574919576
100
AcDbArc
 50
-102.431006622
 51
-72.688879607
  0
LINE
  5
3DC
100
AcDbEntity
  8
GEKO
  6
SOLID
 62
        7
100
AcDbLine
 10
648.655237698
 20
-1471.665583849
 30
0.0
 11
648.655237698
 21
-1462.126191834
 31
0.0
  0
LINE
  5
3DD
100
AcDbEntity
  8
GEKO
  6
SOLID
 62
        7
100
AcDbLine
 10
557.655237698
 20
-1619.895887841
 30
0.0
 11
557.655237698
 21
-1483.895887841
 31
0.0
  0
LINE
  5
3DE
100
AcDbEntity
  8
GEKO
  6
SOLID
 62
        7
100
AcDbLine
 10
457.655237698
 20
-1616.895887841
 30
0.0
 11
557.655237698
 21
-1616.895887841
 31
0.0
  0
LINE
  5
3DF
100
AcDbEntity
  8
GEKO
  6
SOLID
 62
        7
100
AcDbLine
 10
457.655237698
 20
-1486.895887841
 30
0.0
 11
557.655237698
 21
-1486.895887841
 31
0.0
  0
CIRCLE
  5
3E0
100
AcDbEntity
  8
GEKO
  6
SOLID
 62
        7
100
AcDbCircle
 10
597.655237698
 20
-1551.895887841
 30
0.0
 40
15.0
  0
LINE
  5
3E1
100
AcDbEntity
  8
GEKO
  6
SOLID
 62
        7
100
AcDbLine
 10
557.655237698
 20
-1539.395887841
 30
0.0
 11
567.655237698
 21
-1539.395887841
 31
0.0
  0
LINE
  5
3E2
100
AcDbEntity
  8
GEKO
  6
SOLID
 62
        7
100
AcDbLine
 10
557.655237698
 20
-1564.395887841
 30
0.0
 11
567.655237698
 21
-1564.395887841
 31
0.0
  0
LINE
  5
3E3
100
AcDbEntity
  8
GEKO
  6
SOLID
 62
        7
100
AcDbLine
 10
567.655237698
 20
-1564.395887841
 30
0.0
 11
567.655237698
 21
-1539.395887841
 31
0.0
  0
LINE
  5
3E4
100
AcDbEntity
  8
GEKO
  6
SOLID
 62
        7
100
AcDbLine
 10
567.655237698
 20
-1546.895887841
 30
0.0
 11
583.513102074
 21
-1546.895887841
 31
0.0
  0
LINE
  5
3E5
100
AcDbEntity
  8
GEKO
  6
SOLID
 62
        7
100
AcDbLine
 10
567.655237698
 20
-1556.895887841
 30
0.0
 11
583.513102074
 21
-1556.895887841
 31
0.0
  0
LINE
  5
3E6
100
AcDbEntity
  8
GEKO
  6
SOLID
 62
        7
100
AcDbLine
 10
503.655237698
 20
-1483.895887841
 30
0.0
 11
503.655237698
 21
-1446.895887841
 31
0.0
  0
LINE
  5
3E7
100
AcDbEntity
  8
GEKO
  6
SOLID
 62
        7
100
AcDbLine
 10
511.655237698
 20
-1483.895887841
 30
0.0
 11
511.655237698
 21
-1446.895887841
 31
0.0
  0
LINE
  5
3E8
100
AcDbEntity
  8
GEKO
  6
SOLID
 62
        7
100
AcDbLine
 10
503.655237698
 20
-1446.895887841
 30
0.0
 11
511.655237698
 21
-1446.895887841
 31
0.0
  0
LINE
  5
3E9
100
AcDbEntity
  8
GEKO
  6
SOLID
 62
        7
100
AcDbLine
 10
496.655237459
 20
-1443.895887841
 30
0.0
 11
496.655237459
 21
-1436.69588851
 31
0.0
  0
LWPOLYLINE
  5
3EA
100
AcDbEntity
  8
GEKO
  6
SOLID
 62
        7
100
AcDbPolyline
 90
       23
 70
        0
 10
557.628389182
 20
-1401.424192567
 10
558.35440243
 20
-1400.756948497
 10
559.092717628
 20
-1400.105884255
 10
559.855636727
 20
-1399.48717967
 10
560.655461677
 20
-1398.91701457
 10
561.094105327
 20
-1398.642204375
 10
561.545357406
 20
-1398.38644666
 10
562.008246665
 20
-1398.150933575
 10
562.481801854
 20
-1397.936857274
 10
562.965051724
 20
-1397.745409907
 10
563.457025027
 20
-1397.577783627
 10
563.956750512
 20
-1397.435170586
 10
564.463256931
 20
-1397.318762936
 10
564.909479121
 20
-1397.239433764
 10
565.358994631
 20
-1397.180727105
 10
565.810682093
 20
-1397.142446509
 10
566.26342014
 20
-1397.124395526
 10
567.167562516
 20
-1397.148196601
 10
568.062450817
 20
-1397.250558733
 10
568.853523766
 20
-1397.407015108
 10
569.632149062
 20
-1397.616055137
 10
570.400623523
 20
-1397.867976187
 10
571.161243965
 20
-1398.153075627
  0
LINE
  5
3EB
100
AcDbEntity
  8
GEKO
  6
SOLID
 62
        7
100
AcDbLine
 10
518.655237936
 20
-1446.895887841
 30
0.0
 11
518.655237936
 21
-1433.695887555
 31
0.0
  0
LINE
  5
3EC
100
AcDbEntity
  8
GEKO
  6
SOLID
 62
        7
100
AcDbLine
 10
503.255237602
 20
-1446.895887841
 30
0.0
 11
499.655237459
 21
-1446.895887841
 31
0.0
  0
LINE
  5
3ED
100
AcDbEntity
  8
GEKO
  6
SOLID
 62
        7
100
AcDbLine
 10
503.655237698
 20
-1466.895887841
 30
0.0
 11
511.655237698
 21
-1466.895887841
 31
0.0
  0
LINE
  5
3EE
100
AcDbEntity
  8
GEKO
  6
SOLID
 62
        7
100
AcDbLine
 10
506.321904364
 20
-1466.895887841
 30
0.0
 11
511.655237698
 21
-1464.895887841
 31
0.0
  0
LINE
  5
3EF
100
AcDbEntity
  8
GEKO
  6
SOLID
 62
        7
100
AcDbLine
 10
503.655237698
 20
-1446.895887841
 30
0.0
 11
511.655237698
 21
-1446.895887841
 31
0.0
  0
LINE
  5
3F0
100
AcDbEntity
  8
GEKO
  6
SOLID
 62
        7
100
AcDbLine
 10
503.655237698
 20
-1461.895887841
 30
0.0
 11
511.655237698
 21
-1458.895887841
 31
0.0
  0
ARC
  5
3F1
100
AcDbEntity
  8
GEKO
  6
SOLID
 62
        7
100
AcDbCircle
 10
540.069689284
 20
-1430.191039818
 30
0.0
 40
5.599999905
100
AcDbArc
 50
10.429059272
 51
165.423885011
  0
LINE
  5
3F2
100
AcDbEntity
  8
GEKO
  6
SOLID
 62
        7
100
AcDbLine
 10
503.655237698
 20
-1455.895887841
 30
0.0
 11
511.655237698
 21
-1452.895887841
 31
0.0
  0
LWPOLYLINE
  5
3F3
100
AcDbEntity
  8
GEKO
  6
SOLID
 62
        7
100
AcDbPolyline
 90
       22
 70
        0
 10
532.261794392
 20
-1400.34616547
 10
532.98780764
 20
-1399.678921399
 10
533.726122839
 20
-1399.027857158
 10
534.489041938
 20
-1398.409152572
 10
535.288866887
 20
-1397.838987472
 10
535.727510538
 20
-1397.564177278
 10
536.178762617
 20
-1397.308419562
 10
536.641651875
 20
-1397.072906478
 10
537.115207064
 20
-1396.858830176
 10
537.598456935
 20
-1396.66738281
 10
538.090430237
 20
-1396.49975653
 10
538.590155723
 20
-1396.357143489
 10
539.096662142
 20
-1396.240735838
 10
539.542884331
 20
-1396.161406667
 10
539.992399841
 20
-1396.102700008
 10
540.444087303
 20
-1396.064419412
 10
540.89682535
 20
-1396.046368429
 10
541.800967726
 20
-1396.070169504
 10
542.695856028
 20
-1396.172531636
 10
543.210734044
 20
-1396.267571504
 10
543.720030847
 20
-1396.386188556
 10
544.724578145
 20
-1396.682759654
  0
LINE
  5
3F4
100
AcDbEntity
  8
GEKO
  6
SOLID
 62
        7
100
AcDbLine
 10
503.655237698
 20
-1449.895887841
 30
0.0
 11
511.655237698
 21
-1446.895887841
 31
0.0
  0
LINE
  5
3F5
100
AcDbEntity
  8
GEKO
  6
SOLID
 62
        7
100
AcDbLine
 10
512.055237793
 20
-1446.895887841
 30
0.0
 11
525.022041653
 21
-1446.895887841
 31
0.0
  0
LWPOLYLINE
  5
3F6
100
AcDbEntity
  8
GEKO
  6
SOLID
 62
        7
100
AcDbPolyline
 90
       31
 70
        0
 10
587.670491518
 20
-1461.895887845
 10
588.649134022
 20
-1458.049319787
 10
589.666724101
 20
-1454.358756014
 10
590.189613405
 20
-1452.573848044
 10
590.721618681
 20
-1450.830155577
 10
591.262525154
 20
-1449.128382558
 10
591.812114454
 20
-1447.469216008
 10
592.370164708
 20
-1445.853325746
 10
592.936450626
 20
-1444.281364123
 10
593.510743594
 20
-1442.753965751
 10
594.092811763
 20
-1441.271747257
 10
594.682420149
 20
-1439.835307023
 10
595.279330721
 20
-1438.445224954
 10
595.883302501
 20
-1437.102062239
 10
596.494091661
 20
-1435.806361123
 10
597.111451619
 20
-1434.558644692
 10
597.735133142
 20
-1433.359416662
 10
598.364884444
 20
-1432.20916117
 10
599.000451289
 20
-1431.108342584
 10
599.641577092
 20
-1430.057405316
 10
600.288003027
 20
-1429.056773637
 10
600.939468125
 20
-1428.106851511
 10
601.595709384
 20
-1427.208022431
 10
602.256461874
 20
-1426.360649261
 10
602.921458843
 20
-1425.565074093
 10
603.590431825
 20
-1424.821618108
 10
604.263110751
 20
-1424.130581447
 10
604.939224055
 20
-1423.492243085
 10
605.618498782
 20
-1422.906860727
 10
606.300660705
 20
-1422.374670696
 10
606.985434429
 20
-1421.895887841
  0
LWPOLYLINE
  5
3F7
100
AcDbEntity
  8
GEKO
  6
SOLID
 62
        7
100
AcDbPolyline
 90
       23
 70
        0
 10
557.628389182
 20
-1702.367583116
 10
558.35440243
 20
-1703.034827186
 10
559.092717628
 20
-1703.685891428
 10
559.855636727
 20
-1704.304596013
 10
560.655461677
 20
-1704.874761113
 10
561.094105327
 20
-1705.149571308
 10
561.545357406
 20
-1705.405329023
 10
562.008246665
 20
-1705.640842108
 10
562.481801854
 20
-1705.854918409
 10
562.965051724
 20
-1706.046365776
 10
563.457025027
 20
-1706.213992056
 10
563.956750512
 20
-1706.356605097
 10
564.463256931
 20
-1706.473012747
 10
564.909479121
 20
-1706.552341918
 10
565.358994631
 20
-1706.611048577
 10
565.810682093
 20
-1706.649329174
 10
566.26342014
 20
-1706.667380157
 10
567.167562516
 20
-1706.643579082
 10
568.062450817
 20
-1706.54121695
 10
568.853523766
 20
-1706.384760574
 10
569.632149062
 20
-1706.175720546
 10
570.400623523
 20
-1705.923799496
 10
571.161243965
 20
-1705.638700056
  0
ARC
  5
3F8
100
AcDbEntity
  8
GEKO
  6
SOLID
 62
        7
100
AcDbCircle
 10
540.069689284
 20
-1673.600735865
 30
0.0
 40
5.599999905
100
AcDbArc
 50
194.576114989
 51
349.570940728
  0
LINE
  5
3F9
100
AcDbEntity
  8
GEKO
  6
SOLID
 62
        7
100
AcDbLine
 10
499.655237101
 20
-1433.69588851
 30
0.0
 11
514.466527996
 21
-1433.695886743
 31
0.0
  0
ARC
  5
3FA
100
AcDbEntity
  8
GEKO
  6
SOLID
 62
        7
100
AcDbCircle
 10
507.655235896
 20
-1418.668360691
 30
0.0
 40
15.027526885
100
AcDbArc
 50
252.412050954
 51
287.587960306
  0
LINE
  5
3FB
100
AcDbEntity
  8
GEKO
  6
SOLID
 62
        7
100
AcDbLine
 10
512.196097813
 20
-1432.993413459
 30
0.0
 11
512.196097175
 21
-1427.645886535
 31
0.0
  0
ARC
  5
3FC
100
AcDbEntity
  8
GEKO
  6
SOLID
 62
        7
100
AcDbCircle
 10
514.466527508
 20
-1429.675577459
 30
0.0
 40
4.020309304
100
AcDbArc
 50
235.615756476
 51
304.384254784
  0
LINE
  5
3FD
100
AcDbEntity
  8
GEKO
  6
SOLID
 62
        7
100
AcDbLine
 10
536.886651872
 20
-1433.695887555
 30
0.0
 11
499.655237459
 21
-1433.695887555
 31
0.0
  0
LWPOLYLINE
  5
3FE
100
AcDbEntity
  8
GEKO
  6
SOLID
 62
        7
100
AcDbPolyline
 90
       22
 70
        0
 10
532.261794392
 20
-1703.445610213
 10
532.98780764
 20
-1704.112854283
 10
533.726122839
 20
-1704.763918525
 10
534.489041938
 20
-1705.38262311
 10
535.288866887
 20
-1705.95278821
 10
535.727510538
 20
-1706.227598405
 10
536.178762617
 20
-1706.483356121
 10
536.641651875
 20
-1706.718869205
 10
537.115207064
 20
-1706.932945507
 10
537.598456935
 20
-1707.124392873
 10
538.090430237
 20
-1707.292019153
 10
538.590155723
 20
-1707.434632194
 10
539.096662142
 20
-1707.551039845
 10
539.542884331
 20
-1707.630369016
 10
539.992399841
 20
-1707.689075675
 10
540.444087303
 20
-1707.727356271
 10
540.89682535
 20
-1707.745407254
 10
541.800967726
 20
-1707.721606179
 10
542.695856028
 20
-1707.619244047
 10
543.210734045
 20
-1707.524204178
 10
543.720030849
 20
-1707.405587126
 10
544.724578148
 20
-1707.109016028
  0
LWPOLYLINE
  5
3FF
100
AcDbEntity
  8
GEKO
  6
SOLID
 62
        7
100
AcDbPolyline
 90
       57
 70
        0
 10
547.153981101
 20
-1704.123252971
 10
546.584413837
 20
-1704.882551554
 10
546.012435397
 20
-1705.608186465
 10
545.438183172
 20
-1706.299983401
 10
544.861795101
 20
-1706.95777619
 10
544.283409635
 20
-1707.581406828
 10
543.703165704
 20
-1708.170725514
 10
543.121202688
 20
-1708.725590692
 10
542.537660374
 20
-1709.24586908
 10
541.952678935
 20
-1709.731435704
 10
541.366398884
 20
-1710.182173931
 10
540.77896105
 20
-1710.597975488
 10
540.190506537
 20
-1710.9787405
 10
539.601176696
 20
-1711.324377505
 10
539.011113086
 20
-1711.634803478
 10
538.420457444
 20
-1711.909943855
 10
537.829351647
 20
-1712.149732544
 10
537.237937683
 20
-1712.354111948
 10
536.646357612
 20
-1712.523032974
 10
536.054753535
 20
-1712.656455045
 10
535.463267557
 20
-1712.754346114
 10
534.872041756
 20
-1712.816682666
 10
534.281218149
 20
-1712.843449727
 10
533.690938653
 20
-1712.834640869
 10
533.101345056
 20
-1712.790258208
 10
532.512578982
 20
-1712.710312403
 10
531.924781856
 20
-1712.594822659
 10
531.338094869
 20
-1712.443816716
 10
530.752658946
 20
-1712.257330847
 10
530.168614712
 20
-1712.035409848
 10
529.586102457
 20
-1711.778107023
 10
529.005262104
 20
-1711.48548418
 10
528.426233173
 20
-1711.157611607
 10
527.849154749
 20
-1710.79456806
 10
527.27416545
 20
-1710.396440746
 10
526.701403392
 20
-1709.963325295
 10
526.131006153
 20
-1709.495325744
 10
525.563110748
 20
-1708.992554509
 10
524.997853586
 20
-1708.455132359
 10
524.435370445
 20
-1707.883188384
 10
523.875796437
 20
-1707.276859969
 10
523.319265974
 20
-1706.636292756
 10
522.765912738
 20
-1705.961640613
 10
522.215869646
 20
-1705.253065595
 10
521.669268822
 20
-1704.510737904
 10
521.126241561
 20
-1703.734835852
 10
520.586918302
 20
-1702.925545814
 10
520.051428593
 20
-1702.083062186
 10
519.519901061
 20
-1701.207587336
 10
518.469242247
 20
-1699.358513018
 10
517.435951295
 20
-1697.380099381
 10
516.421020949
 20
-1695.27424721
 10
515.425426318
 20
-1693.042979727
 10
514.450123929
 20
-1690.688440649
 10
513.496050818
 20
-1688.212892127
 10
512.564123621
 20
-1685.618712575
 10
511.655237698
 20
-1682.908394382
  0
LINE
  5
400
100
AcDbEntity
  8
GEKO
  6
SOLID
 62
        7
100
AcDbLine
 10
517.155614099
 20
-1640.395887484
 30
0.0
 11
548.57174377
 21
-1640.395887484
 31
0.0
  0
LINE
  5
401
100
AcDbEntity
  8
GEKO
  6
SOLID
 62
        7
100
AcDbLine
 10
539.528161306
 20
-1670.850605109
 30
0.0
 11
545.709352605
 21
-1674.696679695
 31
0.0
  0
LWPOLYLINE
  5
402
100
AcDbEntity
  8
GEKO
  6
SOLID
 62
        7
100
AcDbPolyline
 90
       10
 70
        0
 10
557.628389182
 20
-1702.367583116
 10
556.119207707
 20
-1700.411972774
 10
555.385711162
 20
-1699.419527262
 10
554.677527648
 20
-1698.409513339
 10
553.726661858
 20
-1696.93738894
 10
552.837405694
 20
-1695.4253343
 10
552.003289986
 20
-1693.880669
 10
551.217845561
 20
-1692.310712623
 10
550.179878046
 20
-1690.068293743
 10
549.199212423
 20
-1687.801473226
  0
LINE
  5
403
100
AcDbEntity
  8
GEKO
  6
SOLID
 62
        7
100
AcDbLine
 10
548.57174377
 20
-1640.395887484
 30
0.0
 11
541.500998895
 21
-1640.395887484
 31
0.0
  0
LINE
  5
404
100
AcDbEntity
  8
GEKO
  6
SOLID
 62
        7
100
AcDbLine
 10
516.736957373
 20
-1427.645885993
 30
0.0
 11
516.736958012
 21
-1432.993412917
 31
0.0
  0
LINE
  5
405
100
AcDbEntity
  8
GEKO
  6
SOLID
 62
        7
100
AcDbLine
 10
552.314178506
 20
-1642.080139869
 30
0.0
 11
545.709352605
 21
-1674.696679695
 31
0.0
  0
ARC
  5
406
100
AcDbEntity
  8
GEKO
  6
SOLID
 62
        7
100
AcDbCircle
 10
500.843946912
 20
-1429.675579085
 30
0.0
 40
4.020309304
100
AcDbArc
 50
235.615756476
 51
304.384254784
  0
LINE
  5
407
100
AcDbEntity
  8
GEKO
  6
SOLID
 62
        7
100
AcDbLine
 10
503.114377415
 20
-1432.993414543
 30
0.0
 11
503.114376777
 21
-1427.645887619
 31
0.0
  0
LINE
  5
408
100
AcDbEntity
  8
GEKO
  6
SOLID
 62
        7
100
AcDbLine
 10
498.573517216
 20
-1432.993415085
 30
0.0
 11
498.573516578
 21
-1427.64588816
 31
0.0
  0
LINE
  5
409
100
AcDbEntity
  8
GEKO
  6
SOLID
 62
        7
100
AcDbLine
 10
500.843947399
 20
-1426.943414877
 30
0.0
 11
514.466527996
 21
-1426.943416503
 31
0.0
  0
ARC
  5
40A
100
AcDbEntity
  8
GEKO
  6
SOLID
 62
        7
100
AcDbCircle
 10
507.655235896
 20
-1441.970942555
 30
0.0
 40
15.027526885
100
AcDbArc
 50
72.412036395
 51
107.587945747
  0
ARC
  5
40B
100
AcDbEntity
  8
GEKO
  6
SOLID
 62
        7
100
AcDbCircle
 10
500.843946912
 20
-1430.963724161
 30
0.0
 40
4.020309304
100
AcDbArc
 50
55.615741917
 51
124.384240225
  0
ARC
  5
40C
100
AcDbEntity
  8
GEKO
  6
SOLID
 62
        7
100
AcDbCircle
 10
514.466527508
 20
-1430.963725786
 30
0.0
 40
4.020309304
100
AcDbArc
 50
55.615741917
 51
124.384240225
  0
LWPOLYLINE
  5
40D
100
AcDbEntity
  8
GEKO
  6
SOLID
 62
        7
100
AcDbPolyline
 90
        3
 70
        0
 10
586.959244943
 20
-1638.895889841
 10
587.738810604
 20
-1642.174634585
 10
588.545902
 20
-1645.351058157
  0
LWPOLYLINE
  5
40E
100
AcDbEntity
  8
GEKO
  6
SOLID
 62
        7
100
AcDbPolyline
 90
       57
 70
        0
 10
547.153981101
 20
-1399.668522712
 10
546.584413837
 20
-1398.909224129
 10
546.012435397
 20
-1398.183589218
 10
545.438183172
 20
-1397.491792282
 10
544.861795101
 20
-1396.833999492
 10
544.283409635
 20
-1396.210368855
 10
543.703165704
 20
-1395.621050169
 10
543.121202688
 20
-1395.066184991
 10
542.537660374
 20
-1394.545906603
 10
541.952678935
 20
-1394.060339978
 10
541.366398884
 20
-1393.609601752
 10
540.77896105
 20
-1393.193800194
 10
540.190506537
 20
-1392.813035182
 10
539.601176696
 20
-1392.467398178
 10
539.011113086
 20
-1392.156972204
 10
538.420457444
 20
-1391.881831828
 10
537.829351647
 20
-1391.642043139
 10
537.237937683
 20
-1391.437663735
 10
536.646357612
 20
-1391.268742709
 10
536.054753535
 20
-1391.135320638
 10
535.463267557
 20
-1391.037429569
 10
534.872041756
 20
-1390.975093017
 10
534.281218149
 20
-1390.948325955
 10
533.690938653
 20
-1390.957134813
 10
533.101345056
 20
-1391.001517475
 10
532.512578982
 20
-1391.08146328
 10
531.924781856
 20
-1391.196953024
 10
531.338094869
 20
-1391.347958967
 10
530.752658946
 20
-1391.534444835
 10
530.168614712
 20
-1391.756365835
 10
529.586102457
 20
-1392.013668659
 10
529.005262104
 20
-1392.306291503
 10
528.426233173
 20
-1392.634164076
 10
527.849154749
 20
-1392.997207623
 10
527.27416545
 20
-1393.395334937
 10
526.701403392
 20
-1393.828450388
 10
526.131006153
 20
-1394.296449939
 10
525.563110748
 20
-1394.799221173
 10
524.997853586
 20
-1395.336643324
 10
524.435370445
 20
-1395.908587299
 10
523.875796437
 20
-1396.514915714
 10
523.319265974
 20
-1397.155482927
 10
522.765912738
 20
-1397.83013507
 10
522.215869646
 20
-1398.538710088
 10
521.669268822
 20
-1399.281037779
 10
521.126241561
 20
-1400.056939831
 10
520.586918302
 20
-1400.866229868
 10
520.051428593
 20
-1401.708713497
 10
519.519901061
 20
-1402.584188347
 10
518.469242247
 20
-1404.433262665
 10
517.435951295
 20
-1406.411676301
 10
516.421020949
 20
-1408.517528473
 10
515.425426318
 20
-1410.748795956
 10
514.450123929
 20
-1413.103335034
 10
513.496050818
 20
-1415.578883556
 10
512.564123621
 20
-1418.173063108
 10
511.655237698
 20
-1420.883381301
  0
LINE
  5
40F
100
AcDbEntity
  8
GEKO
  6
SOLID
 62
        7
100
AcDbLine
 10
543.297348309
 20
-1640.379633881
 30
0.0
 11
538.091373473
 21
-1666.088242721
 31
0.0
  0
ARC
  5
410
100
AcDbEntity
  8
GEKO
  6
SOLID
 62
        7
100
AcDbCircle
 10
548.57174377
 20
-1645.395887484
 30
0.0
 40
5.0
100
AcDbArc
 50
12.068037618
 51
90.0
  0
LWPOLYLINE
  5
411
100
AcDbEntity
  8
GEKO
  6
SOLID
 62
        7
100
AcDbPolyline
 90
       44
 70
        0
 10
578.436132127
 20
-1616.895887841
 10
579.001398669
 20
-1620.606922367
 10
579.596936539
 20
-1624.245651915
 10
580.22213476
 20
-1627.808343419
 10
580.876351925
 20
-1631.291341823
 10
581.558916856
 20
-1634.691073831
 10
582.269129292
 20
-1638.004051571
 10
583.006260608
 20
-1641.226876175
 10
583.769554563
 20
-1644.356241264
 10
584.558228073
 20
-1647.388936344
 10
585.371472019
 20
-1650.321850095
 10
586.208452073
 20
-1653.151973566
 10
587.068309555
 20
-1655.876403262
 10
587.950162316
 20
-1658.49234412
 10
588.85310564
 20
-1660.99711238
 10
589.776213176
 20
-1663.388138337
 10
590.718537883
 20
-1665.662968976
 10
591.679113007
 20
-1667.819270491
 10
592.656953068
 20
-1669.854830676
 10
593.651054877
 20
-1671.767561199
 10
594.660398559
 20
-1673.555499741
 10
595.683948601
 20
-1675.21681201
 10
596.200723396
 20
-1675.999445549
 10
596.720654919
 20
-1676.749793623
 10
597.243609809
 20
-1677.467663769
 10
597.769453929
 20
-1678.152871855
 10
598.298052401
 20
-1678.805242127
 10
598.829269641
 20
-1679.424607254
 10
599.362969392
 20
-1680.010808368
 10
599.899014763
 20
-1680.563695112
 10
600.437268258
 20
-1681.083125671
 10
600.977591816
 20
-1681.568966811
 10
601.519846847
 20
-1682.021093917
 10
602.063894261
 20
-1682.439391017
 10
602.609594514
 20
-1682.823750821
 10
603.156807633
 20
-1683.17407474
 10
603.70539326
 20
-1683.490272917
 10
604.255210683
 20
-1683.772264248
 10
604.806118876
 20
-1684.019976404
 10
605.357976532
 20
-1684.233345845
 10
605.910642101
 20
-1684.412317844
 10
606.463973825
 20
-1684.556846494
 10
607.017829775
 20
-1684.666894724
 10
607.57206789
 20
-1684.742434308
  0
LINE
  5
412
100
AcDbEntity
  8
GEKO
  6
SOLID
 62
        7
100
AcDbLine
 10
517.155614099
 20
-1463.395888199
 30
0.0
 11
548.57174377
 21
-1463.395888199
 31
0.0
  0
LWPOLYLINE
  5
413
100
AcDbEntity
  8
GEKO
  6
SOLID
 62
        7
100
AcDbPolyline
 90
       33
 70
        0
 10
572.856008148
 20
-1681.895887838
 10
572.439810612
 20
-1681.937175487
 10
572.036787998
 20
-1681.935758041
 10
571.632339749
 20
-1681.892498979
 10
571.212456154
 20
-1681.803820488
 10
570.76571777
 20
-1681.662497198
 10
570.284523821
 20
-1681.459164936
 10
569.76533952
 20
-1681.183980434
 10
569.208152933
 20
-1680.827950246
 10
568.615527318
 20
-1680.383712566
 10
567.991605152
 20
-1679.845803914
 10
567.341278378
 20
-1679.210569409
 10
566.669598573
 20
-1678.475889138
 10
565.981411766
 20
-1677.640849341
 10
565.281165778
 20
-1676.705433003
 10
564.572833783
 20
-1675.670262311
 10
563.859908105
 20
-1674.536399896
 10
563.14543174
 20
-1673.305203241
 10
562.432046807
 20
-1671.978222163
 10
561.722047675
 20
-1670.557128985
 10
561.017432196
 20
-1669.043672451
 10
560.319947929
 20
-1667.439648358
 10
559.631132268
 20
-1665.746881648
 10
558.952346435
 20
-1663.967216177
 10
558.284803848
 20
-1662.102509535
 10
557.629593547
 20
-1660.15463105
 10
556.987699439
 20
-1658.125461773
 10
556.360016024
 20
-1656.016895584
 10
555.747361254
 20
-1653.830840898
 10
555.150487001
 20
-1651.569222603
 10
554.57008762
 20
-1649.233984009
 10
554.006806925
 20
-1646.827088686
 10
553.461243896
 20
-1644.350522101
  0
LWPOLYLINE
  5
414
100
AcDbEntity
  8
GEKO
  6
SOLID
 62
        7
100
AcDbPolyline
 90
       65
 70
        0
 10
582.91307841
 20
-1681.895887836
 10
582.25547186
 20
-1683.812222737
 10
581.587388041
 20
-1685.672943147
 10
580.909137894
 20
-1687.477183037
 10
580.221037095
 20
-1689.224102669
 10
579.523405903
 20
-1690.912888982
 10
578.816569014
 20
-1692.542755972
 10
578.100855408
 20
-1694.112945057
 10
577.376598195
 20
-1695.622725431
 10
576.644134465
 20
-1697.071394404
 10
575.903805123
 20
-1698.458277728
 10
575.155954738
 20
-1699.782729914
 10
574.400931379
 20
-1701.044134526
 10
573.639086452
 20
-1702.241904475
 10
572.870774541
 20
-1703.375482289
 10
572.096353236
 20
-1704.444340371
 10
571.316182973
 20
-1705.447981248
 10
570.530626863
 20
-1706.3859378
 10
569.740050525
 20
-1707.257773478
 10
568.944821911
 20
-1708.063082507
 10
568.145311143
 20
-1708.801490076
 10
567.341890333
 20
-1709.472652511
 10
566.534933412
 20
-1710.076257437
 10
565.724815961
 20
-1710.612023919
 10
564.911915027
 20
-1711.0797026
 10
564.096608955
 20
-1711.479075809
 10
563.279277211
 20
-1711.809957667
 10
562.4603002
 20
-1712.072194174
 10
561.640059096
 20
-1712.265663279
 10
560.818935659
 20
-1712.390274936
 10
559.997312062
 20
-1712.445971147
 10
559.175570708
 20
-1712.43272599
 10
558.354094058
 20
-1712.35054563
 10
557.533264448
 20
-1712.199468315
 10
556.713463911
 20
-1711.979564361
 10
555.895074006
 20
-1711.690936117
 10
555.07847563
 20
-1711.333717917
 10
554.26404885
 20
-1710.908076021
 10
553.452172721
 20
-1710.414208532
 10
552.643225109
 20
-1709.852345309
 10
551.837582522
 20
-1709.222747857
 10
551.035619924
 20
-1708.525709208
 10
550.237710569
 20
-1707.76155378
 10
549.444225826
 20
-1706.930637232
 10
548.655535002
 20
-1706.033346293
 10
547.872005173
 20
-1705.070098584
 10
547.094001015
 20
-1704.041342427
 10
546.32188463
 20
-1702.947556629
 10
545.556015382
 20
-1701.789250268
 10
544.796749724
 20
-1700.566962448
 10
544.044441039
 20
-1699.281262053
 10
543.299439471
 20
-1697.932747481
 10
542.562091761
 20
-1696.522046365
 10
541.832741091
 20
-1695.049815281
 10
541.111726919
 20
-1693.516739443
 10
540.399384823
 20
-1691.923532383
 10
539.696046345
 20
-1690.270935621
 10
539.002038836
 20
-1688.559718317
 10
538.317685307
 20
-1686.790676916
 10
537.643304272
 20
-1684.964634773
 10
536.979209605
 20
-1683.082441777
 10
536.325710393
 20
-1681.144973946
 10
535.683110791
 20
-1679.153133029
 10
535.051709882
 20
-1677.107846078
 10
534.431801535
 20
-1675.010065023
  0
LINE
  5
415
100
AcDbEntity
  8
GEKO
  6
SOLID
 62
        7
100
AcDbLine
 10
539.528161306
 20
-1432.941170574
 30
0.0
 11
545.709352605
 21
-1429.095095988
 31
0.0
  0
LWPOLYLINE
  5
416
100
AcDbEntity
  8
GEKO
  6
SOLID
 62
        7
100
AcDbPolyline
 90
        6
 70
        0
 10
549.199212423
 20
-1687.801473226
 10
548.723099646
 20
-1686.303735349
 10
548.254750348
 20
-1684.762592454
 10
547.342641772
 20
-1681.552923135
 10
546.465284931
 20
-1678.178161998
 10
545.624798382
 20
-1674.644068178
  0
LINE
  5
417
100
AcDbEntity
  8
GEKO
  6
SOLID
 62
        7
100
AcDbLine
 10
590.125928153
 20
-1681.895887841
 30
0.0
 11
571.654084609
 21
-1681.895887841
 31
0.0
  0
LWPOLYLINE
  5
418
100
AcDbEntity
  8
GEKO
  6
SOLID
 62
        7
100
AcDbPolyline
 90
       10
 70
        0
 10
557.628389182
 20
-1401.424192567
 10
556.119207707
 20
-1403.379802908
 10
555.385711162
 20
-1404.372248421
 10
554.677527648
 20
-1405.382262344
 10
553.726661858
 20
-1406.854386743
 10
552.837405694
 20
-1408.366441383
 10
552.003289986
 20
-1409.911106683
 10
551.217845561
 20
-1411.48106306
 10
550.179878046
 20
-1413.72348194
 10
549.199212423
 20
-1415.990302457
  0
LWPOLYLINE
  5
419
100
AcDbEntity
  8
GEKO
  6
SOLID
 62
        7
100
AcDbPolyline
 90
        9
 70
        0
 10
523.832617633
 20
-1414.91227536
 10
523.178749877
 20
-1416.986806846
 10
522.539852802
 20
-1419.143199035
 10
521.916757994
 20
-1421.379598871
 10
521.310225923
 20
-1423.694140966
 10
520.720955244
 20
-1426.084945704
 10
520.149590438
 20
-1428.550117353
 10
519.5967281
 20
-1431.087742318
 10
519.062922124
 20
-1433.695887555
  0
LWPOLYLINE
  5
41A
100
AcDbEntity
  8
GEKO
  6
SOLID
 62
        7
100
AcDbPolyline
 90
       10
 70
        0
 10
532.261794392
 20
-1400.34616547
 10
530.752612918
 20
-1402.301775811
 10
530.019116373
 20
-1403.294221323
 10
529.310932859
 20
-1404.304235246
 10
528.360067069
 20
-1405.776359645
 10
527.470810905
 20
-1407.288414286
 10
526.636695196
 20
-1408.833079585
 10
525.851250771
 20
-1410.403035962
 10
524.813283256
 20
-1412.645454842
 10
523.832617633
 20
-1414.91227536
  0
ARC
  5
41B
100
AcDbEntity
  8
GEKO
  6
SOLID
 62
        7
100
AcDbCircle
 10
533.190839588
 20
-1438.695887555
 30
0.0
 40
5.0
100
AcDbArc
 50
11.447556754
 51
90.0
  0
LINE
  5
41C
100
AcDbEntity
  8
GEKO
  6
SOLID
 62
        7
100
AcDbLine
 10
512.055237793
 20
-1656.895887841
 30
0.0
 11
525.022041653
 21
-1656.895887841
 31
0.0
  0
LINE
  5
41D
100
AcDbEntity
  8
GEKO
  6
SOLID
 62
        7
100
AcDbLine
 10
536.886651872
 20
-1670.095888128
 30
0.0
 11
499.655237459
 21
-1670.095888128
 31
0.0
  0
LWPOLYLINE
  5
41E
100
AcDbEntity
  8
GEKO
  6
SOLID
 62
        7
100
AcDbPolyline
 90
       10
 70
        0
 10
532.261794392
 20
-1703.445610213
 10
530.752612918
 20
-1701.489999872
 10
530.019116373
 20
-1700.497554359
 10
529.310932859
 20
-1699.487540437
 10
528.360067069
 20
-1698.015416037
 10
527.470810905
 20
-1696.503361397
 10
526.636695196
 20
-1694.958696097
 10
525.851250771
 20
-1693.388739721
 10
524.813283256
 20
-1691.146320841
 10
523.832617633
 20
-1688.879500323
  0
LINE
  5
41F
100
AcDbEntity
  8
GEKO
  6
SOLID
 62
        7
100
AcDbLine
 10
526.534017238
 20
-1433.695887555
 30
0.0
 11
534.431801535
 21
-1428.78171066
 31
0.0
  0
LINE
  5
420
100
AcDbEntity
  8
GEKO
  6
SOLID
 62
        7
100
AcDbLine
 10
548.57174377
 20
-1463.395888199
 30
0.0
 11
541.500998895
 21
-1463.395888199
 31
0.0
  0
LINE
  5
421
100
AcDbEntity
  8
GEKO
  6
SOLID
 62
        7
100
AcDbLine
 10
552.314178506
 20
-1461.711635814
 30
0.0
 11
545.709352605
 21
-1429.095095988
 31
0.0
  0
LINE
  5
422
100
AcDbEntity
  8
GEKO
  6
SOLID
 62
        7
100
AcDbLine
 10
532.452268448
 20
-1463.395888199
 30
0.0
 11
529.922575538
 21
-1450.903533248
 31
0.0
  0
LINE
  5
423
100
AcDbEntity
  8
GEKO
  6
SOLID
 62
        7
100
AcDbLine
 10
543.297348309
 20
-1463.412141802
 30
0.0
 11
538.091373473
 21
-1437.703532961
 31
0.0
  0
LINE
  5
424
100
AcDbEntity
  8
GEKO
  6
SOLID
 62
        7
100
AcDbLine
 10
525.022041653
 20
-1446.895887841
 30
0.0
 11
525.022041653
 21
-1433.695887555
 31
0.0
  0
ARC
  5
425
100
AcDbEntity
  8
GEKO
  6
SOLID
 62
        7
100
AcDbCircle
 10
525.022041653
 20
-1451.895887841
 30
0.0
 40
5.0
100
AcDbArc
 50
11.447556754
 51
90.0
  0
ARC
  5
426
100
AcDbEntity
  8
GEKO
  6
SOLID
 62
        7
100
AcDbCircle
 10
533.190839588
 20
-1665.095888128
 30
0.0
 40
5.0
100
AcDbArc
 50
270.0
 51
348.552443246
  0
LINE
  5
427
100
AcDbEntity
  8
GEKO
  6
SOLID
 62
        7
100
AcDbLine
 10
526.534017238
 20
-1670.095888128
 30
0.0
 11
534.431801535
 21
-1675.010065023
 31
0.0
  0
ARC
  5
428
100
AcDbEntity
  8
GEKO
  6
SOLID
 62
        7
100
AcDbCircle
 10
548.57174377
 20
-1458.395888199
 30
0.0
 40
5.0
100
AcDbArc
 50
270.0
 51
347.931962382
  0
LINE
  5
429
100
AcDbEntity
  8
GEKO
  6
SOLID
 62
        7
100
AcDbLine
 10
583.655237698
 20
-1638.895889841
 30
0.0
 11
715.481034735
 21
-1638.895889841
 31
0.0
  0
LINE
  5
42A
100
AcDbEntity
  8
GEKO
  6
SOLID
 62
        7
100
AcDbLine
 10
532.452268448
 20
-1640.395887484
 30
0.0
 11
529.922575538
 21
-1652.888242435
 31
0.0
  0
ARC
  5
42B
100
AcDbEntity
  8
GEKO
  6
SOLID
 62
        7
100
AcDbCircle
 10
536.886651872
 20
-1428.695887555
 30
0.0
 40
5.0
100
AcDbArc
 50
270.0
 51
301.890791802
  0
LINE
  5
42C
100
AcDbEntity
  8
GEKO
  6
SOLID
 62
        7
100
AcDbLine
 10
525.022041653
 20
-1656.895887841
 30
0.0
 11
525.022041653
 21
-1670.095888128
 31
0.0
  0
ARC
  5
42D
100
AcDbEntity
  8
GEKO
  6
SOLID
 62
        7
100
AcDbCircle
 10
525.022041653
 20
-1651.895887841
 30
0.0
 40
5.0
100
AcDbArc
 50
270.0
 51
348.552443246
  0
ARC
  5
42E
100
AcDbEntity
  8
GEKO
  6
SOLID
 62
        7
100
AcDbCircle
 10
536.886651872
 20
-1675.095888128
 30
0.0
 40
5.0
100
AcDbArc
 50
58.109208198
 51
90.0
  0
LWPOLYLINE
  5
42F
100
AcDbEntity
  8
GEKO
  6
SOLID
 62
        7
100
AcDbPolyline
 90
        9
 70
        0
 10
523.832617633
 20
-1688.879500323
 10
523.178749877
 20
-1686.804968837
 10
522.539852802
 20
-1684.648576648
 10
521.916757994
 20
-1682.412176812
 10
521.310225923
 20
-1680.097634716
 10
520.720955244
 20
-1677.706829979
 10
520.149590438
 20
-1675.24165833
 10
519.5967281
 20
-1672.704033365
 10
519.062922124
 20
-1670.095888128
  0
LINE
  5
430
100
AcDbEntity
  8
GEKO
  6
SOLID
 62
        7
100
AcDbLine
 10
503.655237698
 20
-1619.895887841
 30
0.0
 11
503.655237698
 21
-1656.895887841
 31
0.0
  0
LINE
  5
431
100
AcDbEntity
  8
GEKO
  6
SOLID
 62
        7
100
AcDbLine
 10
511.655237698
 20
-1619.895887841
 30
0.0
 11
511.655237698
 21
-1656.895887841
 31
0.0
  0
LINE
  5
432
100
AcDbEntity
  8
GEKO
  6
SOLID
 62
        7
100
AcDbLine
 10
503.655237698
 20
-1656.895887841
 30
0.0
 11
511.655237698
 21
-1656.895887841
 31
0.0
  0
LINE
  5
433
100
AcDbEntity
  8
GEKO
  6
SOLID
 62
        7
100
AcDbLine
 10
718.481034735
 20
-1666.514588752
 30
0.0
 11
712.195350266
 21
-1666.514181255
 31
0.0
  0
LINE
  5
434
100
AcDbEntity
  8
GEKO
  6
SOLID
 62
        7
100
AcDbLine
 10
496.655237459
 20
-1659.895887841
 30
0.0
 11
496.655237459
 21
-1667.095887173
 31
0.0
  0
LINE
  5
435
100
AcDbEntity
  8
GEKO
  6
SOLID
 62
        7
100
AcDbLine
 10
518.655237936
 20
-1656.895887841
 30
0.0
 11
518.655237936
 21
-1670.095888128
 31
0.0
  0
LINE
  5
436
100
AcDbEntity
  8
GEKO
  6
SOLID
 62
        7
100
AcDbLine
 10
718.481034735
 20
-1671.133390918
 30
0.0
 11
712.195050832
 21
-1671.132983401
 31
0.0
  0
ARC
  5
437
100
AcDbEntity
  8
GEKO
  6
SOLID
 62
        7
100
AcDbCircle
 10
715.569940246
 20
-1668.823740294
 30
0.0
 40
4.089315873
100
AcDbArc
 50
145.612033752
 51
214.380537346
  0
ARC
  5
438
100
AcDbEntity
  8
GEKO
  6
SOLID
 62
        7
100
AcDbCircle
 10
726.766540097
 20
-1661.896263042
 30
0.0
 40
15.285466596
100
AcDbArc
 50
162.408329459
 51
197.584241639
  0
LINE
  5
439
100
AcDbEntity
  8
GEKO
  6
SOLID
 62
        7
100
AcDbLine
 10
711.480669146
 20
-1668.823536005
 30
0.0
 11
711.481567448
 21
-1654.967129822
 31
0.0
  0
LINE
  5
43A
100
AcDbEntity
  8
GEKO
  6
SOLID
 62
        7
100
AcDbLine
 10
712.19624844
 20
-1652.657774815
 30
0.0
 11
718.481034735
 21
-1652.658182254
 31
0.0
  0
LINE
  5
43B
100
AcDbEntity
  8
GEKO
  6
SOLID
 62
        7
100
AcDbLine
 10
718.481034735
 20
-1657.27698442
 30
0.0
 11
712.195949135
 21
-1657.276576962
 31
0.0
  0
ARC
  5
43C
100
AcDbEntity
  8
GEKO
  6
SOLID
 62
        7
100
AcDbCircle
 10
715.570838548
 20
-1654.967334111
 30
0.0
 40
4.089315873
100
AcDbArc
 50
145.612033752
 51
214.380537346
  0
LINE
  5
43D
100
AcDbEntity
  8
GEKO
  6
SOLID
 62
        7
100
AcDbLine
 10
718.481034735
 20
-1671.133390918
 30
0.0
 11
718.481034735
 21
-1652.658182254
 31
0.0
  0
LINE
  5
43E
100
AcDbEntity
  8
GEKO
  6
SOLID
 62
        7
100
AcDbLine
 10
718.481034735
 20
-1437.277186931
 30
0.0
 11
712.195350266
 21
-1437.277594428
 31
0.0
  0
LINE
  5
43F
100
AcDbEntity
  8
GEKO
  6
SOLID
 62
        7
100
AcDbLine
 10
503.255237602
 20
-1656.895887841
 30
0.0
 11
499.655237459
 21
-1656.895887841
 31
0.0
  0
LINE
  5
440
100
AcDbEntity
  8
GEKO
  6
SOLID
 62
        7
100
AcDbLine
 10
718.481034735
 20
-1432.658384765
 30
0.0
 11
712.195050832
 21
-1432.658792282
 31
0.0
  0
ARC
  5
441
100
AcDbEntity
  8
GEKO
  6
SOLID
 62
        7
100
AcDbCircle
 10
715.569940246
 20
-1434.968035389
 30
0.0
 40
4.089315873
100
AcDbArc
 50
145.619462654
 51
214.387966248
  0
ARC
  5
442
100
AcDbEntity
  8
GEKO
  6
SOLID
 62
        7
100
AcDbCircle
 10
726.766540097
 20
-1441.895512641
 30
0.0
 40
15.285466596
100
AcDbArc
 50
162.415758361
 51
197.591670541
  0
LINE
  5
443
100
AcDbEntity
  8
GEKO
  6
SOLID
 62
        7
100
AcDbLine
 10
711.480669146
 20
-1434.968239678
 30
0.0
 11
711.481567448
 21
-1448.82464586
 31
0.0
  0
LINE
  5
444
100
AcDbEntity
  8
GEKO
  6
SOLID
 62
        7
100
AcDbLine
 10
512.255080214
 20
-1459.388242793
 30
0.0
 11
511.655237698
 21
-1456.426047028
 31
0.0
  0
LINE
  5
445
100
AcDbEntity
  8
GEKO
  6
SOLID
 62
        7
100
AcDbLine
 10
712.19624844
 20
-1451.134000868
 30
0.0
 11
718.481034735
 21
-1451.133593429
 31
0.0
  0
LINE
  5
446
100
AcDbEntity
  8
GEKO
  6
SOLID
 62
        7
100
AcDbLine
 10
718.481034735
 20
-1446.514791263
 30
0.0
 11
712.195949135
 21
-1446.515198721
 31
0.0
  0
ARC
  5
447
100
AcDbEntity
  8
GEKO
  6
SOLID
 62
        7
100
AcDbCircle
 10
715.570838548
 20
-1448.824441572
 30
0.0
 40
4.089315873
100
AcDbArc
 50
145.619462654
 51
214.387966248
  0
LWPOLYLINE
  5
448
100
AcDbEntity
  8
GEKO
  6
SOLID
 62
        7
100
AcDbPolyline
 90
       44
 70
        0
 10
568.423820425
 20
-1616.895887841
 10
568.984717207
 20
-1620.670000608
 10
569.576731257
 20
-1624.37153631
 10
570.19924223
 20
-1627.996616263
 10
570.851597823
 20
-1631.541441899
 10
571.533114458
 20
-1635.002298743
 10
572.243078005
 20
-1638.375560307
 10
572.98074452
 20
-1641.657691893
 10
573.745341035
 20
-1644.845254291
 10
574.536066361
 20
-1647.934907389
 10
575.352091929
 20
-1650.923413669
 10
576.192562662
 20
-1653.807641599
 10
577.056597864
 20
-1656.584568919
 10
577.94329215
 20
-1659.251285802
 10
578.851716389
 20
-1661.804997908
 10
579.780918682
 20
-1664.243029308
 10
580.729925357
 20
-1666.562825291
 10
581.697741989
 20
-1668.76195504
 10
582.683354444
 20
-1670.83811418
 10
583.68572994
 20
-1672.78912719
 10
584.703818129
 20
-1674.612949685
 10
585.7365522
 20
-1676.307670557
 10
586.258073834
 20
-1677.106057603
 10
586.782849993
 20
-1677.871513981
 10
587.310743193
 20
-1678.603839155
 10
587.841615137
 20
-1679.302841269
 10
588.375326746
 20
-1679.968337199
 10
588.911738197
 20
-1680.600152595
 10
589.45070896
 20
-1681.198121934
 10
589.992097835
 20
-1681.762088559
 10
590.535762987
 20
-1682.291904721
 10
591.081561987
 20
-1682.787431617
 10
591.629351845
 20
-1683.24853943
 10
592.17898905
 20
-1683.675107356
 10
592.730329607
 20
-1684.067023644
 10
593.283229076
 20
-1684.424185617
 10
593.837542606
 20
-1684.746499707
 10
594.393124978
 20
-1685.033881473
 10
594.949830639
 20
-1685.286255626
 10
595.507513742
 20
-1685.503556049
 10
596.066028185
 20
-1685.685725812
 10
596.625227647
 20
-1685.832717192
 10
597.184965629
 20
-1685.944491678
 10
597.745095488
 20
-1686.021019988
  0
LINE
  5
449
100
AcDbEntity
  8
GEKO
  6
SOLID
 62
        7
100
AcDbLine
 10
597.745095488
 20
-1417.770755695
 30
0.0
 11
603.616480282
 21
-1417.770755695
 31
0.0
  0
LINE
  5
44A
100
AcDbEntity
  8
GEKO
  6
SOLID
 62
        7
100
AcDbLine
 10
503.655237698
 20
-1636.895887841
 30
0.0
 11
511.655237698
 21
-1636.895887841
 31
0.0
  0
LINE
  5
44B
100
AcDbEntity
  8
GEKO
  6
SOLID
 62
        7
100
AcDbLine
 10
506.321904364
 20
-1636.895887841
 30
0.0
 11
511.655237698
 21
-1638.895887841
 31
0.0
  0
LINE
  5
44C
100
AcDbEntity
  8
GEKO
  6
SOLID
 62
        7
100
AcDbLine
 10
458.096354873
 20
-1351.895886156
 30
0.0
 11
483.31644382
 21
-1351.895886156
 31
0.0
  0
LINE
  5
44D
100
AcDbEntity
  8
GEKO
  6
SOLID
 62
        7
100
AcDbLine
 10
458.150016624
 20
-1751.895886156
 30
0.0
 11
483.269774055
 21
-1751.895886156
 31
0.0
  0
LINE
  5
44E
100
AcDbEntity
  8
GEKO
  6
SOLID
 62
        7
100
AcDbLine
 10
503.655237698
 20
-1656.895887841
 30
0.0
 11
511.655237698
 21
-1656.895887841
 31
0.0
  0
LINE
  5
44F
100
AcDbEntity
  8
GEKO
  6
SOLID
 62
        7
100
AcDbLine
 10
728.981034735
 20
-1421.895887841
 30
0.0
 11
728.981034735
 21
-1681.895887841
 31
0.0
  0
LINE
  5
450
100
AcDbEntity
  8
GEKO
  6
SOLID
 62
        7
100
AcDbLine
 10
606.985434429
 20
-1681.895887841
 30
0.0
 11
662.10886721
 21
-1681.895887841
 31
0.0
  0
LINE
  5
451
100
AcDbEntity
  8
GEKO
  6
SOLID
 62
        7
100
AcDbLine
 10
503.655237698
 20
-1641.895887841
 30
0.0
 11
511.655237698
 21
-1644.895887841
 31
0.0
  0
LINE
  5
452
100
AcDbEntity
  8
GEKO
  6
SOLID
 62
        7
100
AcDbLine
 10
503.655237698
 20
-1647.895887841
 30
0.0
 11
511.655237698
 21
-1650.895887841
 31
0.0
  0
ARC
  5
453
100
AcDbEntity
  8
GEKO
  6
SOLID
 62
        7
100
AcDbCircle
 10
715.481034735
 20
-1641.895889841
 30
0.0
 40
3.0
100
AcDbArc
 50
0.0
 51
90.0
  0
ARC
  5
454
100
AcDbEntity
  8
GEKO
  6
SOLID
 62
        7
100
AcDbCircle
 10
517.155614099
 20
-1458.395888199
 30
0.0
 40
5.0
100
AcDbArc
 50
191.447556754
 51
270.0
  0
LINE
  5
455
100
AcDbEntity
  8
GEKO
  6
SOLID
 62
        7
100
AcDbLine
 10
503.655237698
 20
-1653.895887841
 30
0.0
 11
511.655237698
 21
-1656.895887841
 31
0.0
  0
LINE
  5
456
100
AcDbEntity
  8
GEKO
  6
SOLID
 62
        7
100
AcDbLine
 10
499.655237101
 20
-1670.095887173
 30
0.0
 11
514.466527996
 21
-1670.09588894
 31
0.0
  0
ARC
  5
457
100
AcDbEntity
  8
GEKO
  6
SOLID
 62
        7
100
AcDbCircle
 10
507.655235896
 20
-1685.123414992
 30
0.0
 40
15.027526885
100
AcDbArc
 50
72.412036395
 51
107.587945747
  0
LINE
  5
458
100
AcDbEntity
  8
GEKO
  6
SOLID
 62
        7
100
AcDbLine
 10
512.196097813
 20
-1670.798362223
 30
0.0
 11
512.196097175
 21
-1676.145889148
 31
0.0
  0
ARC
  5
459
100
AcDbEntity
  8
GEKO
  6
SOLID
 62
        7
100
AcDbCircle
 10
514.466527508
 20
-1674.116198224
 30
0.0
 40
4.020309304
100
AcDbArc
 50
55.615741917
 51
124.384240225
  0
LINE
  5
45A
100
AcDbEntity
  8
GEKO
  6
SOLID
 62
        7
100
AcDbLine
 10
516.736957373
 20
-1676.14588969
 30
0.0
 11
516.736958012
 21
-1670.798362765
 31
0.0
  0
ARC
  5
45B
100
AcDbEntity
  8
GEKO
  6
SOLID
 62
        7
100
AcDbCircle
 10
500.843946912
 20
-1674.116196598
 30
0.0
 40
4.020309304
100
AcDbArc
 50
55.615741917
 51
124.384240225
  0
LINE
  5
45C
100
AcDbEntity
  8
GEKO
  6
SOLID
 62
        7
100
AcDbLine
 10
590.125928153
 20
-1421.895887841
 30
0.0
 11
571.654084609
 21
-1421.895887841
 31
0.0
  0
LINE
  5
45D
100
AcDbEntity
  8
GEKO
  6
SOLID
 62
        7
100
AcDbLine
 10
660.980352396
 20
-1681.895887841
 30
0.0
 11
728.981034735
 21
-1681.895887841
 31
0.0
  0
LINE
  5
45E
100
AcDbEntity
  8
GEKO
  6
SOLID
 62
        7
100
AcDbLine
 10
606.985434429
 20
-1421.895887841
 30
0.0
 11
728.981034735
 21
-1421.895887841
 31
0.0
  0
LINE
  5
45F
100
AcDbEntity
  8
GEKO
  6
SOLID
 62
        7
100
AcDbLine
 10
587.670491517
 20
-1461.895887841
 30
0.0
 11
726.655237698
 21
-1461.895887841
 31
0.0
  0
ARC
  5
460
100
AcDbEntity
  8
GEKO
  6
SOLID
 62
        7
100
AcDbCircle
 10
499.655237459
 20
-1443.895887841
 30
0.0
 40
3.0
100
AcDbArc
 50
180.0
 51
270.0
  0
LINE
  5
461
100
AcDbEntity
  8
GEKO
  6
SOLID
 62
        7
100
AcDbLine
 10
503.114377415
 20
-1670.79836114
 30
0.0
 11
503.114376777
 21
-1676.145888064
 31
0.0
  0
LINE
  5
462
100
AcDbEntity
  8
GEKO
  6
SOLID
 62
        7
100
AcDbLine
 10
498.573517216
 20
-1670.798360598
 30
0.0
 11
498.573516578
 21
-1676.145887522
 31
0.0
  0
ARC
  5
463
100
AcDbEntity
  8
GEKO
  6
SOLID
 62
        7
100
AcDbCircle
 10
499.655237459
 20
-1436.69588851
 30
0.0
 40
3.0
100
AcDbArc
 50
90.0
 51
180.0
  0
LINE
  5
464
100
AcDbEntity
  8
GEKO
  6
SOLID
 62
        7
100
AcDbLine
 10
660.980352396
 20
-1421.895887841
 30
0.0
 11
718.481034735
 21
-1421.895887841
 31
0.0
  0
LINE
  5
465
100
AcDbEntity
  8
GEKO
  6
SOLID
 62
        7
100
AcDbLine
 10
500.843947399
 20
-1676.848360806
 30
0.0
 11
514.466527996
 21
-1676.84835918
 31
0.0
  0
LINE
  5
466
100
AcDbEntity
  8
GEKO
  6
SOLID
 62
        7
100
AcDbLine
 10
718.481034735
 20
-1641.895889841
 30
0.0
 11
718.481034735
 21
-1681.895887841
 31
0.0
  0
ARC
  5
467
100
AcDbEntity
  8
GEKO
  6
SOLID
 62
        7
100
AcDbCircle
 10
715.481034735
 20
-1458.895887841
 30
0.0
 40
3.0
100
AcDbArc
 50
270.0
 51
0.0
  0
LINE
  5
468
100
AcDbEntity
  8
GEKO
  6
SOLID
 62
        7
100
AcDbLine
 10
718.481034735
 20
-1421.895887841
 30
0.0
 11
718.481034735
 21
-1458.895887841
 31
0.0
  0
ARC
  5
469
100
AcDbEntity
  8
GEKO
  6
SOLID
 62
        7
100
AcDbCircle
 10
507.655235896
 20
-1661.820833128
 30
0.0
 40
15.027526885
100
AcDbArc
 50
252.412050954
 51
287.587960306
  0
ARC
  5
46A
100
AcDbEntity
  8
GEKO
  6
SOLID
 62
        7
100
AcDbCircle
 10
500.843946912
 20
-1672.828051522
 30
0.0
 40
4.020309304
100
AcDbArc
 50
235.615756476
 51
304.384254784
  0
ARC
  5
46B
100
AcDbEntity
  8
GEKO
  6
SOLID
 62
        7
100
AcDbCircle
 10
514.466527508
 20
-1672.828049897
 30
0.0
 40
4.020309304
100
AcDbArc
 50
235.615756476
 51
304.384254784
  0
LINE
  5
46C
100
AcDbEntity
  8
GEKO
  6
SOLID
 62
        7
100
AcDbLine
 10
512.255080214
 20
-1644.40353289
 30
0.0
 11
511.655237698
 21
-1647.365728655
 31
0.0
  0
ARC
  5
46D
100
AcDbEntity
  8
GEKO
  6
SOLID
 62
        7
100
AcDbCircle
 10
517.155614099
 20
-1645.395887484
 30
0.0
 40
5.0
100
AcDbArc
 50
90.0
 51
168.552443246
  0
ARC
  5
46E
100
AcDbEntity
  8
GEKO
  6
SOLID
 62
        7
100
AcDbCircle
 10
499.655237459
 20
-1659.895887841
 30
0.0
 40
3.0
100
AcDbArc
 50
90.0
 51
180.0
  0
ARC
  5
46F
100
AcDbEntity
  8
GEKO
  6
SOLID
 62
        7
100
AcDbCircle
 10
499.655237459
 20
-1667.095887173
 30
0.0
 40
3.0
100
AcDbArc
 50
180.0
 51
270.0
  0
LINE
  5
470
100
AcDbEntity
  8
GEKO
  6
SOLID
 62
        7
100
AcDbLine
 10
503.655237698
 20
-1706.848359993
 30
0.0
 11
503.655237698
 21
-1676.84836047
 31
0.0
  0
LINE
  5
471
100
AcDbEntity
  8
GEKO
  6
SOLID
 62
        7
100
AcDbLine
 10
511.655237698
 20
-1706.848359993
 30
0.0
 11
511.655237698
 21
-1676.848359515
 31
0.0
  0
LINE
  5
472
100
AcDbEntity
  8
GEKO
  6
SOLID
 62
        7
100
AcDbLine
 10
503.655237698
 20
-1685.848359993
 30
0.0
 11
511.655237698
 21
-1688.848359993
 31
0.0
  0
LINE
  5
473
100
AcDbEntity
  8
GEKO
  6
SOLID
 62
        7
100
AcDbLine
 10
503.655237698
 20
-1691.848359993
 30
0.0
 11
511.655237698
 21
-1694.848359993
 31
0.0
  0
LINE
  5
474
100
AcDbEntity
  8
GEKO
  6
SOLID
 62
        7
100
AcDbLine
 10
503.655237698
 20
-1697.848359993
 30
0.0
 11
511.655237698
 21
-1700.848359993
 31
0.0
  0
LINE
  5
475
100
AcDbEntity
  8
GEKO
  6
SOLID
 62
        7
100
AcDbLine
 10
503.655237698
 20
-1703.848359993
 30
0.0
 11
511.655237698
 21
-1706.848359993
 31
0.0
  0
LINE
  5
476
100
AcDbEntity
  8
GEKO
  6
SOLID
 62
        7
100
AcDbLine
 10
503.655237698
 20
-1706.848359993
 30
0.0
 11
511.655237698
 21
-1706.848359993
 31
0.0
  0
LINE
  5
477
100
AcDbEntity
  8
GEKO
  6
SOLID
 62
        7
100
AcDbLine
 10
503.655237698
 20
-1679.848359993
 30
0.0
 11
511.655237698
 21
-1682.848359993
 31
0.0
  0
LINE
  5
478
100
AcDbEntity
  8
GEKO
  6
SOLID
 62
        7
100
AcDbLine
 10
457.655237698
 20
-1619.895887841
 30
0.0
 11
557.655237698
 21
-1619.895887841
 31
0.0
  0
LINE
  5
479
100
AcDbEntity
  8
GEKO
  6
SOLID
 62
        7
100
AcDbLine
 10
457.655237698
 20
-1483.895887841
 30
0.0
 11
557.655237698
 21
-1483.895887841
 31
0.0
  0
LINE
  5
47A
100
AcDbEntity
  8
GEKO
  6
SOLID
 62
        7
100
AcDbLine
 10
583.126177979
 20
-1462.059812025
 30
0.0
 11
583.638294751
 21
-1459.959538839
 31
0.0
  0
LINE
  5
47B
100
AcDbEntity
  8
GEKO
  6
SOLID
 62
        7
100
AcDbLine
 10
716.655237698
 20
-1638.895889841
 30
0.0
 11
716.655237698
 21
-1471.895887841
 31
0.0
  0
LINE
  5
47C
100
AcDbEntity
  8
GEKO
  6
SOLID
 62
        7
100
AcDbLine
 10
602.655237698
 20
-1461.895887841
 30
0.0
 11
726.655237698
 21
-1461.895887841
 31
0.0
  0
LINE
  5
47D
100
AcDbEntity
  8
GEKO
  6
SOLID
 62
        7
100
AcDbLine
 10
597.745095488
 20
-1686.021019988
 30
0.0
 11
603.616480282
 21
-1686.021019988
 31
0.0
  0
LWPOLYLINE
  5
47E
100
AcDbEntity
  8
GEKO
  6
SOLID
 62
        7
100
AcDbPolyline
 90
       16
 70
        0
 10
603.616480282
 20
-1686.021019987
 10
604.09798323
 20
-1685.957364492
 10
604.579211839
 20
-1685.867663066
 10
605.060072954
 20
-1685.751933073
 10
605.540473491
 20
-1685.610196914
 10
606.020320453
 20
-1685.442482029
 10
606.499520954
 20
-1685.248820882
 10
606.97798223
 20
-1685.029250962
 10
607.45561166
 20
-1684.783814774
 10
607.932316788
 20
-1684.512559828
 10
608.408005332
 20
-1684.215538634
 10
608.882585209
 20
-1683.892808688
 10
609.355964551
 20
-1683.544432464
 10
609.828051722
 20
-1683.170477401
 10
610.298755336
 20
-1682.771015888
 10
611.235647706
 20
-1681.895887742
  0
LINE
  5
47F
100
AcDbEntity
  8
GEKO
  6
SOLID
 62
        7
100
AcDbLine
 10
821.618881729
 20
-1455.958004738
 30
0.0
 11
821.618881729
 21
-1452.033649231
 31
0.0
  0
ARC
  5
480
100
AcDbEntity
  8
GEKO
  6
SOLID
 62
        7
100
AcDbCircle
 10
818.5877929
 20
-1456.463053595
 30
0.0
 40
5.367226705
100
AcDbArc
 50
55.615745828
 51
124.384254172
  0
LINE
  5
481
100
AcDbEntity
  8
GEKO
  6
SOLID
 62
        7
100
AcDbLine
 10
815.556704071
 20
-1452.033649231
 30
0.0
 11
815.556704071
 21
-1455.958004738
 31
0.0
  0
ARC
  5
482
100
AcDbEntity
  8
GEKO
  6
SOLID
 62
        7
100
AcDbCircle
 10
818.5877929
 20
-1451.528600376
 30
0.0
 40
5.367226704
100
AcDbArc
 50
235.615745822
 51
304.384254178
  0
ARC
  5
483
100
AcDbEntity
  8
GEKO
  6
SOLID
 62
        7
100
AcDbCircle
 10
800.401259926
 20
-1451.528600376
 30
0.0
 40
5.367226704
100
AcDbArc
 50
235.615745822
 51
304.384254178
  0
ARC
  5
484
100
AcDbEntity
  8
GEKO
  6
SOLID
 62
        7
100
AcDbCircle
 10
809.494526413
 20
-1436.833653777
 30
0.0
 40
20.062173304
100
AcDbArc
 50
252.412042636
 51
287.587957364
  0
ARC
  5
485
100
AcDbEntity
  8
GEKO
  6
SOLID
 62
        7
100
AcDbCircle
 10
817.494556666
 20
-1443.995826985
 30
0.0
 40
2.0
100
AcDbArc
 50
0.0
 51
90.0
  0
LINE
  5
486
100
AcDbEntity
  8
GEKO
  6
SOLID
 62
        7
100
AcDbLine
 10
819.494556666
 20
-1451.172977794
 30
0.0
 11
819.494556666
 21
-1443.995826985
 31
0.0
  0
LINE
  5
487
100
AcDbEntity
  8
GEKO
  6
SOLID
 62
        7
100
AcDbLine
 10
797.370171097
 20
-1452.033649231
 30
0.0
 11
797.370171097
 21
-1455.958004738
 31
0.0
  0
ARC
  5
488
100
AcDbEntity
  8
GEKO
  6
SOLID
 62
        7
100
AcDbCircle
 10
809.494526413
 20
-1471.158000197
 30
0.0
 40
20.062173307
100
AcDbArc
 50
72.412042639
 51
107.587957361
  0
ARC
  5
489
100
AcDbEntity
  8
GEKO
  6
SOLID
 62
        7
100
AcDbCircle
 10
800.401259926
 20
-1456.463053595
 30
0.0
 40
5.367226705
100
AcDbArc
 50
55.615745828
 51
124.384254172
  0
LINE
  5
48A
100
AcDbEntity
  8
GEKO
  6
SOLID
 62
        7
100
AcDbLine
 10
818.5877929
 20
-1451.09582689
 30
0.0
 11
800.401259926
 21
-1451.09582689
 31
0.0
  0
LINE
  5
48B
100
AcDbEntity
  8
GEKO
  6
SOLID
 62
        7
100
AcDbLine
 10
803.432348755
 20
-1452.033649231
 30
0.0
 11
803.432348755
 21
-1455.958004738
 31
0.0
  0
ARC
  5
48C
100
AcDbEntity
  8
GEKO
  6
SOLID
 62
        7
100
AcDbCircle
 10
801.494556666
 20
-1443.995826985
 30
0.0
 40
2.0
100
AcDbArc
 50
90.0
 51
180.0
  0
LINE
  5
48D
100
AcDbEntity
  8
GEKO
  6
SOLID
 62
        7
100
AcDbLine
 10
799.494556666
 20
-1451.172967423
 30
0.0
 11
799.494556666
 21
-1443.995826985
 31
0.0
  0
LINE
  5
48E
100
AcDbEntity
  8
GEKO
  6
SOLID
 62
        7
100
AcDbLine
 10
801.494556666
 20
-1441.995826985
 30
0.0
 11
817.494556666
 21
-1441.995826985
 31
0.0
  0
LINE
  5
48F
100
AcDbEntity
  8
GEKO
  6
CENTER
 62
        7
100
AcDbLine
 10
324.687882539
 20
-1551.895887841
 30
0.0
 11
957.42747977
 21
-1551.895887841
 31
0.0
  0
LINE
  5
490
100
AcDbEntity
  8
GEKO
  6
SOLID
 62
        7
100
AcDbLine
 10
1229.064585439
 20
-1524.395599219
 30
0.0
 11
1229.064585439
 21
-1539.395599219
 31
0.0
  0
LINE
  5
491
100
AcDbEntity
  8
GEKO
  6
SOLID
 62
        7
100
AcDbLine
 10
1223.0645852
 20
-1524.396054941
 30
0.0
 11
1223.0645852
 21
-1539.396054941
 31
0.0
  0
CIRCLE
  5
492
100
AcDbEntity
  8
GEKO
  6
SOLID
 62
        7
100
AcDbCircle
 10
1215.5645852
 20
-1551.896054941
 30
0.0
 40
3.49999994
  0
LINE
  5
493
100
AcDbEntity
  8
GEKO
  6
SOLID
 62
        7
100
AcDbLine
 10
1223.0645852
 20
-1579.396054941
 30
0.0
 11
1223.0645852
 21
-1564.396054941
 31
0.0
  0
LINE
  5
494
100
AcDbEntity
  8
GEKO
  6
SOLID
 62
        7
100
AcDbLine
 10
1229.064585439
 20
-1579.396054941
 30
0.0
 11
1229.064585439
 21
-1564.396054941
 31
0.0
  0
LINE
  5
495
100
AcDbEntity
  8
GEKO
  6
SOLID
 62
        7
100
AcDbLine
 10
1018.967905751
 20
-1579.396054941
 30
0.0
 11
1018.967905751
 21
-1564.396054941
 31
0.0
  0
LINE
  5
496
100
AcDbEntity
  8
GEKO
  6
SOLID
 62
        7
100
AcDbLine
 10
1012.967905513
 20
-1579.396054941
 30
0.0
 11
1012.967905513
 21
-1564.396054941
 31
0.0
  0
CIRCLE
  5
497
100
AcDbEntity
  8
GEKO
  6
SOLID
 62
        7
100
AcDbCircle
 10
1005.467905513
 20
-1551.896054941
 30
0.0
 40
3.49999994
  0
LINE
  5
498
100
AcDbEntity
  8
GEKO
  6
SOLID
 62
        7
100
AcDbLine
 10
1018.967905751
 20
-1524.396054941
 30
0.0
 11
1018.967905751
 21
-1539.396054941
 31
0.0
  0
LINE
  5
499
100
AcDbEntity
  8
GEKO
  6
SOLID
 62
        7
100
AcDbLine
 10
1012.967905513
 20
-1524.396054941
 30
0.0
 11
1012.967905513
 21
-1539.396054941
 31
0.0
  0
LINE
  5
49A
100
AcDbEntity
  8
GEKO
  6
SOLID
 62
        7
100
AcDbLine
 10
765.429990541
 20
-1369.895887841
 30
0.0
 11
954.49487251
 21
-1369.895887841
 31
0.0
  0
LINE
  5
49B
100
AcDbEntity
  8
GEKO
  6
SOLID
 62
        7
100
AcDbLine
 10
764.483236836
 20
-1387.895887841
 30
0.0
 11
954.49487251
 21
-1387.895887841
 31
0.0
  0
LINE
  5
49C
100
AcDbEntity
  8
GEKO
  6
SOLID
 62
        7
100
AcDbLine
 10
765.429990541
 20
-1333.895887841
 30
0.0
 11
954.49487251
 21
-1333.895887841
 31
0.0
  0
LINE
  5
49D
100
AcDbEntity
  8
GEKO
  6
SOLID
 62
        7
100
AcDbLine
 10
728.981034735
 20
-1421.895887841
 30
0.0
 11
801.020118974
 21
-1421.895887841
 31
0.0
  0
LINE
  5
49E
100
AcDbEntity
  8
GEKO
  6
SOLID
 62
        7
100
AcDbLine
 10
728.981034735
 20
-1681.895887841
 30
0.0
 11
801.020118974
 21
-1681.895887841
 31
0.0
  0
LINE
  5
49F
100
AcDbEntity
  8
GEKO
  6
SOLID
 62
        7
100
AcDbLine
 10
811.020118974
 20
-1431.895887841
 30
0.0
 11
811.020118974
 21
-1441.995826985
 31
0.0
  0
LINE
  5
4A0
100
AcDbEntity
  8
GEKO
  6
SOLID
 62
        7
100
AcDbLine
 10
766.376744245
 20
-1315.895887841
 30
0.0
 11
954.49487251
 21
-1315.895887841
 31
0.0
  0
ARC
  5
4A1
100
AcDbEntity
  8
GEKO
  6
SOLID
 62
        7
100
AcDbCircle
 10
801.020118974
 20
-1431.895887841
 30
0.0
 40
10.0
100
AcDbArc
 50
0.0
 51
90.0
  0
LINE
  5
4A2
100
AcDbEntity
  8
GEKO
  6
SOLID
 62
        7
100
AcDbLine
 10
1134.49487251
 20
-1306.895887841
 30
0.0
 11
1134.49487251
 21
-1396.895887841
 31
0.0
  0
ARC
  5
4A3
100
AcDbEntity
  8
GEKO
  6
SOLID
 62
        7
100
AcDbCircle
 10
801.020118974
 20
-1671.895887841
 30
0.0
 40
10.0
100
AcDbArc
 50
270.0
 51
360.0
  0
LINE
  5
4A4
100
AcDbEntity
  8
GEKO
  6
CENTER
 62
        7
100
AcDbLine
 10
1205.940771744
 20
-1551.895887841
 30
0.0
 11
1236.523024786
 21
-1551.895887841
 31
0.0
  0
LINE
  5
4A5
100
AcDbEntity
  8
GEKO
  6
SOLID
 62
        7
100
AcDbLine
 10
1134.49487251
 20
-1396.895887841
 30
0.0
 11
954.49487251
 21
-1396.895887841
 31
0.0
  0
LINE
  5
4A6
100
AcDbEntity
  8
GEKO
  6
SOLID
 62
        7
100
AcDbLine
 10
1134.49487251
 20
-1306.895887841
 30
0.0
 11
954.49487251
 21
-1306.895887841
 31
0.0
  0
LINE
  5
4A7
100
AcDbEntity
  8
GEKO
  6
CENTER
 62
        7
100
AcDbLine
 10
994.766966874
 20
-1551.895887841
 30
0.0
 11
1147.413699778
 21
-1551.895887841
 31
0.0
  0
LINE
  5
4A8
100
AcDbEntity
  8
GEKO
  6
CENTER
 62
        7
100
AcDbLine
 10
954.49487251
 20
-1310.51883143
 30
0.0
 11
954.49487251
 21
-1719.895337448
 31
0.0
  0
LINE
  5
4A9
100
AcDbEntity
  8
GEKO
  6
SOLID
 62
        7
100
AcDbLine
 10
745.26323777
 20
-1456.895887841
 30
0.0
 11
1114.494608097
 21
-1456.895887841
 31
0.0
  0
LINE
  5
4AA
100
AcDbEntity
  8
GEKO
  6
SOLID
 62
        7
100
AcDbLine
 10
745.26323777
 20
-1646.895887841
 30
0.0
 11
1114.494608097
 21
-1646.895887841
 31
0.0
  0
LINE
  5
4AB
100
AcDbEntity
  8
GEKO
  6
SOLID
 62
        7
100
AcDbLine
 10
1114.494608097
 20
-1456.895887841
 30
0.0
 11
1114.494608097
 21
-1646.895887841
 31
0.0
  0
LINE
  5
4AC
100
AcDbEntity
  8
GEKO
  6
SOLID
 62
        7
100
AcDbLine
 10
824.49487251
 20
-1456.895887841
 30
0.0
 11
824.49487251
 21
-1646.895887841
 31
0.0
  0
LINE
  5
4AD
100
AcDbEntity
  8
GEKO
  6
SOLID
 62
        7
100
AcDbLine
 10
884.49487251
 20
-1456.895887841
 30
0.0
 11
884.49487251
 21
-1646.895887841
 31
0.0
  0
LINE
  5
4AE
100
AcDbEntity
  8
GEKO
  6
SOLID
 62
        7
100
AcDbLine
 10
1024.49487251
 20
-1456.895887841
 30
0.0
 11
1024.49487251
 21
-1646.895887841
 31
0.0
  0
LINE
  5
4AF
100
AcDbEntity
  8
GEKO
  6
SOLID
 62
        7
100
AcDbLine
 10
1084.49487251
 20
-1456.895887841
 30
0.0
 11
1084.49487251
 21
-1646.895887841
 31
0.0
  0
LINE
  5
4B0
100
AcDbEntity
  8
GEKO
  6
CENTER
 62
        7
100
AcDbLine
 10
841.970503814
 20
-1626.895887841
 30
0.0
 11
875.20897222
 21
-1626.895887841
 31
0.0
  0
LINE
  5
4B1
100
AcDbEntity
  8
GEKO
  6
CENTER
 62
        7
100
AcDbLine
 10
854.494887769
 20
-1613.822858995
 30
0.0
 11
854.494887769
 21
-1643.415817963
 31
0.0
  0
CIRCLE
  5
4B2
100
AcDbEntity
  8
GEKO
  6
SOLID
 62
        7
100
AcDbCircle
 10
854.494887769
 20
-1626.895887841
 30
0.0
 40
7.0
  0
ARC
  5
4B3
100
AcDbEntity
  8
GEKO
  6
SOLID
 62
        7
100
AcDbCircle
 10
854.494887769
 20
-1626.895887841
 30
0.0
 40
8.0
100
AcDbArc
 50
105.0
 51
65.0
  0
LINE
  5
4B4
100
AcDbEntity
  8
GEKO
  6
CENTER
 62
        7
100
AcDbLine
 10
841.970503814
 20
-1476.895887841
 30
0.0
 11
875.20897222
 21
-1476.895887841
 31
0.0
  0
LINE
  5
4B5
100
AcDbEntity
  8
GEKO
  6
CENTER
 62
        7
100
AcDbLine
 10
854.494887769
 20
-1489.968916688
 30
0.0
 11
854.494887769
 21
-1460.37595772
 31
0.0
  0
CIRCLE
  5
4B6
100
AcDbEntity
  8
GEKO
  6
SOLID
 62
        7
100
AcDbCircle
 10
854.494887769
 20
-1476.895887841
 30
0.0
 40
7.0
  0
ARC
  5
4B7
100
AcDbEntity
  8
GEKO
  6
SOLID
 62
        7
100
AcDbCircle
 10
854.494887769
 20
-1476.895887841
 30
0.0
 40
8.0
100
AcDbArc
 50
295.0
 51
255.0
  0
LINE
  5
4B8
100
AcDbEntity
  8
GEKO
  6
CENTER
 62
        7
100
AcDbLine
 10
1067.019241206
 20
-1626.895887841
 30
0.0
 11
1033.7807728
 21
-1626.895887841
 31
0.0
  0
LINE
  5
4B9
100
AcDbEntity
  8
GEKO
  6
CENTER
 62
        7
100
AcDbLine
 10
1054.494857251
 20
-1613.822858995
 30
0.0
 11
1054.494857251
 21
-1643.415817963
 31
0.0
  0
CIRCLE
  5
4BA
100
AcDbEntity
  8
GEKO
  6
SOLID
 62
        7
100
AcDbCircle
 10
1054.494857251
 20
-1626.895887841
 30
0.0
 40
7.0
  0
ARC
  5
4BB
100
AcDbEntity
  8
GEKO
  6
SOLID
 62
        7
100
AcDbCircle
 10
1054.494857251
 20
-1626.895887841
 30
0.0
 40
8.0
100
AcDbArc
 50
115.0
 51
75.0
  0
LINE
  5
4BC
100
AcDbEntity
  8
GEKO
  6
CENTER
 62
        7
100
AcDbLine
 10
1067.019241206
 20
-1476.895887841
 30
0.0
 11
1033.7807728
 21
-1476.895887841
 31
0.0
  0
LINE
  5
4BD
100
AcDbEntity
  8
GEKO
  6
CENTER
 62
        7
100
AcDbLine
 10
1054.494857251
 20
-1489.968916688
 30
0.0
 11
1054.494857251
 21
-1460.37595772
 31
0.0
  0
CIRCLE
  5
4BE
100
AcDbEntity
  8
GEKO
  6
SOLID
 62
        7
100
AcDbCircle
 10
1054.494857251
 20
-1476.895887841
 30
0.0
 40
7.0
  0
ARC
  5
4BF
100
AcDbEntity
  8
GEKO
  6
SOLID
 62
        7
100
AcDbCircle
 10
1054.494857251
 20
-1476.895887841
 30
0.0
 40
8.0
100
AcDbArc
 50
285.0
 51
245.0
  0
LINE
  5
4C0
100
AcDbEntity
  8
GEKO
  6
SOLID
 62
        7
100
AcDbLine
 10
874.49487251
 20
-1421.895887841
 30
0.0
 11
1034.49487251
 21
-1421.895887841
 31
0.0
  0
LINE
  5
4C1
100
AcDbEntity
  8
GEKO
  6
SOLID
 62
        7
100
AcDbLine
 10
869.49487251
 20
-1426.895887841
 30
0.0
 11
869.49487251
 21
-1451.895887841
 31
0.0
  0
LINE
  5
4C2
100
AcDbEntity
  8
GEKO
  6
SOLID
 62
        7
100
AcDbLine
 10
1039.49487251
 20
-1426.895887841
 30
0.0
 11
1039.49487251
 21
-1451.895887841
 31
0.0
  0
LINE
  5
4C3
100
AcDbEntity
  8
GEKO
  6
SOLID
 62
        7
100
AcDbLine
 10
1144.506508183
 20
-1387.895887841
 30
0.0
 11
954.49487251
 21
-1387.895887841
 31
0.0
  0
LINE
  5
4C4
100
AcDbEntity
  8
GEKO
  6
SOLID
 62
        7
100
AcDbLine
 10
1143.559754479
 20
-1369.895887841
 30
0.0
 11
954.49487251
 21
-1369.895887841
 31
0.0
  0
ARC
  5
4C5
100
AcDbEntity
  8
GEKO
  6
SOLID
 62
        7
100
AcDbCircle
 10
874.49487251
 20
-1426.895887841
 30
0.0
 40
5.0
100
AcDbArc
 50
90.0
 51
180.0
  0
ARC
  5
4C6
100
AcDbEntity
  8
GEKO
  6
SOLID
 62
        7
100
AcDbCircle
 10
1034.49487251
 20
-1426.895887841
 30
0.0
 40
5.0
100
AcDbArc
 50
0.0
 51
90.0
  0
ARC
  5
4C7
100
AcDbEntity
  8
GEKO
  6
SOLID
 62
        7
100
AcDbCircle
 10
864.49487251
 20
-1451.895887841
 30
0.0
 40
5.0
100
AcDbArc
 50
270.0
 51
0.0
  0
ARC
  5
4C8
100
AcDbEntity
  8
GEKO
  6
SOLID
 62
        7
100
AcDbCircle
 10
1044.49487251
 20
-1451.895887841
 30
0.0
 40
5.0
100
AcDbArc
 50
180.0
 51
270.0
  0
LINE
  5
4C9
100
AcDbEntity
  8
GEKO
  6
SOLID
 62
        7
100
AcDbLine
 10
811.99487251
 20
-1661.895887841
 30
0.0
 11
954.49487251
 21
-1661.895887841
 31
0.0
  0
LINE
  5
4CA
100
AcDbEntity
  8
GEKO
  6
SOLID
 62
        7
100
AcDbLine
 10
811.99487251
 20
-1651.895887841
 30
0.0
 11
811.99487251
 21
-1671.895887841
 31
0.0
  0
LINE
  5
4CB
100
AcDbEntity
  8
GEKO
  6
SOLID
 62
        7
100
AcDbLine
 10
811.99487251
 20
-1671.895887841
 30
0.0
 11
954.49487251
 21
-1671.895887841
 31
0.0
  0
LINE
  5
4CC
100
AcDbEntity
  8
GEKO
  6
SOLID
 62
        7
100
AcDbLine
 10
899.49487251
 20
-1681.895887841
 30
0.0
 11
954.49487251
 21
-1681.895887841
 31
0.0
  0
ARC
  5
4CD
100
AcDbEntity
  8
GEKO
  6
SOLID
 62
        7
100
AcDbCircle
 10
806.99487251
 20
-1651.895887841
 30
0.0
 40
5.0
100
AcDbArc
 50
0.0
 51
36.384983933
  0
ARC
  5
4CE
100
AcDbEntity
  8
GEKO
  6
SOLID
 62
        7
100
AcDbCircle
 10
1101.99487251
 20
-1651.895887841
 30
0.0
 40
5.0
100
AcDbArc
 50
90.0
 51
180.0
  0
LINE
  5
4CF
100
AcDbEntity
  8
GEKO
  6
SOLID
 62
        7
100
AcDbLine
 10
1096.99487251
 20
-1671.895887841
 30
0.0
 11
954.49487251
 21
-1671.895887841
 31
0.0
  0
LINE
  5
4D0
100
AcDbEntity
  8
GEKO
  6
SOLID
 62
        7
100
AcDbLine
 10
899.49487251
 20
-1681.895887841
 30
0.0
 11
851.99487251
 21
-1671.895887841
 31
0.0
  0
LINE
  5
4D1
100
AcDbEntity
  8
GEKO
  6
SOLID
 62
        7
100
AcDbLine
 10
1096.99487251
 20
-1661.895887841
 30
0.0
 11
954.49487251
 21
-1661.895887841
 31
0.0
  0
LINE
  5
4D2
100
AcDbEntity
  8
GEKO
  6
SOLID
 62
        7
100
AcDbLine
 10
1096.99487251
 20
-1651.895887841
 30
0.0
 11
1096.99487251
 21
-1671.895887841
 31
0.0
  0
LINE
  5
4D3
100
AcDbEntity
  8
GEKO
  6
SOLID
 62
        7
100
AcDbLine
 10
1009.49487251
 20
-1681.895887841
 30
0.0
 11
1056.99487251
 21
-1671.895887841
 31
0.0
  0
LINE
  5
4D4
100
AcDbEntity
  8
GEKO
  6
SOLID
 62
        7
100
AcDbLine
 10
1009.49487251
 20
-1681.895887841
 30
0.0
 11
954.49487251
 21
-1681.895887841
 31
0.0
  0
LINE
  5
4D5
100
AcDbEntity
  8
GEKO
  6
SOLID
 62
        7
100
AcDbLine
 10
1144.506508183
 20
-1351.895887841
 30
0.0
 11
954.49487251
 21
-1351.895887841
 31
0.0
  0
LINE
  5
4D6
100
AcDbEntity
  8
GEKO
  6
SOLID
 62
        7
100
AcDbLine
 10
1143.559754479
 20
-1333.895887841
 30
0.0
 11
954.49487251
 21
-1333.895887841
 31
0.0
  0
LINE
  5
4D7
100
AcDbEntity
  8
GEKO
  6
SOLID
 62
        7
100
AcDbLine
 10
1142.613000775
 20
-1315.895887841
 30
0.0
 11
954.49487251
 21
-1315.895887841
 31
0.0
  0
LINE
  5
4D8
100
AcDbEntity
  8
GEKO
  6
SOLID
 62
        7
100
AcDbLine
 10
929.49487251
 20
-1396.895887841
 30
0.0
 11
929.49487251
 21
-1421.895887841
 31
0.0
  0
LINE
  5
4D9
100
AcDbEntity
  8
GEKO
  6
SOLID
 62
        7
100
AcDbLine
 10
979.49487251
 20
-1396.895887841
 30
0.0
 11
979.49487251
 21
-1421.895887841
 31
0.0
  0
LINE
  5
4DA
100
AcDbEntity
  8
GEKO
  6
SOLID
 62
        7
100
AcDbLine
 10
764.483236836
 20
-1351.895887841
 30
0.0
 11
954.49487251
 21
-1351.895887841
 31
0.0
  0
LINE
  5
4DB
100
AcDbEntity
  8
GEKO
  6
SOLID
 62
        7
100
AcDbLine
 10
774.49487251
 20
-1396.895887841
 30
0.0
 11
954.49487251
 21
-1396.895887841
 31
0.0
  0
LINE
  5
4DC
100
AcDbEntity
  8
GEKO
  6
SOLID
 62
        7
100
AcDbLine
 10
774.49487251
 20
-1306.895887841
 30
0.0
 11
954.49487251
 21
-1306.895887841
 31
0.0
  0
LINE
  5
4DD
100
AcDbEntity
  8
GEKO
  6
SOLID
 62
        7
100
AcDbLine
 10
774.49487251
 20
-1306.895887841
 30
0.0
 11
774.49487251
 21
-1396.895887841
 31
0.0
  0
LINE
  5
4DE
100
AcDbEntity
  8
GEKO
  6
SOLID
 62
        7
100
AcDbLine
 10
1147.413699778
 20
-1551.895887841
 30
0.0
 11
1155.91281897
 21
-1551.895887841
 31
0.0
  0
LINE
  5
4DF
100
AcDbEntity
  8
GEKO
  6
SOLID
 62
        7
100
AcDbLine
 10
745.26323777
 20
-1421.895887841
 30
0.0
 11
745.26323777
 21
-1681.895887841
 31
0.0
  0
LINE
  5
4E0
100
AcDbEntity
  8
GEKO
  6
SOLID
 62
        7
100
AcDbLine
 10
811.020118974
 20
-1646.895887841
 30
0.0
 11
811.020118974
 21
-1671.895887841
 31
0.0
  0
LWPOLYLINE
  5
4E1
100
AcDbEntity
  8
GEKO
  6
SOLID
 62
        7
100
AcDbPolyline
 90
       16
 70
        0
 10
603.616480282
 20
-1417.770755696
 10
604.09798323
 20
-1417.83441119
 10
604.579211839
 20
-1417.924112617
 10
605.060072954
 20
-1418.03984261
 10
605.540473491
 20
-1418.181578768
 10
606.020320453
 20
-1418.349293654
 10
606.499520954
 20
-1418.542954801
 10
606.97798223
 20
-1418.76252472
 10
607.45561166
 20
-1419.007960909
 10
607.932316788
 20
-1419.279215855
 10
608.408005332
 20
-1419.576237049
 10
608.882585209
 20
-1419.898966995
 10
609.355964551
 20
-1420.247343219
 10
609.828051722
 20
-1420.621298282
 10
610.298755336
 20
-1421.020759795
 10
611.235647706
 20
-1421.89588794
  0
LWPOLYLINE
  5
4E2
100
AcDbEntity
  8
GEKO
  6
SOLID
 62
        7
100
AcDbPolyline
 90
       33
 70
        0
 10
572.856008148
 20
-1421.895887844
 10
572.439810612
 20
-1421.854600196
 10
572.036787998
 20
-1421.856017642
 10
571.632339749
 20
-1421.899276704
 10
571.212456154
 20
-1421.987955195
 10
570.76571777
 20
-1422.129278485
 10
570.284523821
 20
-1422.332610746
 10
569.76533952
 20
-1422.607795248
 10
569.208152933
 20
-1422.963825436
 10
568.615527318
 20
-1423.408063116
 10
567.991605152
 20
-1423.945971769
 10
567.341278378
 20
-1424.581206274
 10
566.669598573
 20
-1425.315886545
 10
565.981411766
 20
-1426.150926342
 10
565.281165778
 20
-1427.08634268
 10
564.572833783
 20
-1428.121513372
 10
563.859908105
 20
-1429.255375787
 10
563.14543174
 20
-1430.486572441
 10
562.432046807
 20
-1431.813553519
 10
561.722047675
 20
-1433.234646698
 10
561.017432196
 20
-1434.748103232
 10
560.319947929
 20
-1436.352127324
 10
559.631132268
 20
-1438.044894035
 10
558.952346435
 20
-1439.824559505
 10
558.284803848
 20
-1441.689266148
 10
557.629593547
 20
-1443.637144633
 10
556.987699439
 20
-1445.66631391
 10
556.360016024
 20
-1447.774880099
 10
555.747361254
 20
-1449.960934784
 10
555.150487001
 20
-1452.22255308
 10
554.57008762
 20
-1454.557791674
 10
554.006806925
 20
-1456.964686997
 10
553.461243896
 20
-1459.441253581
  0
LINE
  5
4E3
100
AcDbEntity
  8
GEKO
  6
SOLID
 62
        7
100
AcDbLine
 10
503.655237698
 20
-1417.94341569
 30
0.0
 11
511.655237698
 21
-1414.94341569
 31
0.0
  0
LWPOLYLINE
  5
4E4
100
AcDbEntity
  8
GEKO
  6
SOLID
 62
        7
100
AcDbPolyline
 90
       65
 70
        0
 10
582.91307841
 20
-1421.895887847
 10
582.25547186
 20
-1419.979552945
 10
581.587388041
 20
-1418.118832536
 10
580.909137894
 20
-1416.314592646
 10
580.221037095
 20
-1414.567673014
 10
579.523405903
 20
-1412.878886701
 10
578.816569014
 20
-1411.249019711
 10
578.100855408
 20
-1409.678830626
 10
577.376598195
 20
-1408.169050252
 10
576.644134465
 20
-1406.720381279
 10
575.903805123
 20
-1405.333497954
 10
575.155954738
 20
-1404.009045769
 10
574.400931379
 20
-1402.747641157
 10
573.639086452
 20
-1401.549871208
 10
572.870774541
 20
-1400.416293394
 10
572.096353236
 20
-1399.347435312
 10
571.316182973
 20
-1398.343794435
 10
570.530626863
 20
-1397.405837883
 10
569.740050525
 20
-1396.534002205
 10
568.944821911
 20
-1395.728693176
 10
568.145311143
 20
-1394.990285607
 10
567.341890333
 20
-1394.319123172
 10
566.534933412
 20
-1393.715518246
 10
565.724815961
 20
-1393.179751763
 10
564.911915027
 20
-1392.712073083
 10
564.096608955
 20
-1392.312699874
 10
563.279277211
 20
-1391.981818016
 10
562.4603002
 20
-1391.719581508
 10
561.640059096
 20
-1391.526112404
 10
560.818935659
 20
-1391.401500747
 10
559.997312062
 20
-1391.345804536
 10
559.175570708
 20
-1391.359049693
 10
558.354094058
 20
-1391.441230053
 10
557.533264448
 20
-1391.592307368
 10
556.713463911
 20
-1391.812211321
 10
555.895074006
 20
-1392.100839566
 10
555.07847563
 20
-1392.458057765
 10
554.26404885
 20
-1392.883699662
 10
553.452172721
 20
-1393.377567151
 10
552.643225109
 20
-1393.939430374
 10
551.837582522
 20
-1394.569027826
 10
551.035619924
 20
-1395.266066475
 10
550.237710569
 20
-1396.030221902
 10
549.444225826
 20
-1396.861138451
 10
548.655535002
 20
-1397.75842939
 10
547.872005173
 20
-1398.721677099
 10
547.094001015
 20
-1399.750433256
 10
546.32188463
 20
-1400.844219053
 10
545.556015382
 20
-1402.002525415
 10
544.796749724
 20
-1403.224813235
 10
544.044441039
 20
-1404.51051363
 10
543.299439471
 20
-1405.859028202
 10
542.562091761
 20
-1407.269729318
 10
541.832741091
 20
-1408.741960402
 10
541.111726919
 20
-1410.27503624
 10
540.399384823
 20
-1411.8682433
 10
539.696046345
 20
-1413.520840062
 10
539.002038836
 20
-1415.232057366
 10
538.317685307
 20
-1417.001098767
 10
537.643304272
 20
-1418.82714091
 10
536.979209605
 20
-1420.709333906
 10
536.325710393
 20
-1422.646801737
 10
535.683110791
 20
-1424.638642654
 10
535.051709882
 20
-1426.683929605
 10
534.431801535
 20
-1428.78171066
  0
LWPOLYLINE
  5
4E5
100
AcDbEntity
  8
GEKO
  6
SOLID
 62
        7
100
AcDbPolyline
 90
      153
 70
        0
 10
458.096354873
 20
-1351.895886255
 10
457.482983595
 20
-1351.913517289
 10
456.869712546
 20
-1351.961245153
 10
456.25663402
 20
-1352.039062664
 10
455.643840284
 20
-1352.146958111
 10
455.031423562
 20
-1352.284915256
 10
454.419476021
 20
-1352.452913336
 10
453.808089758
 20
-1352.650927069
 10
453.197356786
 20
-1352.878926654
 10
452.587369017
 20
-1353.136877776
 10
451.978218253
 20
-1353.424741617
 10
451.369996171
 20
-1353.742474852
 10
450.762794305
 20
-1354.090029663
 10
450.156704039
 20
-1354.467353745
 10
449.551816588
 20
-1354.874390311
 10
448.948222984
 20
-1355.311078103
 10
448.346014069
 20
-1355.7773514
 10
447.745280472
 20
-1356.273140031
 10
447.146112603
 20
-1356.798369379
 10
446.548600635
 20
-1357.352960399
 10
445.952834492
 20
-1357.936829627
 10
445.358903835
 20
-1358.549889191
 10
444.766898049
 20
-1359.192046828
 10
444.17690623
 20
-1359.863205894
 10
443.589017171
 20
-1360.563265383
 10
442.419900902
 20
-1362.049659863
 10
441.260253012
 20
-1363.650335506
 10
440.110771573
 20
-1365.364328759
 10
438.972148533
 20
-1367.190607854
 10
437.845069307
 20
-1369.12807343
 10
436.73021236
 20
-1371.175559195
 10
435.6282488
 20
-1373.331832631
 10
434.539841972
 20
-1375.595595732
 10
433.465647061
 20
-1377.965485785
 10
432.406310699
 20
-1380.440076194
 10
431.36247057
 20
-1383.017877337
 10
430.334755033
 20
-1385.697337461
 10
429.323782739
 20
-1388.47684362
 10
428.330162261
 20
-1391.35472264
 10
427.354491724
 20
-1394.329242134
 10
426.397358451
 20
-1397.398611536
 10
425.459338606
 20
-1400.560983188
 10
424.540996844
 20
-1403.814453444
 10
423.642885979
 20
-1407.157063822
 10
422.765546644
 20
-1410.586802179
 10
421.909506967
 20
-1414.101603924
 10
421.075282258
 20
-1417.699353263
 10
420.263374692
 20
-1421.377884467
 10
419.474273011
 20
-1425.13498318
 10
418.708452228
 20
-1428.968387752
 10
417.966373343
 20
-1432.875790599
 10
417.248483063
 20
-1436.854839591
 10
416.555213534
 20
-1440.903139471
 10
415.886982082
 20
-1445.018253294
 10
415.24419096
 20
-1449.197703896
 10
414.627227108
 20
-1453.438975385
 10
414.036461918
 20
-1457.739514654
 10
413.472251011
 20
-1462.096732917
 10
412.934934024
 20
-1466.508007273
 10
412.424834404
 20
-1470.970682278
 10
411.942259215
 20
-1475.482071546
 10
411.48749895
 20
-1480.039459371
 10
411.060827361
 20
-1484.640102351
 10
410.66250129
 20
-1489.281231051
 10
410.292760516
 20
-1493.960051663
 10
409.951827612
 20
-1498.67374769
 10
409.639907807
 20
-1503.419481639
 10
409.357188868
 20
-1508.194396735
 10
409.103840981
 20
-1512.995618635
 10
408.880016654
 20
-1517.820257159
 10
408.685850623
 20
-1522.665408032
 10
408.521459768
 20
-1527.528154633
 10
408.386943047
 20
-1532.405569746
 10
408.282381435
 20
-1537.294717326
 10
408.207837875
 20
-1542.192654267
 10
408.16335724
 20
-1547.09643217
 10
408.148966305
 20
-1552.003099121
 10
408.164673734
 20
-1556.909701467
 10
408.210470071
 20
-1561.813285593
 10
408.286327747
 20
-1566.710899702
 10
408.3922011
 20
-1571.59959559
 10
408.528026397
 20
-1576.476430421
 10
408.693721876
 20
-1581.338468501
 10
408.889187792
 20
-1586.182783041
 10
409.114306483
 20
-1591.006457921
 10
409.368942434
 20
-1595.806589448
 10
409.652942363
 20
-1600.580288098
 10
409.96613531
 20
-1605.324680261
 10
410.308332745
 20
-1610.036909968
 10
410.679328675
 20
-1614.714140609
 10
411.078899772
 20
-1619.353556646
 10
411.506805509
 20
-1623.952365301
 10
411.962788299
 20
-1628.507798241
 10
412.446573656
 20
-1633.017113245
 10
412.957870358
 20
-1637.477595852
 10
413.496370619
 20
-1641.886560996
 10
414.061750281
 20
-1646.241354626
 10
414.653669004
 20
-1650.539355297
 10
415.271770471
 20
-1654.777975754
 10
415.915682606
 20
-1658.954664485
 10
416.585017794
 20
-1663.066907259
 10
417.279373119
 20
-1667.112228642
 10
417.9983306
 20
-1671.088193481
 10
418.741457448
 20
-1674.992408376
 10
419.508306326
 20
-1678.822523117
 10
420.298415616
 20
-1682.576232099
 10
421.111309697
 20
-1686.251275713
 10
421.946499234
 20
-1689.845441701
 10
422.803481469
 20
-1693.356566494
 10
423.681740529
 20
-1696.78253651
 10
424.580747729
 20
-1700.121289425
 10
425.499961896
 20
-1703.37081542
 10
426.438829694
 20
-1706.529158386
 10
427.396785954
 20
-1709.594417103
 10
428.373254019
 20
-1712.564746387
 10
429.367646086
 20
-1715.438358195
 10
430.379363563
 20
-1718.213522708
 10
431.407797431
 20
-1720.888569367
 10
432.452328605
 20
-1723.46188788
 10
433.512328312
 20
-1725.931929195
 10
434.587158467
 20
-1728.297206428
 10
435.676172056
 20
-1730.556295757
 10
436.778713529
 20
-1732.707837286
 10
437.894119192
 20
-1734.750535857
 10
439.021717608
 20
-1736.683161832
 10
440.160829999
 20
-1738.504551832
 10
441.310770656
 20
-1740.213609442
 10
442.470847353
 20
-1741.809305863
 10
443.640361761
 20
-1743.290680539
 10
444.228438315
 20
-1743.988215851
 10
444.818609872
 20
-1744.65684173
 10
445.410787613
 20
-1745.296457551
 10
446.004882417
 20
-1745.906967053
 10
446.600804874
 20
-1746.488278355
 10
447.1984653
 20
-1747.040303972
 10
447.797773748
 20
-1747.562960825
 10
448.398640023
 20
-1748.056170255
 10
449.000973697
 20
-1748.519858037
 10
449.60468412
 20
-1748.953954385
 10
450.209680435
 20
-1749.35839397
 10
450.815871591
 20
-1749.733115925
 10
451.423166359
 20
-1750.078063854
 10
452.031473342
 20
-1750.393185844
 10
452.640700991
 20
-1750.67843447
 10
453.250757619
 20
-1750.933766802
 10
453.861551414
 20
-1751.159144414
 10
454.472990453
 20
-1751.354533388
 10
455.084982717
 20
-1751.519904316
 10
455.697436101
 20
-1751.655232312
 10
456.310258434
 20
-1751.760497009
 10
456.923357486
 20
-1751.835682566
 10
457.536640988
 20
-1751.880777665
 10
458.150016643
 20
-1751.895775522
  0
LWPOLYLINE
  5
4E6
100
AcDbEntity
  8
GEKO
  6
SOLID
 62
        7
100
AcDbPolyline
 90
      223
 70
        0
 10
517.629956399
 20
-1406.625179351
 10
516.964023702
 20
-1404.150092622
 10
516.286951825
 20
-1401.723841441
 10
515.598964566
 20
-1399.347227776
 10
514.90028933
 20
-1397.021037188
 10
514.191157056
 20
-1394.74603857
 10
513.471802139
 20
-1392.522983897
 10
512.742462354
 20
-1390.352607971
 10
512.003378774
 20
-1388.235628185
 10
511.254795695
 20
-1386.172744281
 10
510.496960552
 20
-1384.164638119
 10
509.730123838
 20
-1382.211973456
 10
508.954539022
 20
-1380.31539572
 10
508.170462463
 20
-1378.475531802
 10
507.37815333
 20
-1376.692989848
 10
506.57787351
 20
-1374.968359055
 10
505.769887526
 20
-1373.302209479
 10
504.954462448
 20
-1371.695091845
 10
504.131867804
 20
-1370.147537367
 10
503.302375494
 20
-1368.66005757
 10
502.466259697
 20
-1367.233144122
 10
501.623796779
 20
-1365.867268673
 10
500.775265208
 20
-1364.562882696
 10
499.920945454
 20
-1363.32041734
 10
499.061119904
 20
-1362.140283287
 10
498.196072761
 20
-1361.022870616
 10
497.326089957
 20
-1359.968548674
 10
496.451459054
 20
-1358.977665955
 10
495.572469151
 20
-1358.050549983
 10
494.689410787
 20
-1357.187507205
 10
493.802575847
 20
-1356.388822889
 10
492.912257462
 20
-1355.654761031
 10
492.018749918
 20
-1354.985564265
 10
491.122348552
 20
-1354.381453788
 10
490.223349658
 20
-1353.84262928
 10
489.32205039
 20
-1353.369268842
 10
488.418748662
 20
-1352.96152894
 10
487.513743049
 20
-1352.619544346
 10
486.60733269
 20
-1352.343428099
 10
485.699817187
 20
-1352.133271466
 10
484.791496508
 20
-1351.989143912
 10
483.88267089
 20
-1351.911093075
 10
482.973640731
 20
-1351.899144757
 10
482.064706502
 20
-1351.953302904
 10
481.15616864
 20
-1352.073549617
 10
480.248327451
 20
-1352.259845148
 10
479.341483011
 20
-1352.512127921
 10
478.435935066
 20
-1352.830314547
 10
477.531982934
 20
-1353.214299852
 10
476.629925406
 20
-1353.663956914
 10
475.730060645
 20
-1354.179137106
 10
474.832686092
 20
-1354.759670141
 10
473.938098363
 20
-1355.40536413
 10
473.046593152
 20
-1356.116005647
 10
472.158465136
 20
-1356.891359798
 10
471.274007875
 20
-1357.731170299
 10
470.393513716
 20
-1358.635159561
 10
469.517273695
 20
-1359.603028782
 10
468.645577442
 20
-1360.634458043
 10
467.778713087
 20
-1361.729106418
 10
466.916967162
 20
-1362.886612086
 10
466.060624504
 20
-1364.106592445
 10
465.20996817
 20
-1365.388644247
 10
464.365279331
 20
-1366.732343724
 10
463.526837191
 20
-1368.137246733
 10
462.694918886
 20
-1369.602888901
 10
461.869799397
 20
-1371.128785776
 10
461.051751457
 20
-1372.714432993
 10
460.241045461
 20
-1374.359306435
 10
459.437949379
 20
-1376.062862408
 10
458.642728665
 20
-1377.824537824
 10
457.855646169
 20
-1379.643750381
 10
457.076962051
 20
-1381.51989876
 10
456.306933697
 20
-1383.452362825
 10
455.545815629
 20
-1385.440503821
 10
454.793859427
 20
-1387.483664593
 10
454.05131364
 20
-1389.5811698
 10
453.318423708
 20
-1391.732326135
 10
452.595431879
 20
-1393.936422561
 10
451.882577128
 20
-1396.192730539
 10
451.180095082
 20
-1398.500504275
 10
450.488217937
 20
-1400.858980962
 10
449.807174385
 20
-1403.267381035
 10
449.137189537
 20
-1405.724908424
 10
448.478484848
 20
-1408.230750825
 10
447.831278044
 20
-1410.784079962
 10
447.195783053
 20
-1413.384051862
 10
446.57220993
 20
-1416.029807137
 10
445.960764788
 20
-1418.720471264
 10
445.361649734
 20
-1421.455154876
 10
444.775062799
 20
-1424.232954057
 10
444.20119787
 20
-1427.052950639
 10
443.640244633
 20
-1429.914212507
 10
443.092388504
 20
-1432.815793904
 10
442.557810569
 20
-1435.756735748
 10
441.52919163
 20
-1441.752799718
 10
440.555747695
 20
-1447.894477366
 10
439.638765696
 20
-1454.173649135
 10
438.779457924
 20
-1460.582013693
 10
437.978960419
 20
-1467.111098911
 10
437.238331473
 20
-1473.752273062
 10
436.558550229
 20
-1480.496756233
 10
435.940515386
 20
-1487.33563193
 10
435.385044013
 20
-1494.259858872
 10
434.892870467
 20
-1501.260282936
 10
434.464645421
 20
-1508.327649265
 10
434.100935007
 20
-1515.452614502
 10
433.802220067
 20
-1522.625759142
 10
433.568895513
 20
-1529.837599983
 10
433.40126981
 20
-1537.078602666
 10
433.299564568
 20
-1544.339194279
 10
433.263914244
 20
-1551.609776012
 10
433.294365969
 20
-1558.880735849
 10
433.390879486
 20
-1566.142461273
 10
433.5533272
 20
-1573.385351975
 10
433.781494346
 20
-1580.599832546
 10
434.07507928
 20
-1587.776365139
 10
434.433693869
 20
-1594.905462074
 10
434.85686401
 20
-1601.977698381
 10
435.344030253
 20
-1608.983724265
 10
435.894548545
 20
-1615.914277464
 10
436.507691076
 20
-1622.760195493
 10
437.182647247
 20
-1629.512427757
 10
437.918524737
 20
-1636.16204752
 10
438.714350684
 20
-1642.700263704
 10
439.569072973
 20
-1649.118432508
 10
440.481561625
 20
-1655.408068844
 10
441.450610292
 20
-1661.560857544
 10
442.474937849
 20
-1667.568664361
 10
443.007410829
 20
-1670.515709734
 10
443.553190093
 20
-1673.423546722
 10
444.112095239
 20
-1676.291214176
 10
444.683941528
 20
-1679.117764222
 10
445.268539943
 20
-1681.90226258
 10
445.865697253
 20
-1684.643788867
 10
446.475216074
 20
-1687.341436904
 10
447.096894937
 20
-1689.994315016
 10
447.730528354
 20
-1692.601546327
 10
448.375906885
 20
-1695.162269048
 10
449.032817207
 20
-1697.675636763
 10
449.701042188
 20
-1700.140818708
 10
450.380360953
 20
-1702.557000049
 10
451.070548962
 20
-1704.923382144
 10
451.771378081
 20
-1707.239182816
 10
452.48261666
 20
-1709.503636604
 10
453.204029608
 20
-1711.715995021
 10
453.93537847
 20
-1713.875526798
 10
454.676421507
 20
-1715.981518127
 10
455.426913778
 20
-1718.0332729
 10
456.186607215
 20
-1720.030112934
 10
456.955250712
 20
-1721.971378197
 10
457.732590202
 20
-1723.856427026
 10
458.518368746
 20
-1725.684636344
 10
459.312326613
 20
-1727.455401856
 10
460.114201371
 20
-1729.168138258
 10
460.92372797
 20
-1730.822279425
 10
461.74063883
 20
-1732.417278601
 10
462.564663931
 20
-1733.952608579
 10
463.395530902
 20
-1735.427761873
 10
464.23296511
 20
-1736.84225089
 10
465.076689751
 20
-1738.195608087
 10
465.926425942
 20
-1739.487386129
 10
466.781892814
 20
-1740.717158033
 10
467.642807601
 20
-1741.884517314
 10
468.508885739
 20
-1742.989078116
 10
469.379840956
 20
-1744.030475338
 10
470.255385369
 20
-1745.00836476
 10
471.135229576
 20
-1745.922423153
 10
472.019082757
 20
-1746.772348384
 10
472.906652764
 20
-1747.557859522
 10
473.797646221
 20
-1748.278696926
 10
474.691768622
 20
-1748.934622332
 10
475.588724425
 20
-1749.52541893
 10
476.488217152
 20
-1750.050891441
 10
477.389949487
 20
-1750.510866177
 10
478.293623374
 20
-1750.905191097
 10
479.198940112
 20
-1751.233735863
 10
480.105600462
 20
-1751.496391877
 10
481.013304737
 20
-1751.693072324
 10
481.921752908
 20
-1751.823712191
 10
482.830644696
 20
-1751.888268298
 10
483.73967968
 20
-1751.886719306
 10
484.648557388
 20
-1751.819065727
 10
485.556977402
 20
-1751.685329924
 10
486.464639455
 20
-1751.485556101
 10
487.37124353
 20
-1751.219810291
 10
488.27648996
 20
-1750.888180333
 10
489.180079528
 20
-1750.490775843
 10
490.081713561
 20
-1750.027728179
 10
490.981094036
 20
-1749.499190396
 10
491.877923674
 20
-1748.905337194
 10
492.771906039
 20
-1748.246364865
 10
493.662745635
 20
-1747.522491225
 10
494.550148006
 20
-1746.733955541
 10
495.433819833
 20
-1745.881018455
 10
496.313469027
 20
-1744.963961893
 10
497.188804832
 20
-1743.983088978
 10
498.059537916
 20
-1742.938723926
 10
498.925380469
 20
-1741.831211939
 10
499.786046297
 20
-1740.660919091
 10
500.641250917
 20
-1739.428232209
 10
501.490711651
 20
-1738.133558743
 10
502.334147722
 20
-1736.777326631
 10
503.171280341
 20
-1735.359984159
 10
504.001832803
 20
-1733.881999813
 10
504.825530581
 20
-1732.343862122
 10
505.642101411
 20
-1730.7460795
 10
506.451275384
 20
-1729.089180074
 10
507.252785039
 20
-1727.373711511
 10
508.046365446
 20
-1725.600240841
 10
508.831754297
 20
-1723.769354261
 10
509.608691991
 20
-1721.881656949
 10
510.37692172
 20
-1719.937772861
 10
511.136189556
 20
-1717.938344523
 10
511.886244532
 20
-1715.884032824
 10
512.626838725
 20
-1713.77551679
 10
513.357727343
 20
-1711.613493367
 10
514.078668798
 20
-1709.398677184
 10
514.789424791
 20
-1707.131800323
 10
515.489760392
 20
-1704.813612073
 10
516.179444112
 20
-1702.444878681
 10
516.858247985
 20
-1700.026383106
 10
517.525947641
 20
-1697.55892475
  0
LWPOLYLINE
  5
4E7
100
AcDbEntity
  8
GEKO
  6
SOLID
 62
        7
100
AcDbPolyline
 90
        6
 70
        0
 10
549.199212423
 20
-1415.990302457
 10
548.723099646
 20
-1417.488040334
 10
548.254750348
 20
-1419.029183229
 10
547.342641772
 20
-1422.238852548
 10
546.465284931
 20
-1425.613613685
 10
545.624798382
 20
-1429.147707505
  0
LWPOLYLINE
  5
4E8
100
AcDbEntity
  8
GEKO
  6
SOLID
 62
        7
100
AcDbPolyline
 90
       60
 70
        0
 10
503.655237698
 20
-1423.387278977
 10
502.95861024
 20
-1422.570277192
 10
502.257722343
 20
-1421.810378237
 10
501.552883473
 20
-1421.107917631
 10
500.844404839
 20
-1420.463205535
 10
500.132599257
 20
-1419.876526609
 10
499.417781013
 20
-1419.348139892
 10
498.700265723
 20
-1418.878278684
 10
497.980370193
 20
-1418.467150445
 10
497.258412282
 20
-1418.1149367
 10
496.534710756
 20
-1417.821792964
 10
495.809585155
 20
-1417.587848669
 10
495.083355644
 20
-1417.41320711
 10
494.356342879
 20
-1417.297945396
 10
493.628867859
 20
-1417.242114419
 10
492.901251788
 20
-1417.245738831
 10
492.173815933
 20
-1417.308817031
 10
491.446881481
 20
-1417.431321168
 10
490.720769396
 20
-1417.613197153
 10
489.995800283
 20
-1417.854364681
 10
489.272294237
 20
-1418.154717269
 10
488.550570711
 20
-1418.514122301
 10
487.83094837
 20
-1418.932421088
 10
487.11374495
 20
-1419.409428938
 10
486.399277121
 20
-1419.944935235
 10
485.687860343
 20
-1420.538703537
 10
484.979808731
 20
-1421.190471675
 10
484.275434912
 20
-1421.899951871
 10
483.57504989
 20
-1422.666830868
 10
482.878962909
 20
-1423.490770062
 10
482.187481314
 20
-1424.371405658
 10
481.500910417
 20
-1425.308348826
 10
480.819553362
 20
-1426.301185875
 10
480.143710989
 20
-1427.349478434
 10
479.473681706
 20
-1428.452763648
 10
478.809761353
 20
-1429.61055438
 10
478.152243071
 20
-1430.822339427
 10
477.501417178
 20
-1432.087583747
 10
476.857571035
 20
-1433.405728693
 10
476.22098892
 20
-1434.776192259
 10
475.591951905
 20
-1436.198369342
 10
474.970737731
 20
-1437.671632004
 10
474.357620684
 20
-1439.19532975
 10
473.752871477
 20
-1440.768789818
 10
473.156757125
 20
-1442.391317474
 10
472.569540832
 20
-1444.062196317
 10
471.991481874
 20
-1445.780688601
 10
471.422835484
 20
-1447.546035555
 10
470.863852736
 20
-1449.357457719
 10
470.31478044
 20
-1451.214155291
 10
469.77586103
 20
-1453.115308478
 10
469.247332457
 20
-1455.060077859
 10
468.729428082
 20
-1457.047604754
 10
468.222376579
 20
-1459.077011604
 10
467.726401826
 20
-1461.147402359
 10
466.768553543
 20
-1465.407461312
 10
465.857574731
 20
-1469.820258618
 10
464.995074123
 20
-1474.378001557
 10
464.182574838
 20
-1479.072641443
 10
463.4215117
 20
-1483.895887841
  0
LWPOLYLINE
  5
4E9
100
AcDbEntity
  8
GEKO
  6
SOLID
 62
        7
100
AcDbPolyline
 90
       60
 70
        0
 10
463.420612971
 20
-1619.895887841
 10
464.181642437
 20
-1624.719468295
 10
464.994113628
 20
-1629.414442369
 10
465.85659166
 20
-1633.972518403
 10
466.767553337
 20
-1638.385646508
 10
467.725389834
 20
-1642.646032785
 10
468.221360666
 20
-1644.716585538
 10
468.728409544
 20
-1646.746153086
 10
469.246312572
 20
-1648.733839241
 10
469.774841062
 20
-1650.678766306
 10
470.313761633
 20
-1652.580075466
 10
470.862836315
 20
-1654.436927167
 10
471.421822656
 20
-1656.248501485
 10
471.990473826
 20
-1658.013998489
 10
472.568538728
 20
-1659.732638595
 10
473.155762106
 20
-1661.403662909
 10
473.751884664
 20
-1663.026333561
 10
474.356643173
 20
-1664.599934035
 10
474.969770592
 20
-1666.123769481
 10
475.590996184
 20
-1667.597167025
 10
476.220045637
 20
-1669.019476062
 10
476.856641184
 20
-1670.39006855
 10
477.500501725
 20
-1671.708339279
 10
478.151342954
 20
-1672.973706146
 10
478.808877479
 20
-1674.185610407
 10
479.472814956
 20
-1675.343516925
 10
480.142862213
 20
-1676.446914408
 10
480.818723378
 20
-1677.495315631
 10
481.500100015
 20
-1678.488257657
 10
482.186691249
 20
-1679.425302034
 10
482.878193905
 20
-1680.306034996
 10
483.574302639
 20
-1681.130067639
 10
484.274710072
 20
-1681.897036099
 10
484.979106927
 20
-1682.606601709
 10
485.687182167
 20
-1683.258451146
 10
486.398623129
 20
-1683.852296578
 10
487.113115664
 20
-1684.38787578
 10
487.830344277
 20
-1684.86495226
 10
488.549992262
 20
-1685.283315356
 10
489.271741849
 20
-1685.642780333
 10
489.995274335
 20
-1685.943188464
 10
490.720270234
 20
-1686.184407097
 10
491.446409411
 20
-1686.36632972
 10
492.173371227
 20
-1686.488876
 10
492.900834681
 20
-1686.551991826
 10
493.628478548
 20
-1686.555649328
 10
494.355981526
 20
-1686.499846891
 10
495.083022373
 20
-1686.384609156
 10
495.809280053
 20
-1686.209987006
 10
496.534433874
 20
-1685.976057551
 10
497.258163633
 20
-1685.682924084
 10
497.980149754
 20
-1685.330716045
 10
498.700073433
 20
-1684.919588957
 10
499.417616775
 20
-1684.449724358
 10
500.132462938
 20
-1683.921329727
 10
500.844296268
 20
-1683.334638385
 10
501.552802444
 20
-1682.689909394
 10
502.257668614
 20
-1681.987427445
 10
502.958583532
 20
-1681.227502732
 10
503.655237698
 20
-1680.410470812
  0
LINE
  5
4EA
100
AcDbEntity
  8
GEKO
  6
SOLID
 62
        7
100
AcDbLine
 10
503.655237698
 20
-1411.94341569
 30
0.0
 11
511.655237698
 21
-1408.94341569
 31
0.0
  0
LINE
  5
4EB
100
AcDbEntity
  8
GEKO
  6
SOLID
 62
        7
100
AcDbLine
 10
503.655237698
 20
-1405.94341569
 30
0.0
 11
511.655237698
 21
-1402.94341569
 31
0.0
  0
INSERT
  5
4FA
100
AcDbEntity
  8
GEKO
100
AcDbBlockReference
  2
*D15
 10
0.0
 20
0.0
 30
0.0
  0
INSERT
  5
503
100
AcDbEntity
  8
0
100
AcDbBlockReference
  2
*H16
 10
0.0
 20
0.0
 30
0.0
  0
INSERT
  5
50C
100
AcDbEntity
  8
0
100
AcDbBlockReference
  2
*H17
 10
0.0
 20
0.0
 30
0.0
  0
INSERT
  5
51B
100
AcDbEntity
  8
GEKO
100
AcDbBlockReference
  2
*D18
 10
0.0
 20
0.0
 30
0.0
  0
INSERT
  5
52A
100
AcDbEntity
  8
GEKO
100
AcDbBlockReference
  2
*D19
 10
0.0
 20
0.0
 30
0.0
  0
INSERT
  5
539
100
AcDbEntity
  8
GEKO
100
AcDbBlockReference
  2
*D20
 10
0.0
 20
0.0
 30
0.0
  0
INSERT
  5
54A
100
AcDbEntity
  8
GEKO
100
AcDbBlockReference
  2
*D21
 10
0.0
 20
0.0
 30
0.0
  0
LINE
  5
54B
100
AcDbEntity
  8
GEKO
  6
SOLID
 62
        7
100
AcDbLine
 10
503.655237698
 20
-1399.94341569
 30
0.0
 11
511.655237698
 21
-1396.94341569
 31
0.0
  0
LINE
  5
54C
100
AcDbEntity
  8
GEKO
  6
SOLID
 62
        7
100
AcDbLine
 10
503.655237698
 20
-1396.94341569
 30
0.0
 11
503.655237698
 21
-1426.943415213
 31
0.0
  0
LINE
  5
54D
100
AcDbEntity
  8
GEKO
  6
SOLID
 62
        7
100
AcDbLine
 10
503.655237698
 20
-1396.94341569
 30
0.0
 11
511.655237698
 21
-1396.94341569
 31
0.0
  0
LINE
  5
54E
100
AcDbEntity
  8
GEKO
  6
SOLID
 62
        7
100
AcDbLine
 10
511.655237698
 20
-1396.94341569
 30
0.0
 11
511.655237698
 21
-1426.943416167
 31
0.0
  0
LINE
  5
54F
100
AcDbEntity
  8
GEKO
  6
SOLID
 62
        7
100
AcDbLine
 10
503.655237698
 20
-1423.94341569
 30
0.0
 11
511.655237698
 21
-1420.94341569
 31
0.0
  0
LINE
  5
550
100
AcDbEntity
  8
GEKO
  6
SOLID
 62
        7
100
AcDbLine
 10
711.779562761
 20
-1645.895833672
 30
0.0
 11
711.779562761
 21
-1649.820189179
 31
0.0
  0
ARC
  5
551
100
AcDbEntity
  8
GEKO
  6
SOLID
 62
        7
100
AcDbCircle
 10
708.748473932
 20
-1645.390784816
 30
0.0
 40
5.367226705
100
AcDbArc
 50
235.615745828
 51
304.384254172
  0
ARC
  5
552
100
AcDbEntity
  8
GEKO
  6
SOLID
 62
        7
100
AcDbCircle
 10
699.655207445
 20
-1630.695838213
 30
0.0
 40
20.062173307
100
AcDbArc
 50
252.412042639
 51
287.587957361
  0
ARC
  5
553
100
AcDbEntity
  8
GEKO
  6
SOLID
 62
        7
100
AcDbCircle
 10
690.561940958
 20
-1645.390784816
 30
0.0
 40
5.367226705
100
AcDbArc
 50
235.615745828
 51
304.384254172
  0
LINE
  5
554
100
AcDbEntity
  8
GEKO
  6
SOLID
 62
        7
100
AcDbLine
 10
726.655237698
 20
-1627.895889841
 30
0.0
 11
726.655237698
 21
-1461.895887841
 31
0.0
  0
LINE
  5
555
100
AcDbEntity
  8
GEKO
  6
SOLID
 62
        7
100
AcDbLine
 10
687.530852129
 20
-1649.820189179
 30
0.0
 11
687.530852129
 21
-1645.895833672
 31
0.0
  0
LINE
  5
556
100
AcDbEntity
  8
GEKO
  6
SOLID
 62
        7
100
AcDbLine
 10
583.655237698
 20
-1638.895889841
 30
0.0
 11
583.655237698
 21
-1557.281052649
 31
0.0
  0
LINE
  5
557
100
AcDbEntity
  8
GEKO
  6
SOLID
 62
        7
100
AcDbLine
 10
593.655237698
 20
-1461.895887841
 30
0.0
 11
593.655237698
 21
-1471.895887841
 31
0.0
  0
LINE
  5
558
100
AcDbEntity
  8
GEKO
  6
SOLID
 62
        7
100
AcDbLine
 10
583.655237698
 20
-1546.510723034
 30
0.0
 11
583.655237698
 21
-1471.895887841
 31
0.0
  0
LINE
  5
559
100
AcDbEntity
  8
GEKO
  6
SOLID
 62
        7
100
AcDbLine
 10
557.655237698
 20
-1616.895887841
 30
0.0
 11
583.655237698
 21
-1616.895887841
 31
0.0
  0
LINE
  5
55A
100
AcDbEntity
  8
GEKO
  6
SOLID
 62
        7
100
AcDbLine
 10
557.655237698
 20
-1486.895887841
 30
0.0
 11
583.655237698
 21
-1486.895887841
 31
0.0
  0
LWPOLYLINE
  5
55B
100
AcDbEntity
  8
GEKO
  6
SOLID
 62
        7
100
AcDbPolyline
 90
       44
 70
        0
 10
578.436132124
 20
-1486.895887861
 10
579.001398666
 20
-1483.184853334
 10
579.596936536
 20
-1479.546123786
 10
580.222134757
 20
-1475.983432281
 10
580.876351922
 20
-1472.500433875
 10
581.558916853
 20
-1469.100701866
 10
582.269129289
 20
-1465.787724125
 10
583.006260605
 20
-1462.564899521
 10
583.76955456
 20
-1459.435534431
 10
584.55822807
 20
-1456.40283935
 10
585.371472016
 20
-1453.469925598
 10
586.20845207
 20
-1450.639802126
 10
587.068309552
 20
-1447.91537243
 10
587.950162313
 20
-1445.299431571
 10
588.853105638
 20
-1442.79466331
 10
589.776213173
 20
-1440.403637352
 10
590.71853788
 20
-1438.128806712
 10
591.679113004
 20
-1435.972505197
 10
592.656953066
 20
-1433.936945011
 10
593.651054875
 20
-1432.024214488
 10
594.660398557
 20
-1430.236275945
 10
595.683948599
 20
-1428.574963676
 10
596.200723394
 20
-1427.792330137
 10
596.720654918
 20
-1427.041982063
 10
597.243609807
 20
-1426.324111916
 10
597.769453927
 20
-1425.63890383
 10
598.2980524
 20
-1424.986533557
 10
598.829269639
 20
-1424.367168431
 10
599.362969391
 20
-1423.780967316
 10
599.899014762
 20
-1423.228080572
 10
600.437268257
 20
-1422.708650013
 10
600.977591815
 20
-1422.222808873
 10
601.519846846
 20
-1421.770681767
 10
602.06389426
 20
-1421.352384666
 10
602.609594513
 20
-1420.968024862
 10
603.156807632
 20
-1420.617700943
 10
603.705393259
 20
-1420.301502766
 10
604.255210682
 20
-1420.019511435
 10
604.806118876
 20
-1419.771799279
 10
605.357976532
 20
-1419.558429838
 10
605.910642101
 20
-1419.379457839
 10
606.463973825
 20
-1419.234929189
 10
607.017829775
 20
-1419.124880959
 10
607.57206789
 20
-1419.049341375
  0
LWPOLYLINE
  5
55C
100
AcDbEntity
  8
GEKO
  6
SOLID
 62
        7
100
AcDbPolyline
 90
       44
 70
        0
 10
568.423820425
 20
-1486.895887843
 10
568.984717206
 20
-1483.121775077
 10
569.576731257
 20
-1479.420239375
 10
570.19924223
 20
-1475.795159421
 10
570.851597823
 20
-1472.250333785
 10
571.533114458
 20
-1468.789476942
 10
572.243078004
 20
-1465.416215377
 10
572.98074452
 20
-1462.134083792
 10
573.745341035
 20
-1458.946521393
 10
574.53606636
 20
-1455.856868295
 10
575.352091929
 20
-1452.868362015
 10
576.192562661
 20
-1449.984134085
 10
577.056597864
 20
-1447.207206765
 10
577.943292149
 20
-1444.540489882
 10
578.851716389
 20
-1441.986777776
 10
579.780918682
 20
-1439.548746376
 10
580.729925357
 20
-1437.228950393
 10
581.697741989
 20
-1435.029820643
 10
582.683354444
 20
-1432.953661503
 10
583.68572994
 20
-1431.002648494
 10
584.703818129
 20
-1429.178825999
 10
585.736552199
 20
-1427.484105126
 10
586.258073834
 20
-1426.68571808
 10
586.782849993
 20
-1425.920261702
 10
587.310743193
 20
-1425.187936528
 10
587.841615137
 20
-1424.488934414
 10
588.375326746
 20
-1423.823438484
 10
588.911738197
 20
-1423.191623088
 10
589.45070896
 20
-1422.593653749
 10
589.992097835
 20
-1422.029687124
 10
590.535762987
 20
-1421.499870962
 10
591.081561987
 20
-1421.004344066
 10
591.629351845
 20
-1420.543236253
 10
592.17898905
 20
-1420.116668327
 10
592.730329607
 20
-1419.724752039
 10
593.283229076
 20
-1419.367590065
 10
593.837542606
 20
-1419.045275975
 10
594.393124978
 20
-1418.75789421
 10
594.949830639
 20
-1418.505520057
 10
595.507513742
 20
-1418.288219634
 10
596.066028185
 20
-1418.10604987
 10
596.625227647
 20
-1417.959058491
 10
597.184965629
 20
-1417.847284005
 10
597.745095488
 20
-1417.770755695
  0
LINE
  5
55D
100
AcDbEntity
  8
GEKO
  6
SOLID
 62
        7
100
AcDbLine
 10
562.655237698
 20
-1616.895887841
 30
0.0
 11
562.655237698
 21
-1564.395887841
 31
0.0
  0
LINE
  5
55E
100
AcDbEntity
  8
GEKO
  6
SOLID
 62
        7
100
AcDbLine
 10
577.655237698
 20
-1616.895887841
 30
0.0
 11
577.655237698
 21
-1556.895887841
 31
0.0
  0
LINE
  5
55F
100
AcDbEntity
  8
GEKO
  6
SOLID
 62
        7
100
AcDbLine
 10
562.655237698
 20
-1539.395887841
 30
0.0
 11
562.655237698
 21
-1486.895887841
 31
0.0
  0
LINE
  5
560
100
AcDbEntity
  8
GEKO
  6
SOLID
 62
        7
100
AcDbLine
 10
577.655237698
 20
-1546.895887841
 30
0.0
 11
577.655237698
 21
-1486.895887841
 31
0.0
  0
LINE
  5
561
100
AcDbEntity
  8
GEKO
  6
SOLID
 62
        7
100
AcDbLine
 10
705.717385103
 20
-1649.820189179
 30
0.0
 11
705.717385103
 21
-1645.895833672
 31
0.0
  0
LINE
  5
562
100
AcDbEntity
  8
GEKO
  6
SOLID
 62
        7
100
AcDbLine
 10
708.748473932
 20
-1650.75801152
 30
0.0
 11
690.561940958
 21
-1650.75801152
 31
0.0
  0
LINE
  5
563
100
AcDbEntity
  8
GEKO
  6
SOLID
 62
        7
100
AcDbLine
 10
693.593029787
 20
-1649.820189179
 30
0.0
 11
693.593029787
 21
-1645.895833672
 31
0.0
  0
ARC
  5
564
100
AcDbEntity
  8
GEKO
  6
SOLID
 62
        7
100
AcDbCircle
 10
690.561940958
 20
-1650.325238034
 30
0.0
 40
5.367226704
100
AcDbArc
 50
55.615745822
 51
124.384254178
  0
ARC
  5
565
100
AcDbEntity
  8
GEKO
  6
SOLID
 62
        7
100
AcDbCircle
 10
699.655207445
 20
-1665.020184633
 30
0.0
 40
20.062173304
100
AcDbArc
 50
72.412042636
 51
107.587957364
  0
ARC
  5
566
100
AcDbEntity
  8
GEKO
  6
SOLID
 62
        7
100
AcDbCircle
 10
708.748473932
 20
-1650.325238034
 30
0.0
 40
5.367226704
100
AcDbArc
 50
55.615745822
 51
124.384254178
  0
LINE
  5
567
100
AcDbEntity
  8
GEKO
  6
SOLID
 62
        7
100
AcDbLine
 10
690.561940958
 20
-1644.95801133
 30
0.0
 11
709.655237698
 21
-1644.95801133
 31
0.0
  0
LINE
  5
568
100
AcDbEntity
  8
GEKO
  6
SOLID
 62
        7
100
AcDbLine
 10
689.655237698
 20
-1644.95801133
 30
0.0
 11
709.655237698
 21
-1644.95801133
 31
0.0
  0
LINE
  5
569
100
AcDbEntity
  8
GEKO
  6
SOLID
 62
        7
100
AcDbLine
 10
709.655237698
 20
-1638.895889841
 30
0.0
 11
709.655237698
 21
-1644.95801133
 31
0.0
  0
LINE
  5
56A
100
AcDbEntity
  8
GEKO
  6
SOLID
 62
        7
100
AcDbLine
 10
689.655237698
 20
-1638.895889841
 30
0.0
 11
689.655237698
 21
-1644.95801133
 31
0.0
  0
LINE
  5
56B
100
AcDbEntity
  8
GEKO
  6
SOLID
 62
        7
100
AcDbLine
 10
587.530912634
 20
-1645.895833672
 30
0.0
 11
587.530912634
 21
-1649.820189179
 31
0.0
  0
ARC
  5
56C
100
AcDbEntity
  8
GEKO
  6
SOLID
 62
        7
100
AcDbCircle
 10
590.562001463
 20
-1645.390784816
 30
0.0
 40
5.367226705
100
AcDbArc
 50
235.615745828
 51
304.384254172
  0
ARC
  5
56D
100
AcDbEntity
  8
GEKO
  6
SOLID
 62
        7
100
AcDbCircle
 10
599.65526795
 20
-1630.695838213
 30
0.0
 40
20.062173307
100
AcDbArc
 50
252.412042639
 51
287.587957361
  0
ARC
  5
56E
100
AcDbEntity
  8
GEKO
  6
SOLID
 62
        7
100
AcDbCircle
 10
608.748534437
 20
-1645.390784816
 30
0.0
 40
5.367226705
100
AcDbArc
 50
235.615745828
 51
304.384254172
  0
LINE
  5
56F
100
AcDbEntity
  8
GEKO
  6
SOLID
 62
        7
100
AcDbLine
 10
611.779623267
 20
-1649.820189179
 30
0.0
 11
611.779623267
 21
-1645.895833672
 31
0.0
  0
LINE
  5
570
100
AcDbEntity
  8
GEKO
  6
SOLID
 62
        7
100
AcDbLine
 10
593.593090292
 20
-1649.820189179
 30
0.0
 11
593.593090292
 21
-1645.895833672
 31
0.0
  0
LINE
  5
571
100
AcDbEntity
  8
GEKO
  6
SOLID
 62
        7
100
AcDbLine
 10
590.562001463
 20
-1650.75801152
 30
0.0
 11
608.748534437
 21
-1650.75801152
 31
0.0
  0
LINE
  5
572
100
AcDbEntity
  8
GEKO
  6
SOLID
 62
        7
100
AcDbLine
 10
605.717445608
 20
-1649.820189179
 30
0.0
 11
605.717445608
 21
-1645.895833672
 31
0.0
  0
ARC
  5
573
100
AcDbEntity
  8
GEKO
  6
SOLID
 62
        7
100
AcDbCircle
 10
608.748534437
 20
-1650.325238034
 30
0.0
 40
5.367226704
100
AcDbArc
 50
55.615745822
 51
124.384254178
  0
ARC
  5
574
100
AcDbEntity
  8
GEKO
  6
SOLID
 62
        7
100
AcDbCircle
 10
599.65526795
 20
-1665.020184633
 30
0.0
 40
20.062173304
100
AcDbArc
 50
72.412042636
 51
107.587957364
  0
ARC
  5
575
100
AcDbEntity
  8
GEKO
  6
SOLID
 62
        7
100
AcDbCircle
 10
590.562001463
 20
-1650.325238034
 30
0.0
 40
5.367226704
100
AcDbArc
 50
55.615745822
 51
124.384254178
  0
LINE
  5
576
100
AcDbEntity
  8
GEKO
  6
SOLID
 62
        7
100
AcDbLine
 10
608.748534437
 20
-1644.95801133
 30
0.0
 11
589.655237698
 21
-1644.95801133
 31
0.0
  0
LINE
  5
577
100
AcDbEntity
  8
GEKO
  6
SOLID
 62
        7
100
AcDbLine
 10
609.655237698
 20
-1644.95801133
 30
0.0
 11
589.655237698
 21
-1644.95801133
 31
0.0
  0
LINE
  5
578
100
AcDbEntity
  8
GEKO
  6
SOLID
 62
        7
100
AcDbLine
 10
589.655237698
 20
-1638.895889841
 30
0.0
 11
589.655237698
 21
-1644.95801133
 31
0.0
  0
LINE
  5
579
100
AcDbEntity
  8
GEKO
  6
SOLID
 62
        7
100
AcDbLine
 10
609.655237698
 20
-1638.895889841
 30
0.0
 11
609.655237698
 21
-1644.95801133
 31
0.0
  0
LINE
  5
57A
100
AcDbEntity
  8
GEKO
  6
SOLID
 62
        7
100
AcDbLine
 10
626.65523971
 20
-1650.117835458
 30
0.0
 11
627.246770715
 21
-1651.960302705
 31
0.0
  0
LINE
  5
57B
100
AcDbEntity
  8
GEKO
  6
SOLID
 62
        7
100
AcDbLine
 10
627.246770715
 20
-1651.960302705
 30
0.0
 11
628.040713707
 21
-1653.162060083
 31
0.0
  0
LINE
  5
57C
100
AcDbEntity
  8
GEKO
  6
SOLID
 62
        7
100
AcDbLine
 10
626.65523971
 20
-1650.117835458
 30
0.0
 11
626.655238484
 21
-1639.850092604
 31
0.0
  0
LINE
  5
57D
100
AcDbEntity
  8
GEKO
  6
SOLID
 62
        7
100
AcDbLine
 10
628.040713707
 20
-1653.162060083
 30
0.0
 11
629.132286884
 21
-1653.735136
 31
0.0
  0
LINE
  5
57E
100
AcDbEntity
  8
GEKO
  6
SOLID
 62
        7
100
AcDbLine
 10
631.901806695
 20
-1641.25801152
 30
0.0
 11
667.408849579
 21
-1641.25801152
 31
0.0
  0
LINE
  5
57F
100
AcDbEntity
  8
GEKO
  6
SOLID
 62
        7
100
AcDbLine
 10
629.155235251
 20
-1653.758216174
 30
0.0
 11
629.155236787
 21
-1640.891662209
 31
0.0
  0
LINE
  5
580
100
AcDbEntity
  8
GEKO
  6
SOLID
 62
        7
100
AcDbLine
 10
673.326687733
 20
-1653.758216174
 30
0.0
 11
625.983963887
 21
-1653.758216174
 31
0.0
  0
ARC
  5
581
100
AcDbEntity
  8
GEKO
  6
SOLID
 62
        7
100
AcDbCircle
 10
649.655328137
 20
-1602.088985759
 30
0.0
 40
39.169025762
100
AcDbArc
 50
252.412051068
 51
287.587948932
  0
ARC
  5
582
100
AcDbEntity
  8
GEKO
  6
SOLID
 62
        7
100
AcDbCircle
 10
631.901806695
 20
-1630.779135441
 30
0.0
 40
10.47887608
100
AcDbArc
 50
235.615761582
 51
304.384238418
  0
LINE
  5
583
100
AcDbEntity
  8
GEKO
  6
SOLID
 62
        7
100
AcDbLine
 10
631.901804367
 20
-1660.75801152
 30
0.0
 11
667.408847252
 21
-1660.75801152
 31
0.0
  0
ARC
  5
584
100
AcDbEntity
  8
GEKO
  6
SOLID
 62
        7
100
AcDbCircle
 10
649.65532581
 20
-1621.588985759
 30
0.0
 40
39.169025762
100
AcDbArc
 50
252.412051068
 51
287.587948932
  0
ARC
  5
585
100
AcDbEntity
  8
GEKO
  6
SOLID
 62
        7
100
AcDbCircle
 10
631.901804367
 20
-1650.279135441
 30
0.0
 40
10.47887608
100
AcDbArc
 50
235.615761582
 51
304.384238418
  0
LINE
  5
586
100
AcDbEntity
  8
GEKO
  6
SOLID
 62
        7
100
AcDbLine
 10
637.819644848
 20
-1658.927025816
 30
0.0
 11
637.819644848
 21
-1653.758216174
 31
0.0
  0
LINE
  5
587
100
AcDbEntity
  8
GEKO
  6
SOLID
 62
        7
100
AcDbLine
 10
625.983963887
 20
-1653.758216174
 30
0.0
 11
625.983963887
 21
-1658.927025816
 31
0.0
  0
LINE
  5
588
100
AcDbEntity
  8
GEKO
  6
SOLID
 62
        7
100
AcDbLine
 10
625.983966214
 20
-1638.895889841
 30
0.0
 11
625.983966214
 21
-1639.427025816
 31
0.0
  0
LINE
  5
589
100
AcDbEntity
  8
GEKO
  6
SOLID
 62
        7
100
AcDbLine
 10
637.819647175
 20
-1639.427025816
 30
0.0
 11
637.819647175
 21
-1638.895889841
 31
0.0
  0
LINE
  5
58A
100
AcDbEntity
  8
GEKO
  6
SOLID
 62
        7
100
AcDbLine
 10
670.155235251
 20
-1653.758216174
 30
0.0
 11
670.155236787
 21
-1640.891711829
 31
0.0
  0
LINE
  5
58B
100
AcDbEntity
  8
GEKO
  6
SOLID
 62
        7
100
AcDbLine
 10
673.326687733
 20
-1658.927025816
 30
0.0
 11
673.326687733
 21
-1653.758216174
 31
0.0
  0
LINE
  5
58C
100
AcDbEntity
  8
GEKO
  6
SOLID
 62
        7
100
AcDbLine
 10
661.491006771
 20
-1658.927025816
 30
0.0
 11
661.491006771
 21
-1653.758216174
 31
0.0
  0
LINE
  5
58D
100
AcDbEntity
  8
GEKO
  6
SOLID
 62
        7
100
AcDbLine
 10
672.655235686
 20
-1650.117835458
 30
0.0
 11
672.06370468
 21
-1651.960302705
 31
0.0
  0
LINE
  5
58E
100
AcDbEntity
  8
GEKO
  6
SOLID
 62
        7
100
AcDbLine
 10
672.655235686
 20
-1650.117835458
 30
0.0
 11
672.655236911
 21
-1639.850092604
 31
0.0
  0
LINE
  5
58F
100
AcDbEntity
  8
GEKO
  6
SOLID
 62
        7
100
AcDbLine
 10
672.06370468
 20
-1651.960302705
 30
0.0
 11
671.269761688
 21
-1653.162060083
 31
0.0
  0
LINE
  5
590
100
AcDbEntity
  8
GEKO
  6
SOLID
 62
        7
100
AcDbLine
 10
671.269761688
 20
-1653.162060083
 30
0.0
 11
670.178188512
 21
-1653.735136
 31
0.0
  0
ARC
  5
591
100
AcDbEntity
  8
GEKO
  6
SOLID
 62
        7
100
AcDbCircle
 10
667.408849579
 20
-1630.779135441
 30
0.0
 40
10.47887608
100
AcDbArc
 50
235.615761582
 51
304.384238418
  0
ARC
  5
592
100
AcDbEntity
  8
GEKO
  6
SOLID
 62
        7
100
AcDbCircle
 10
667.408847252
 20
-1650.279135441
 30
0.0
 40
10.47887608
100
AcDbArc
 50
235.615761582
 51
304.384238418
  0
LINE
  5
593
100
AcDbEntity
  8
GEKO
  6
SOLID
 62
        7
100
AcDbLine
 10
661.491009099
 20
-1639.427025816
 30
0.0
 11
661.491009099
 21
-1638.895889841
 31
0.0
  0
LINE
  5
594
100
AcDbEntity
  8
GEKO
  6
SOLID
 62
        7
100
AcDbLine
 10
673.32669006
 20
-1639.427025816
 30
0.0
 11
673.32669006
 21
-1638.895889841
 31
0.0
  0
LWPOLYLINE
  5
595
100
AcDbEntity
  8
GEKO
  6
SOLID
 62
        7
100
AcDbPolyline
 90
       26
 70
        0
 10
590.045475475
 20
-1650.73309924
 10
590.953515667
 20
-1653.699776158
 10
591.887146628
 20
-1656.54378859
 10
592.845273216
 20
-1659.261800534
 10
593.826771558
 20
-1661.850623782
 10
594.830490363
 20
-1664.307221665
 10
595.855252277
 20
-1666.628712615
 10
596.899855262
 20
-1668.812373539
 10
597.429215117
 20
-1669.851710901
 10
597.963074008
 20
-1670.855643023
 10
598.501275371
 20
-1671.823875482
 10
599.043661367
 20
-1672.756124326
 10
599.590072932
 20
-1673.652116154
 10
600.140349819
 20
-1674.5115882
 10
600.69433065
 20
-1675.334288406
 10
601.251852958
 20
-1676.119975499
 10
601.812753239
 20
-1676.868419062
 10
602.376866998
 20
-1677.579399598
 10
602.944028798
 20
-1678.252708599
 10
603.514072308
 20
-1678.888148604
 10
604.086830351
 20
-1679.485533258
 10
604.662134955
 20
-1680.044687365
 10
605.2398174
 20
-1680.565446944
 10
605.81970827
 20
-1681.04765927
 10
606.4016375
 20
-1681.491182927
 10
606.985434429
 20
-1681.895887841
  0
INSERT
  5
5A4
100
AcDbEntity
  8
GEKO
100
AcDbBlockReference
  2
*D22
 10
0.0
 20
0.0
 30
0.0
  0
MTEXT
  5
5A5
100
AcDbEntity
  8
GEKO
  6
SOLID
 62
        7
100
AcDbMText
 10
925.730041504
 20
-1186.010986328
 30
0.0
 40
30.0
 41
0.0
 71
        1
 72
        5
  1
\f|b0|i0|c177|p0;\W1.1;:
 11
1.0
 21
-0.000000044
 31
0.0
 73
        2
 44
1.0
  0
INSERT
  5
5B6
100
AcDbEntity
  8
GEKO
100
AcDbBlockReference
  2
*D23
 10
0.0
 20
0.0
 30
0.0
  0
ARC
  5
5B7
100
AcDbEntity
  8
GEKO
  6
L_DASH
 62
        7
100
AcDbCircle
 10
433.915365454
 20
-506.573409068
 30
0.0
 40
5.0
100
AcDbArc
 50
15.0
 51
68.130102354
  0
LINE
  5
5B8
100
AcDbEntity
  8
GEKO
  6
L_DASH
 62
        7
100
AcDbLine
 10
438.745017155
 20
-505.279294252
 30
0.0
 11
488.179463011
 21
-689.771124865
 31
0.0
  0
LINE
  5
5B9
100
AcDbEntity
  8
GEKO
  6
L_DASH
 62
        7
100
AcDbLine
 10
454.372059495
 20
-698.829792954
 30
0.0
 11
405.145009476
 21
-515.111974003
 31
0.0
  0
ARC
  5
5BA
100
AcDbEntity
  8
GEKO
  6
L_DASH
 62
        7
100
AcDbCircle
 10
409.974615599
 20
-513.817896867
 30
0.0
 40
5.0
100
AcDbArc
 50
145.541601874
 51
195.0
  0
ARC
  5
5BB
100
AcDbEntity
  8
GEKO
  6
L_DASH
 62
        7
100
AcDbCircle
 10
426.465360255
 20
-525.134050844
 30
0.0
 40
25.0
100
AcDbArc
 50
68.130102354
 51
145.541601874
  0
LINE
  5
5BC
100
AcDbEntity
  8
GEKO
  6
SOLID
 62
        7
100
AcDbLine
 10
418.978452027
 20
-512.646200861
 30
0.0
 11
467.895259707
 21
-695.206179845
 31
0.0
  0
LINE
  5
5BD
100
AcDbEntity
  8
GEKO
  6
SOLID
 62
        7
100
AcDbLine
 10
420.39266548
 20
-510.196711055
 30
0.0
 11
418.978452027
 21
-512.646200861
 31
0.0
  0
LINE
  5
5BE
100
AcDbEntity
  8
GEKO
  6
SOLID
 62
        7
100
AcDbLine
 10
420.39266548
 20
-510.196711055
 30
0.0
 11
441.643033404
 21
-504.502691114
 31
0.0
  0
LINE
  5
5BF
100
AcDbEntity
  8
GEKO
  6
SOLID
 62
        7
100
AcDbLine
 10
444.09252321
 20
-505.916904567
 30
0.0
 11
493.009359813
 21
-688.47699149
 31
0.0
  0
LINE
  5
5C0
100
AcDbEntity
  8
GEKO
  6
SOLID
 62
        7
100
AcDbLine
 10
441.643033404
 20
-504.502691114
 30
0.0
 11
444.09252321
 21
-505.916904567
 31
0.0
  0
INSERT
  5
5CF
100
AcDbEntity
  8
GEKO
100
AcDbBlockReference
  2
*D24
 10
0.0
 20
0.0
 30
0.0
  0
ARC
  5
5D0
100
AcDbEntity
  8
GEKO
  6
L_DASH
 62
        7
100
AcDbCircle
 10
532.784279908
 20
-875.557133052
 30
0.0
 40
5.0
100
AcDbArc
 50
-38.130095517
 51
15.000006837
  0
LINE
  5
5D1
100
AcDbEntity
  8
GEKO
  6
L_DASH
 62
        7
100
AcDbLine
 10
537.61394794
 20
-874.263013235
 30
0.0
 11
488.179480068
 21
-689.771188521
 31
0.0
  0
LINE
  5
5D2
100
AcDbEntity
  8
GEKO
  6
SOLID
 62
        7
100
AcDbLine
 10
537.61394794
 20
-874.263013235
 30
0.0
 11
537.355128736
 21
-873.297087451
 31
0.0
  0
ARC
  5
5D3
100
AcDbEntity
  8
GEKO
  6
L_DASH
 62
        7
100
AcDbCircle
 10
517.052063798
 20
-863.20815025
 30
0.0
 40
25.0
100
AcDbArc
 50
244.458404964
 51
321.869904483
  0
ARC
  5
5D4
100
AcDbEntity
  8
GEKO
  6
L_DASH
 62
        7
100
AcDbCircle
 10
508.428739129
 20
-881.253600415
 30
0.0
 40
5.0
100
AcDbArc
 50
195.000006837
 51
244.458404964
  0
LINE
  5
5D5
100
AcDbEntity
  8
GEKO
  6
L_DASH
 62
        7
100
AcDbLine
 10
454.372077633
 20
-698.829860644
 30
0.0
 11
503.599149576
 21
-882.547673721
 31
0.0
  0
LINE
  5
5D6
100
AcDbEntity
  8
GEKO
  6
L_DASH
 62
        7
100
AcDbLine
 10
503.547726302
 20
-882.355759574
 30
0.0
 11
503.599149576
 21
-882.547673721
 31
0.0
  0
LINE
  5
5D7
100
AcDbEntity
  8
GEKO
  6
SOLID
 62
        7
100
AcDbLine
 10
541.926218201
 20
-871.037072577
 30
0.0
 11
493.009359813
 21
-688.47699149
 31
0.0
  0
LINE
  5
5D8
100
AcDbEntity
  8
GEKO
  6
SOLID
 62
        7
100
AcDbLine
 10
516.812147821
 20
-877.766371868
 30
0.0
 11
467.895318355
 21
-695.206398722
 31
0.0
  0
LINE
  5
5D9
100
AcDbEntity
  8
GEKO
  6
SOLID
 62
        7
100
AcDbLine
 10
519.261637796
 20
-879.180585029
 30
0.0
 11
516.812147821
 21
-877.766371868
 31
0.0
  0
LINE
  5
5DA
100
AcDbEntity
  8
GEKO
  6
SOLID
 62
        7
100
AcDbLine
 10
519.261637796
 20
-879.180585029
 30
0.0
 11
540.51200504
 21
-873.486562551
 31
0.0
  0
LINE
  5
5DB
100
AcDbEntity
  8
GEKO
  6
SOLID
 62
        7
100
AcDbLine
 10
540.51200504
 20
-873.486562551
 30
0.0
 11
541.926218201
 21
-871.037072576
 31
0.0
  0
INSERT
  5
5EC
100
AcDbEntity
  8
GEKO
100
AcDbBlockReference
  2
*D25
 10
0.0
 20
0.0
 30
0.0
  0
ENDSEC
  0
SECTION
  2
OBJECTS
  0
DICTIONARY
  5
19
100
AcDbDictionary
280
        0
281
        1
  3
ACAD_GROUP
350
1A
  3
ACAD_MLINESTYLE
350
1B
  3
ACAD_LAYOUT
350
1E
  3
ACAD_PLOTSETTINGS
350
22
  3
ACAD_PLOTSTYLENAME
350
1F
  0
DICTIONARY
  5
1A
102
{ACAD_REACTORS
330
19
102
}
100
AcDbDictionary
280
        0
281
        1
  0
DICTIONARY
  5
1B
102
{ACAD_REACTORS
330
19
102
}
100
AcDbDictionary
280
        0
281
        1
  3
Standard
350
1C
  0
MLINESTYLE
  5
1C
102
{ACAD_REACTORS
330
1B
102
}
100
AcDbMlineStyle
  2
Standard
 70
        0
  3

 62
        0
 51
90.0
 52
90.0
 71
        2
 49
0.5
 62
      256
  6
BYLAYER
 49
-0.5
 62
      256
  6
BYLAYER
  0
ACDBDICTIONARYWDFLT
  5
1F
102
{ACAD_REACTORS
330
19
102
}
100
AcDbDictionary
281
        1
  3
Normal
350
1D
100
AcDbDictionaryWithDefault
340
1D
  0
ACDBPLACEHOLDER
  5
1D
102
{ACAD_REACTORS
330
1F
102
}
  0
LAYOUT
  5
20
102
{ACAD_REACTORS
330
1E
102
}
100
AcDbPlotSettings
  1

  2

  4

  6

 40
0.0
 41
0.0
 42
0.0
 43
0.0
 44
0.0
 45
0.0
 46
0.0
 47
0.0
 48
0.0
 49
0.0
140
0.0
141
0.0
142
1.0
143
1.0
 70
     1024
 72
        0
 73
        0
 74
        0
  7

 75
        0
147
1.0
148
0.0
149
0.0
100
AcDbLayout
  1
Model
 70
        0
 71
        0
 10
0.0
 20
0.0
 11
0.0
 21
0.0
 12
0.0
 22
0.0
 32
0.0
 14
0.0
 24
0.0
 34
0.0
 15
0.0
 25
0.0
 35
0.0
146
0.0
 13
0.0
 23
0.0
 33
0.0
 16
0.0
 26
0.0
 36
0.0
 17
0.0
 27
0.0
 37
0.0
 76
        0
330
A
331
0
345
0
346
0
  0
LAYOUT
  5
21
102
{ACAD_REACTORS
330
1E
102
}
100
AcDbPlotSettings
  1

  2

  4

  6

 40
0.0
 41
0.0
 42
0.0
 43
0.0
 44
0.0
 45
0.0
 46
0.0
 47
0.0
 48
0.0
 49
0.0
140
0.0
141
0.0
142
1.0
143
1.0
 70
        0
 72
        0
 73
        0
 74
        0
  7

 75
        0
147
1.0
148
0.0
149
0.0
100
AcDbLayout
  1
Layout1
 70
        0
 71
        0
 10
0.0
 20
0.0
 11
0.0
 21
0.0
 12
0.0
 22
0.0
 32
0.0
 14
0.0
 24
0.0
 34
0.0
 15
0.0
 25
0.0
 35
0.0
146
0.0
 13
0.0
 23
0.0
 33
0.0
 16
0.0
 26
0.0
 36
0.0
 17
0.0
 27
0.0
 37
0.0
 76
        0
330
B
331
0
345
0
346
0
  0
DICTIONARY
  5
1E
102
{ACAD_REACTORS
330
19
102
}
100
AcDbDictionary
280
        0
281
        1
  3
Layout1
350
21
  3
Model
350
20
  0
DICTIONARY
  5
22
102
{ACAD_REACTORS
330
19
102
}
100
AcDbDictionary
280
        0
281
        1
  0
ENDSEC
  0
EOF
