  0
SECTION
  2
HEADER
  9
$ACADVER
  1
AC1015
  9
$ACADMAINTVER
 70
        6
  9
$DWGCODEPAGE
  3
ANSI_1252
  9
$INSBASE
 10
0.0
 20
0.0
 30
0.0
  9
$EXTMIN
 10
1.000000000E+20
 20
1.000000000E+20
 30
1.000000000E+20
  9
$EXTMAX
 10
-1.000000000E+20
 20
-1.000000000E+20
 30
-1.000000000E+20
  9
$LIMMIN
 10
0.0
 20
0.0
  9
$LIMMAX
 10
0.0
 20
0.0
  9
$ORTHOMODE
 70
        0
  9
$REGENMODE
 70
        1
  9
$FILLMODE
 70
        1
  9
$QTEXTMODE
 70
        0
  9
$MIRRTEXT
 70
        1
  9
$LTSCALE
 40
1.0
  9
$ATTMODE
 70
        1
  9
$TEXTSIZE
 40
0.2
  9
$TRACEWID
 40
0.05
  9
$TEXTSTYLE
  7
Standard
  9
$CLAYER
  8
1
  9
$CELTYPE
  6
Continuous
  9
$CECOLOR
 62
      256
  9
$CELTSCALE
 40
1.0
  9
$DISPSILH
 70
        0
  9
$DIMSCALE
 40
1.0
  9
$DIMASZ
 40
0.18
  9
$DIMEXO
 40
0.0625
  9
$DIMDLI
 40
0.38
  9
$DIMRND
 40
0.0
  9
$DIMDLE
 40
0.0
  9
$DIMEXE
 40
0.18
  9
$DIMTP
 40
0.0
  9
$DIMTM
 40
0.0
  9
$DIMTXT
 40
0.18
  9
$DIMCEN
 40
0.09
  9
$DIMTSZ
 40
0.0
  9
$DIMTOL
 70
        0
  9
$DIMLIM
 70
        0
  9
$DIMTIH
 70
        1
  9
$DIMTOH
 70
        1
  9
$DIMSE1
 70
        0
  9
$DIMSE2
 70
        0
  9
$DIMTAD
 70
        0
  9
$DIMZIN
 70
        0
  9
$DIMBLK
  1

  9
$DIMASO
 70
        1
  9
$DIMSHO
 70
        1
  9
$DIMPOST
  1

  9
$DIMAPOST
  1

  9
$DIMALT
 70
        0
  9
$DIMALTD
 70
        2
  9
$DIMALTF
 40
25.4
  9
$DIMLFAC
 40
1.0
  9
$DIMTOFL
 70
        0
  9
$DIMTVP
 40
0.0
  9
$DIMTIX
 70
        0
  9
$DIMSOXD
 70
        0
  9
$DIMSAH
 70
        0
  9
$DIMBLK1
  1

  9
$DIMBLK2
  1

  9
$DIMSTYLE
  2
Standard
  9
$DIMCLRD
 70
        0
  9
$DIMCLRE
 70
        0
  9
$DIMCLRT
 70
        0
  9
$DIMTFAC
 40
1.0
  9
$DIMGAP
 40
0.09
  9
$DIMJUST
 70
        0
  9
$DIMSD1
 70
        0
  9
$DIMSD2
 70
        0
  9
$DIMTOLJ
 70
        1
  9
$DIMTZIN
 70
        0
  9
$DIMALTZ
 70
        0
  9
$DIMALTTZ
 70
        0
  9
$DIMUPT
 70
        0
  9
$DIMDEC
 70
        4
  9
$DIMTDEC
 70
        4
  9
$DIMALTU
 70
        2
  9
$DIMALTTD
 70
        2
  9
$DIMTXSTY
  7
Standard
  9
$DIMAUNIT
 70
        0
  9
$DIMADEC
 70
        0
  9
$DIMALTRND
 40
0.0
  9
$DIMAZIN
 70
        0
  9
$DIMDSEP
 70
        0
  9
$DIMATFIT
 70
        3
  9
$DIMFRAC
 70
        0
  9
$DIMLDRBLK
  1

  9
$DIMLUNIT
 70
        2
  9
$DIMLWD
 70
        0
  9
$DIMLWE
 70
        0
  9
$DIMTMOVE
 70
        0
  9
$LUNITS
 70
        2
  9
$LUPREC
 70
        4
  9
$SKETCHINC
 40
0.1
  9
$FILLETRAD
 40
0.0
  9
$AUNITS
 70
        0
  9
$AUPREC
 70
        0
  9
$MENU
  1
acad
  9
$ELEVATION
 40
0.0
  9
$PELEVATION
 40
0.0
  9
$THICKNESS
 40
0.0
  9
$LIMCHECK
 70
        0
  9
$CHAMFERA
 40
0.0
  9
$CHAMFERB
 40
0.0
  9
$CHAMFERC
 40
0.0
  9
$CHAMFERD
 40
0.0
  9
$SKPOLY
 70
        0
  9
$TDCREATE
 40
0.000000000
  9
$TDUCREATE
 40
0.000000000
  9
$TDUPDATE
 40
0.000000000
  9
$TDUUPDATE
 40
0.000000000
  9
$TDINDWG
 40
0.0000000000
  9
$TDUSRTIMER
 40
0.0000000000
  9
$USRTIMER
 70
        1
  9
$ANGBASE
 50
0.0
  9
$ANGDIR
 70
        0
  9
$PDMODE
 70
        2
  9
$PDSIZE
 40
-1.0
  9
$PLINEWID
 40
0.0
  9
$SPLFRAME
 70
        0
  9
$SPLINETYPE
 70
        6
  9
$SPLINESEGS
 70
        8
  9
$HANDSEED
  5
6D9
  9
$SURFTAB1
 70
        6
  9
$SURFTAB2
 70
        6
  9
$SURFTYPE
 70
        6
  9
$SURFU
 70
        6
  9
$SURFV
 70
        6
  9
$UCSBASE
  2

  9
$UCSNAME
  2

  9
$UCSORG
 10
0.0
 20
0.0
 30
0.0
  9
$UCSXDIR
 10
1.0
 20
0.0
 30
0.0
  9
$UCSYDIR
 10
0.0
 20
1.0
 30
0.0
  9
$UCSORTHOREF
  2

  9
$UCSORTHOVIEW
 70
        0
  9
$UCSORGTOP
 10
0.0
 20
0.0
 30
0.0
  9
$UCSORGBOTTOM
 10
0.0
 20
0.0
 30
0.0
  9
$UCSORGLEFT
 10
0.0
 20
0.0
 30
0.0
  9
$UCSORGRIGHT
 10
0.0
 20
0.0
 30
0.0
  9
$UCSORGFRONT
 10
0.0
 20
0.0
 30
0.0
  9
$UCSORGBACK
 10
0.0
 20
0.0
 30
0.0
  9
$PUCSBASE
  2

  9
$PUCSNAME
  2

  9
$PUCSORG
 10
0.0
 20
0.0
 30
0.0
  9
$PUCSXDIR
 10
1.0
 20
0.0
 30
0.0
  9
$PUCSYDIR
 10
0.0
 20
1.0
 30
0.0
  9
$PUCSORTHOREF
  2

  9
$PUCSORTHOVIEW
 70
        0
  9
$PUCSORGTOP
 10
0.0
 20
0.0
 30
0.0
  9
$PUCSORGBOTTOM
 10
0.0
 20
0.0
 30
0.0
  9
$PUCSORGLEFT
 10
0.0
 20
0.0
 30
0.0
  9
$PUCSORGRIGHT
 10
0.0
 20
0.0
 30
0.0
  9
$PUCSORGFRONT
 10
0.0
 20
0.0
 30
0.0
  9
$PUCSORGBACK
 10
0.0
 20
0.0
 30
0.0
  9
$USERI1
 70
        0
  9
$USERI2
 70
        0
  9
$USERI3
 70
        0
  9
$USERI4
 70
        0
  9
$USERI5
 70
        0
  9
$USERR1
 40
0.0
  9
$USERR2
 40
0.0
  9
$USERR3
 40
0.0
  9
$USERR4
 40
0.0
  9
$USERR5
 40
0.0
  9
$WORLDVIEW
 70
        1
  9
$SHADEDGE
 70
        3
  9
$SHADEDIF
 70
       70
  9
$TILEMODE
 70
        1
  9
$MAXACTVP
 70
       16
  9
$PINSBASE
 10
0.0
 20
0.0
 30
0.0
  9
$PLIMCHECK
 70
        0
  9
$PEXTMIN
 10
1.000000000E+20
 20
1.000000000E+20
 30
1.000000000E+20
  9
$PEXTMAX
 10
-1.000000000E+20
 20
-1.000000000E+20
 30
-1.000000000E+20
  9
$PLIMMIN
 10
0.0
 20
0.0
  9
$PLIMMAX
 10
12.0
 20
9.0
  9
$UNITMODE
 70
        0
  9
$VISRETAIN
 70
        0
  9
$PLINEGEN
 70
        1
  9
$PSLTSCALE
 70
        0
  9
$TREEDEPTH
 70
     3020
  9
$CMLSTYLE
  2
Standard
  9
$CMLJUST
 70
        0
  9
$CMLSCALE
 40
1.0
  9
$PROXYGRAPHICS
 70
        0
  9
$MEASUREMENT
 70
        1
  9
$CELWEIGHT
370
        0
  9
$ENDCAPS
280
        0
  9
$JOINSTYLE
280
        0
  9
$LWDISPLAY
290
        0
  9
$INSUNITS
 70
        0
  9
$HYPERLINKBASE
  1

  9
$XEDIT
290
        1
  9
$CEPSNTYPE
380
        0
  9
$PSTYLEMODE
290
        1
  9
$FINGERPRINTGUID
  2

  9
$VERSIONGUID
  2

  9
$EXTNAMES
290
        1
  9
$PSVPSCALE
 40
0.0
  0
ENDSEC
  0
SECTION
  2
CLASSES
  0
CLASS
  1
LWPOLYLINE
  2
AcDbPolyline
  3
AutoCAD 2000
 90
        0
280
        0
281
        1
  0
CLASS
  1
IMAGE
  2
AcDbRasterImage
  3
ISM
 90
    32895
280
        0
281
        1
  0
CLASS
  1
OLE2FRAME
  2
AcDbOle2Frame
  3
AutoCAD 2000
 90
    32768
280
        0
281
        1
  0
CLASS
  1
HATCH
  2
AcDbHatch
  3
AutoCAD 2000
 90
    32768
280
        0
281
        1
  0
CLASS
  1
DICTIONARYVAR
  2
AcDbDictionaryVar
  3
AutoCAD 2000
 90
    32768
280
        0
281
        0
  0
CLASS
  1
RASTERVARIABLES
  2
AcDbRasterVariables
  3
ISM
 90
    32768
280
        0
281
        0
  0
CLASS
  1
IMAGEDEF
  2
AcDbRasterImageDef
  3
ISM
 90
    32768
280
        0
281
        0
  0
CLASS
  1
IMAGEDEF_REACTOR
  2
AcDbRasterImageDefReactor
  3
ISM
 90
    32769
280
        0
281
        0
  0
CLASS
  1
IDBUFFER
  2
AcDbIdBuffer
  3
AutoCAD 2000
 90
    32768
280
        0
281
        0
  0
CLASS
  1
SPATIAL_FILTER
  2
AcDbSpatialFilter
  3
AutoCAD 2000
 90
    32768
280
        0
281
        0
  0
CLASS
  1
XRECORD
  2
AcDbXrecord
  3
AutoCAD 2000
 90
    32768
280
        0
281
        0
  0
CLASS
  1
SORTENTSTABLE
  2
AcDbSortentsTable
  3
AutoCAD 2000
 90
    32768
280
        0
281
        0
  0
CLASS
  1
LAYER_INDEX
  2
AcDbLayerIndex
  3
AutoCAD 2000
 90
    32768
280
        0
281
        0
  0
CLASS
  1
SPATIAL_INDEX
  2
AcDbSpatialIndex
  3
AutoCAD 2000
 90
    32768
280
        0
281
        0
  0
CLASS
  1
OBJECT_PTR
  2
CAseDLPNTableRecord
  3
"ASE-LPNTableRecord"
 90
    32769
280
        0
281
        0
  0
CLASS
  1
LAYOUT
  2
AcDbLayout
  3
AutoCAD 2000
 90
        0
280
        0
281
        0
  0
CLASS
  1
PLOTSETTINGS
  2
AcDbPlotSettings
  3
AutoCAD 2000
 90
    32768
280
        0
281
        0
  0
CLASS
  1
ACDBDICTIONARYWDFLT
  2
AcDbDictionaryWithDefault
  3
AutoCAD 2000
 90
        0
280
        0
281
        0
  0
CLASS
  1
ACDBPLACEHOLDER
  2
AcDbPlaceHolder
  3
AutoCAD 2000
 90
        0
280
        0
281
        0
  0
ENDSEC
  0
SECTION
  2
TABLES
  0
TABLE
  2
VPORT
  5
7
100
AcDbSymbolTable
 70
        1
  0
VPORT
  5
15
100
AcDbSymbolTableRecord
100
AcDbViewportTableRecord
  2
*ACTIVE
 70
        0
 10
0.0
 20
0.0
 11
1.0
 21
1.0
 12
6.591288
 22
4.579184
 13
0.0
 23
0.0
 14
1.0
 24
1.0
 15
0.0
 25
0.0
 16
0.0
 26
0.0
 36
1.0
 17
0.0
 27
0.0
 37
0.0
 40
9.158369
 41
0.688564
 42
50.0
 43
0.0
 44
0.0
 50
0.0
 51
0.0
 71
        0
 72
      100
 73
        1
 74
        1
 75
        0
 76
        0
 77
        0
 78
        0
281
        0
 65
        0
110
0.0
120
0.0
130
0.0
111
1.0
121
0.0
131
0.0
112
0.0
122
1.0
132
0.0
345
0
346
0
 79
        0
146
0.0
  0
ENDTAB
  0
TABLE
  2
LTYPE
  5
4
100
AcDbSymbolTable
 70
        6
  0
LTYPE
  5
11
100
AcDbSymbolTableRecord
100
AcDbLinetypeTableRecord
  2
ByBlock
 70
       64
  3

 72
       65
 73
        0
 40
0.0
  0
LTYPE
  5
12
100
AcDbSymbolTableRecord
100
AcDbLinetypeTableRecord
  2
ByLayer
 70
       64
  3

 72
       65
 73
        0
 40
0.0
  0
LTYPE
  5
13
100
AcDbSymbolTableRecord
100
AcDbLinetypeTableRecord
  2
Continuous
 70
       64
  3
Solid line
 72
       65
 73
        0
 40
0.0
  0
LTYPE
  5
59
100
AcDbSymbolTableRecord
100
AcDbLinetypeTableRecord
  2
SOLID
 70
       64
  3
Solid line
 72
       65
 73
        0
 40
0.0
  0
LTYPE
  5
A4
100
AcDbSymbolTableRecord
100
AcDbLinetypeTableRecord
  2
CENTER
 70
       64
  3
Center ____ _ ____ _ ____ _ ____ _ ____ _ ____
 72
       65
 73
        4
 40
8.0
 49
4.5
 74
        0
 49
-1.5
 74
        0
 49
0.5
 74
        0
 49
-1.5
 74
        0
  0
LTYPE
  5
2A7
100
AcDbSymbolTableRecord
100
AcDbLinetypeTableRecord
  2
L_DASH
 70
       64
  3
L_dash ____  ____  ____  ____  ____  ____
 72
       65
 73
        2
 40
8.0
 49
6.0
 74
        0
 49
-2.0
 74
        0
  0
ENDTAB
  0
TABLE
  2
LAYER
  5
2
100
AcDbSymbolTable
 70
       51
  0
LAYER
  5
14
100
AcDbSymbolTableRecord
100
AcDbLayerTableRecord
  2
0
 70
        0
 62
        7
  6
Continuous
290
        1
370
       -3
390
1D
  0
LAYER
  5
23
100
AcDbSymbolTableRecord
100
AcDbLayerTableRecord
  2
1
 70
        0
 62
        7
  6
Continuous
290
        1
370
       -3
390
1F
  0
LAYER
  5
24
100
AcDbSymbolTableRecord
100
AcDbLayerTableRecord
  2
2
 70
        0
 62
        7
  6
Continuous
290
        1
370
       -3
390
1F
  0
LAYER
  5
25
100
AcDbSymbolTableRecord
100
AcDbLayerTableRecord
  2
3
 70
        0
 62
        7
  6
Continuous
290
        1
370
       -3
390
1F
  0
LAYER
  5
26
100
AcDbSymbolTableRecord
100
AcDbLayerTableRecord
  2
4
 70
        0
 62
        7
  6
Continuous
290
        1
370
       -3
390
1F
  0
LAYER
  5
27
100
AcDbSymbolTableRecord
100
AcDbLayerTableRecord
  2
5
 70
        0
 62
        7
  6
Continuous
290
        1
370
       -3
390
1F
  0
LAYER
  5
28
100
AcDbSymbolTableRecord
100
AcDbLayerTableRecord
  2
6
 70
        0
 62
        7
  6
Continuous
290
        1
370
       -3
390
1F
  0
LAYER
  5
29
100
AcDbSymbolTableRecord
100
AcDbLayerTableRecord
  2
7
 70
        0
 62
        7
  6
Continuous
290
        1
370
       -3
390
1F
  0
LAYER
  5
2A
100
AcDbSymbolTableRecord
100
AcDbLayerTableRecord
  2
8
 70
        0
 62
        7
  6
Continuous
290
        1
370
       -3
390
1F
  0
LAYER
  5
2B
100
AcDbSymbolTableRecord
100
AcDbLayerTableRecord
  2
9
 70
        0
 62
        7
  6
Continuous
290
        1
370
       -3
390
1F
  0
LAYER
  5
2C
100
AcDbSymbolTableRecord
100
AcDbLayerTableRecord
  2
10
 70
        0
 62
        7
  6
Continuous
290
        1
370
       -3
390
1F
  0
LAYER
  5
2D
100
AcDbSymbolTableRecord
100
AcDbLayerTableRecord
  2
GEKO
 70
        0
 62
        7
  6
Continuous
290
        1
370
       -3
390
1F
  0
LAYER
  5
2E
100
AcDbSymbolTableRecord
100
AcDbLayerTableRecord
  2
LMDTUV
 70
        0
 62
        7
  6
Continuous
290
        1
370
       -3
390
1F
  0
LAYER
  5
2F
100
AcDbSymbolTableRecord
100
AcDbLayerTableRecord
  2
13
 70
        0
 62
        7
  6
Continuous
290
        1
370
       -3
390
1F
  0
LAYER
  5
30
100
AcDbSymbolTableRecord
100
AcDbLayerTableRecord
  2
14
 70
        0
 62
        7
  6
Continuous
290
        1
370
       -3
390
1F
  0
LAYER
  5
31
100
AcDbSymbolTableRecord
100
AcDbLayerTableRecord
  2
15
 70
        0
 62
        7
  6
Continuous
290
        1
370
       -3
390
1F
  0
LAYER
  5
32
100
AcDbSymbolTableRecord
100
AcDbLayerTableRecord
  2
16
 70
        0
 62
        7
  6
Continuous
290
        1
370
       -3
390
1F
  0
LAYER
  5
33
100
AcDbSymbolTableRecord
100
AcDbLayerTableRecord
  2
17
 70
        0
 62
        7
  6
Continuous
290
        1
370
       -3
390
1F
  0
LAYER
  5
34
100
AcDbSymbolTableRecord
100
AcDbLayerTableRecord
  2
18
 70
        0
 62
        7
  6
Continuous
290
        1
370
       -3
390
1F
  0
LAYER
  5
35
100
AcDbSymbolTableRecord
100
AcDbLayerTableRecord
  2
19
 70
        0
 62
        7
  6
Continuous
290
        1
370
       -3
390
1F
  0
LAYER
  5
36
100
AcDbSymbolTableRecord
100
AcDbLayerTableRecord
  2
20
 70
        0
 62
        7
  6
Continuous
290
        1
370
       -3
390
1F
  0
LAYER
  5
37
100
AcDbSymbolTableRecord
100
AcDbLayerTableRecord
  2
21
 70
        0
 62
        7
  6
Continuous
290
        1
370
       -3
390
1F
  0
LAYER
  5
38
100
AcDbSymbolTableRecord
100
AcDbLayerTableRecord
  2
22
 70
        0
 62
        7
  6
Continuous
290
        1
370
       -3
390
1F
  0
LAYER
  5
39
100
AcDbSymbolTableRecord
100
AcDbLayerTableRecord
  2
23
 70
        0
 62
        7
  6
Continuous
290
        1
370
       -3
390
1F
  0
LAYER
  5
3A
100
AcDbSymbolTableRecord
100
AcDbLayerTableRecord
  2
24
 70
        0
 62
        7
  6
Continuous
290
        1
370
       -3
390
1F
  0
LAYER
  5
3B
100
AcDbSymbolTableRecord
100
AcDbLayerTableRecord
  2
25
 70
        0
 62
        7
  6
Continuous
290
        1
370
       -3
390
1F
  0
LAYER
  5
3C
100
AcDbSymbolTableRecord
100
AcDbLayerTableRecord
  2
26
 70
        0
 62
        7
  6
Continuous
290
        1
370
       -3
390
1F
  0
LAYER
  5
3D
100
AcDbSymbolTableRecord
100
AcDbLayerTableRecord
  2
27
 70
        0
 62
        7
  6
Continuous
290
        1
370
       -3
390
1F
  0
LAYER
  5
3E
100
AcDbSymbolTableRecord
100
AcDbLayerTableRecord
  2
28
 70
        0
 62
        7
  6
Continuous
290
        1
370
       -3
390
1F
  0
LAYER
  5
3F
100
AcDbSymbolTableRecord
100
AcDbLayerTableRecord
  2
29
 70
        0
 62
        7
  6
Continuous
290
        1
370
       -3
390
1F
  0
LAYER
  5
40
100
AcDbSymbolTableRecord
100
AcDbLayerTableRecord
  2
30
 70
        0
 62
        7
  6
Continuous
290
        1
370
       -3
390
1F
  0
LAYER
  5
41
100
AcDbSymbolTableRecord
100
AcDbLayerTableRecord
  2
31
 70
        0
 62
        7
  6
Continuous
290
        1
370
       -3
390
1F
  0
LAYER
  5
42
100
AcDbSymbolTableRecord
100
AcDbLayerTableRecord
  2
32
 70
        0
 62
        7
  6
Continuous
290
        1
370
       -3
390
1F
  0
LAYER
  5
43
100
AcDbSymbolTableRecord
100
AcDbLayerTableRecord
  2
33
 70
        0
 62
        7
  6
Continuous
290
        1
370
       -3
390
1F
  0
LAYER
  5
44
100
AcDbSymbolTableRecord
100
AcDbLayerTableRecord
  2
34
 70
        0
 62
        7
  6
Continuous
290
        1
370
       -3
390
1F
  0
LAYER
  5
45
100
AcDbSymbolTableRecord
100
AcDbLayerTableRecord
  2
35
 70
        0
 62
        7
  6
Continuous
290
        1
370
       -3
390
1F
  0
LAYER
  5
46
100
AcDbSymbolTableRecord
100
AcDbLayerTableRecord
  2
36
 70
        0
 62
        7
  6
Continuous
290
        1
370
       -3
390
1F
  0
LAYER
  5
47
100
AcDbSymbolTableRecord
100
AcDbLayerTableRecord
  2
37
 70
        0
 62
        7
  6
Continuous
290
        1
370
       -3
390
1F
  0
LAYER
  5
48
100
AcDbSymbolTableRecord
100
AcDbLayerTableRecord
  2
38
 70
        0
 62
        7
  6
Continuous
290
        1
370
       -3
390
1F
  0
LAYER
  5
49
100
AcDbSymbolTableRecord
100
AcDbLayerTableRecord
  2
39
 70
        0
 62
        7
  6
Continuous
290
        1
370
       -3
390
1F
  0
LAYER
  5
4A
100
AcDbSymbolTableRecord
100
AcDbLayerTableRecord
  2
40
 70
        0
 62
        7
  6
Continuous
290
        1
370
       -3
390
1F
  0
LAYER
  5
4B
100
AcDbSymbolTableRecord
100
AcDbLayerTableRecord
  2
41
 70
        0
 62
        7
  6
Continuous
290
        1
370
       -3
390
1F
  0
LAYER
  5
4C
100
AcDbSymbolTableRecord
100
AcDbLayerTableRecord
  2
42
 70
        0
 62
        7
  6
Continuous
290
        1
370
       -3
390
1F
  0
LAYER
  5
4D
100
AcDbSymbolTableRecord
100
AcDbLayerTableRecord
  2
43
 70
        0
 62
        7
  6
Continuous
290
        1
370
       -3
390
1F
  0
LAYER
  5
4E
100
AcDbSymbolTableRecord
100
AcDbLayerTableRecord
  2
44
 70
        0
 62
        7
  6
Continuous
290
        1
370
       -3
390
1F
  0
LAYER
  5
4F
100
AcDbSymbolTableRecord
100
AcDbLayerTableRecord
  2
45
 70
        0
 62
        7
  6
Continuous
290
        1
370
       -3
390
1F
  0
LAYER
  5
50
100
AcDbSymbolTableRecord
100
AcDbLayerTableRecord
  2
46
 70
        0
 62
        7
  6
Continuous
290
        1
370
       -3
390
1F
  0
LAYER
  5
51
100
AcDbSymbolTableRecord
100
AcDbLayerTableRecord
  2
47
 70
        0
 62
        7
  6
Continuous
290
        1
370
       -3
390
1F
  0
LAYER
  5
52
100
AcDbSymbolTableRecord
100
AcDbLayerTableRecord
  2
48
 70
        0
 62
        7
  6
Continuous
290
        1
370
       -3
390
1F
  0
LAYER
  5
53
100
AcDbSymbolTableRecord
100
AcDbLayerTableRecord
  2
49
 70
        0
 62
        7
  6
Continuous
290
        1
370
       -3
390
1F
  0
LAYER
  5
54
100
AcDbSymbolTableRecord
100
AcDbLayerTableRecord
  2
50
 70
        0
 62
        7
  6
Continuous
290
        1
370
       -3
390
1F
  0
ENDTAB
  0
TABLE
  2
STYLE
  5
3
100
AcDbSymbolTable
 70
        1
  0
STYLE
  5
17
100
AcDbSymbolTableRecord
100
AcDbTextStyleTableRecord
  2
Standard
 70
        0
 40
0.0
 41
1.0
 50
0.0
 71
        0
 42
0.0
  3
txt
  4

  0
ENDTAB
  0
TABLE
  2
VIEW
  5
5
100
AcDbSymbolTable
 70
        0
  0
ENDTAB
  0
TABLE
  2
UCS
  5
6
100
AcDbSymbolTable
 70
        0
  0
ENDTAB
  0
TABLE
  2
APPID
  5
8
100
AcDbSymbolTable
 70
        1
  0
APPID
  5
16
100
AcDbSymbolTableRecord
100
AcDbRegAppTableRecord
  2
ACAD
 70
        0
  0
ENDTAB
  0
TABLE
  2
DIMSTYLE
  5
9
100
AcDbSymbolTable
 70
        1
100
AcDbDimStyleTable
 71
        0
  0
DIMSTYLE
105
18
100
AcDbSymbolTableRecord
100
AcDbDimStyleTableRecord
  2
Standard
 70
        0
  3

  4

 40
1.0
 41
0.18
 42
0.0625
 43
0.38
 44
0.18
 45
0.0
 46
0.0
 47
0.0
 48
0.0
 71
        0
 72
        0
 73
        1
 74
        1
 75
        0
 76
        0
 77
        0
 78
        0
 79
        0
140
0.18
141
0.09
142
0.0
143
25.4
144
1.0
145
0.0
146
1.0
147
0.09
148
0.0
170
        0
171
        2
172
        0
173
        0
174
        0
175
        0
176
        0
177
        0
178
        0
179
        0
271
        4
272
        4
273
        2
274
        2
275
        0
276
        0
277
        2
278
       46
279
        0
280
        0
281
        0
282
        0
283
        1
284
        0
285
        0
286
        0
288
        0
340
17
341
0
342
0
343
0
344
0
371
       -2
372
       -2
  0
ENDTAB
  0
TABLE
  2
BLOCK_RECORD
  5
1
100
AcDbSymbolTable
 70
       37
  0
BLOCK_RECORD
  5
A
100
AcDbSymbolTableRecord
100
AcDbBlockTableRecord
  2
*MODEL_SPACE
340
20
  0
BLOCK_RECORD
  5
B
100
AcDbSymbolTableRecord
100
AcDbBlockTableRecord
  2
*PAPER_SPACE
340
21
  0
BLOCK_RECORD
  5
55
100
AcDbSymbolTableRecord
100
AcDbBlockTableRecord
  2
0
340
0
102
{BLKREFS
331
6D8
102
}
  0
BLOCK_RECORD
  5
57
100
AcDbSymbolTableRecord
100
AcDbBlockTableRecord
  2
*D1
340
0
102
{BLKREFS
331
64
102
}
  0
BLOCK_RECORD
  5
66
100
AcDbSymbolTableRecord
100
AcDbBlockTableRecord
  2
*H2
340
0
102
{BLKREFS
331
6F
102
}
  0
BLOCK_RECORD
  5
72
100
AcDbSymbolTableRecord
100
AcDbBlockTableRecord
  2
*H3
340
0
102
{BLKREFS
331
7B
102
}
  0
BLOCK_RECORD
  5
7C
100
AcDbSymbolTableRecord
100
AcDbBlockTableRecord
  2
*D4
340
0
102
{BLKREFS
331
8A
102
}
  0
BLOCK_RECORD
  5
94
100
AcDbSymbolTableRecord
100
AcDbBlockTableRecord
  2
*D5
340
0
102
{BLKREFS
331
A3
102
}
  0
BLOCK_RECORD
  5
198
100
AcDbSymbolTableRecord
100
AcDbBlockTableRecord
  2
*D6
340
0
102
{BLKREFS
331
1A8
102
}
  0
BLOCK_RECORD
  5
1C8
100
AcDbSymbolTableRecord
100
AcDbBlockTableRecord
  2
*H7
340
0
102
{BLKREFS
331
1D0
102
}
  0
BLOCK_RECORD
  5
1D1
100
AcDbSymbolTableRecord
100
AcDbBlockTableRecord
  2
*H8
340
0
102
{BLKREFS
331
1D9
102
}
  0
BLOCK_RECORD
  5
1DA
100
AcDbSymbolTableRecord
100
AcDbBlockTableRecord
  2
*D9
340
0
102
{BLKREFS
331
1E8
102
}
  0
BLOCK_RECORD
  5
1E9
100
AcDbSymbolTableRecord
100
AcDbBlockTableRecord
  2
*D10
340
0
102
{BLKREFS
331
1F7
102
}
  0
BLOCK_RECORD
  5
1F8
100
AcDbSymbolTableRecord
100
AcDbBlockTableRecord
  2
*D11
340
0
102
{BLKREFS
331
206
102
}
  0
BLOCK_RECORD
  5
207
100
AcDbSymbolTableRecord
100
AcDbBlockTableRecord
  2
*D12
340
0
102
{BLKREFS
331
217
102
}
  0
BLOCK_RECORD
  5
21D
100
AcDbSymbolTableRecord
100
AcDbBlockTableRecord
  2
*D13
340
0
102
{BLKREFS
331
22B
102
}
  0
BLOCK_RECORD
  5
22D
100
AcDbSymbolTableRecord
100
AcDbBlockTableRecord
  2
*D14
340
0
102
{BLKREFS
331
23B
102
}
  0
BLOCK_RECORD
  5
281
100
AcDbSymbolTableRecord
100
AcDbBlockTableRecord
  2
*D15
340
0
102
{BLKREFS
331
28F
102
}
  0
BLOCK_RECORD
  5
293
100
AcDbSymbolTableRecord
100
AcDbBlockTableRecord
  2
*D16
340
0
102
{BLKREFS
331
2A1
102
}
  0
BLOCK_RECORD
  5
2E3
100
AcDbSymbolTableRecord
100
AcDbBlockTableRecord
  2
*D17
340
0
102
{BLKREFS
331
2F1
102
}
  0
BLOCK_RECORD
  5
2FA
100
AcDbSymbolTableRecord
100
AcDbBlockTableRecord
  2
*D18
340
0
102
{BLKREFS
331
308
102
}
  0
BLOCK_RECORD
  5
309
100
AcDbSymbolTableRecord
100
AcDbBlockTableRecord
  2
*D19
340
0
102
{BLKREFS
331
317
102
}
  0
BLOCK_RECORD
  5
318
100
AcDbSymbolTableRecord
100
AcDbBlockTableRecord
  2
*H20
340
0
102
{BLKREFS
331
320
102
}
  0
BLOCK_RECORD
  5
321
100
AcDbSymbolTableRecord
100
AcDbBlockTableRecord
  2
*H21
340
0
102
{BLKREFS
331
329
102
}
  0
BLOCK_RECORD
  5
32A
100
AcDbSymbolTableRecord
100
AcDbBlockTableRecord
  2
*D22
340
0
102
{BLKREFS
331
33A
102
}
  0
BLOCK_RECORD
  5
33B
100
AcDbSymbolTableRecord
100
AcDbBlockTableRecord
  2
*D23
340
0
102
{BLKREFS
331
349
102
}
  0
BLOCK_RECORD
  5
34A
100
AcDbSymbolTableRecord
100
AcDbBlockTableRecord
  2
*D24
340
0
102
{BLKREFS
331
35A
102
}
  0
BLOCK_RECORD
  5
35B
100
AcDbSymbolTableRecord
100
AcDbBlockTableRecord
  2
*D25
340
0
102
{BLKREFS
331
369
102
}
  0
BLOCK_RECORD
  5
36A
100
AcDbSymbolTableRecord
100
AcDbBlockTableRecord
  2
*D26
340
0
102
{BLKREFS
331
378
102
}
  0
BLOCK_RECORD
  5
379
100
AcDbSymbolTableRecord
100
AcDbBlockTableRecord
  2
*H27
340
0
102
{BLKREFS
331
381
102
}
  0
BLOCK_RECORD
  5
382
100
AcDbSymbolTableRecord
100
AcDbBlockTableRecord
  2
*H28
340
0
102
{BLKREFS
331
38A
102
}
  0
BLOCK_RECORD
  5
38B
100
AcDbSymbolTableRecord
100
AcDbBlockTableRecord
  2
*H29
340
0
102
{BLKREFS
331
393
102
}
  0
BLOCK_RECORD
  5
394
100
AcDbSymbolTableRecord
100
AcDbBlockTableRecord
  2
*D30
340
0
102
{BLKREFS
331
3A2
102
}
  0
BLOCK_RECORD
  5
3A3
100
AcDbSymbolTableRecord
100
AcDbBlockTableRecord
  2
*D31
340
0
102
{BLKREFS
331
3B1
102
}
  0
BLOCK_RECORD
  5
3B2
100
AcDbSymbolTableRecord
100
AcDbBlockTableRecord
  2
*D32
340
0
102
{BLKREFS
331
3C0
102
}
  0
BLOCK_RECORD
  5
527
100
AcDbSymbolTableRecord
100
AcDbBlockTableRecord
  2
*D33
340
0
102
{BLKREFS
331
535
102
}
  0
BLOCK_RECORD
  5
536
100
AcDbSymbolTableRecord
100
AcDbBlockTableRecord
  2
*D34
340
0
102
{BLKREFS
331
546
102
}
  0
BLOCK_RECORD
  5
57B
100
AcDbSymbolTableRecord
100
AcDbBlockTableRecord
  2
*D35
340
0
102
{BLKREFS
331
58C
102
}
  0
BLOCK_RECORD
  5
66E
100
AcDbSymbolTableRecord
100
AcDbBlockTableRecord
  2
*D36
340
0
102
{BLKREFS
331
67E
102
}
  0
ENDTAB
  0
ENDSEC
  0
SECTION
  2
BLOCKS
  0
BLOCK
  5
D
100
AcDbEntity
  8
0
100
AcDbBlockBegin
  2
*MODEL_SPACE
 70
        0
 10
0.0
 20
0.0
 30
0.0
  3
*MODEL_SPACE
  1

  0
ENDBLK
  5
E
100
AcDbEntity
  8
0
100
AcDbBlockEnd
  0
BLOCK
  5
F
100
AcDbEntity
 67
        1
  8
0
100
AcDbBlockBegin
  2
*PAPER_SPACE
 70
        0
 10
0.0
 20
0.0
 30
0.0
  3
*PAPER_SPACE
  1

  0
ENDBLK
  5
10
100
AcDbEntity
 67
        1
  8
0
100
AcDbBlockEnd
  0
BLOCK
  5
56
100
AcDbEntity
  8
0
100
AcDbBlockBegin
  2
0
 70
        0
 10
0.0
 20
0.0
 30
0.0
  3
0
  1

  0
INSERT
  5
64
100
AcDbEntity
  8
GEKO
100
AcDbBlockReference
  2
*D1
 10
0.0
 20
0.0
 30
0.0
  0
LINE
  5
65
100
AcDbEntity
  8
GEKO
  6
SOLID
 62
        7
100
AcDbLine
 10
-1696.038646683
 20
1690.129729069
 30
0.0
 11
-1677.013177297
 21
1690.129729069
 31
0.0
  0
INSERT
  5
6F
100
AcDbEntity
  8
0
100
AcDbBlockReference
  2
*H2
 10
0.0
 20
0.0
 30
0.0
  0
CIRCLE
  5
70
100
AcDbEntity
  8
GEKO
  6
SOLID
 62
        7
100
AcDbCircle
 10
-1686.52591199
 20
1696.629729069
 30
0.0
 40
0.200000003
  0
CIRCLE
  5
71
100
AcDbEntity
  8
GEKO
  6
SOLID
 62
        7
100
AcDbCircle
 10
-1686.52591199
 20
1683.629729069
 30
0.0
 40
0.200000003
  0
INSERT
  5
7B
100
AcDbEntity
  8
0
100
AcDbBlockReference
  2
*H3
 10
0.0
 20
0.0
 30
0.0
  0
INSERT
  5
8A
100
AcDbEntity
  8
GEKO
100
AcDbBlockReference
  2
*D4
 10
0.0
 20
0.0
 30
0.0
  0
LINE
  5
8B
100
AcDbEntity
  8
GEKO
  6
SOLID
 62
        7
100
AcDbLine
 10
-1619.484549392
 20
1405.958656434
 30
0.0
 11
-1619.484549392
 21
1262.958656434
 31
0.0
  0
LINE
  5
8C
100
AcDbEntity
  8
GEKO
  6
SOLID
 62
        7
100
AcDbLine
 10
-1767.484549392
 20
1531.958656434
 30
0.0
 11
-1631.484549392
 21
1531.958656434
 31
0.0
  0
CIRCLE
  5
8D
100
AcDbEntity
  8
GEKO
  6
SOLID
 62
        7
100
AcDbCircle
 10
-1614.484549392
 20
1339.458656434
 30
0.0
 40
5.0
  0
LINE
  5
8E
100
AcDbEntity
  8
GEKO
  6
SOLID
 62
        7
100
AcDbLine
 10
-1775.484551392
 20
1272.958656434
 30
0.0
 11
-1775.484551392
 21
1262.958656434
 31
0.0
  0
CIRCLE
  5
8F
100
AcDbEntity
  8
GEKO
  6
SOLID
 62
        7
100
AcDbCircle
 10
-1781.484549392
 20
1339.458656434
 30
0.0
 40
5.0
  0
LINE
  5
90
100
AcDbEntity
  8
GEKO
  6
SOLID
 62
        7
100
AcDbLine
 10
-1786.254245399
 20
1340.958656434
 30
0.0
 11
-1776.714853385
 21
1340.958656434
 31
0.0
  0
LINE
  5
91
100
AcDbEntity
  8
GEKO
  6
SOLID
 62
        7
100
AcDbLine
 10
-1786.254245399
 20
1337.958656434
 30
0.0
 11
-1776.714853385
 21
1337.958656434
 31
0.0
  0
LINE
  5
92
100
AcDbEntity
  8
GEKO
  6
SOLID
 62
        7
100
AcDbLine
 10
-1619.254245399
 20
1337.958656434
 30
0.0
 11
-1609.714853385
 21
1337.958656434
 31
0.0
  0
LINE
  5
93
100
AcDbEntity
  8
GEKO
  6
SOLID
 62
        7
100
AcDbLine
 10
-1619.254245399
 20
1340.958656434
 30
0.0
 11
-1609.714853385
 21
1340.958656434
 31
0.0
  0
INSERT
  5
A3
100
AcDbEntity
  8
GEKO
100
AcDbBlockReference
  2
*D5
 10
0.0
 20
0.0
 30
0.0
  0
LINE
  5
A5
100
AcDbEntity
  8
GEKO
  6
CENTER
 62
        7
100
AcDbLine
 10
-1860.084549393
 20
1430.356602977
 30
0.0
 11
-1860.084549393
 21
1429.274394565
 31
0.0
  0
LINE
  5
A6
100
AcDbEntity
  8
GEKO
  6
SOLID
 62
        7
100
AcDbLine
 10
-1767.484549392
 20
1431.958656434
 30
0.0
 11
-1631.484549392
 21
1431.958656434
 31
0.0
  0
LINE
  5
A7
100
AcDbEntity
  8
GEKO
  6
SOLID
 62
        7
100
AcDbLine
 10
-1764.484549392
 20
1531.958656434
 30
0.0
 11
-1764.484549392
 21
1431.958656434
 31
0.0
  0
LINE
  5
A8
100
AcDbEntity
  8
GEKO
  6
SOLID
 62
        7
100
AcDbLine
 10
-1634.484549392
 20
1531.958656434
 30
0.0
 11
-1634.484549392
 21
1431.958656434
 31
0.0
  0
CIRCLE
  5
A9
100
AcDbEntity
  8
GEKO
  6
SOLID
 62
        7
100
AcDbCircle
 10
-1699.484549392
 20
1391.958656434
 30
0.0
 40
15.0
  0
LINE
  5
AA
100
AcDbEntity
  8
GEKO
  6
SOLID
 62
        7
100
AcDbLine
 10
-1686.984549392
 20
1431.958656434
 30
0.0
 11
-1686.984549392
 21
1421.958656434
 31
0.0
  0
LINE
  5
AB
100
AcDbEntity
  8
GEKO
  6
SOLID
 62
        7
100
AcDbLine
 10
-1711.984549392
 20
1431.958656434
 30
0.0
 11
-1711.984549392
 21
1421.958656434
 31
0.0
  0
LINE
  5
AC
100
AcDbEntity
  8
GEKO
  6
SOLID
 62
        7
100
AcDbLine
 10
-1711.984549392
 20
1421.958656434
 30
0.0
 11
-1686.984549392
 21
1421.958656434
 31
0.0
  0
LINE
  5
AD
100
AcDbEntity
  8
GEKO
  6
SOLID
 62
        7
100
AcDbLine
 10
-1694.484549392
 20
1421.958656434
 30
0.0
 11
-1694.484549392
 21
1406.100792058
 31
0.0
  0
LINE
  5
AE
100
AcDbEntity
  8
GEKO
  6
SOLID
 62
        7
100
AcDbLine
 10
-1704.484549392
 20
1421.958656434
 30
0.0
 11
-1704.484549392
 21
1406.100792058
 31
0.0
  0
LINE
  5
AF
100
AcDbEntity
  8
GEKO
  6
SOLID
 62
        7
100
AcDbLine
 10
-1631.484549392
 20
1485.958656434
 30
0.0
 11
-1594.484549392
 21
1485.958656434
 31
0.0
  0
LINE
  5
B0
100
AcDbEntity
  8
GEKO
  6
SOLID
 62
        7
100
AcDbLine
 10
-1631.484549392
 20
1477.958656434
 30
0.0
 11
-1594.484549392
 21
1477.958656434
 31
0.0
  0
LINE
  5
B1
100
AcDbEntity
  8
GEKO
  6
SOLID
 62
        7
100
AcDbLine
 10
-1594.484549392
 20
1485.958656434
 30
0.0
 11
-1594.484549392
 21
1477.958656434
 31
0.0
  0
LINE
  5
B2
100
AcDbEntity
  8
GEKO
  6
SOLID
 62
        7
100
AcDbLine
 10
-1591.484549392
 20
1492.958656673
 30
0.0
 11
-1584.28455006
 21
1492.958656673
 31
0.0
  0
LWPOLYLINE
  5
B3
100
AcDbEntity
  8
GEKO
  6
SOLID
 62
        7
100
AcDbPolyline
 90
       23
 70
        0
 10
-1549.012854118
 20
1431.98550495
 10
-1548.345610047
 20
1431.259491702
 10
-1547.694545805
 20
1430.521176504
 10
-1547.07584122
 20
1429.758257405
 10
-1546.50567612
 20
1428.958432455
 10
-1546.230865926
 20
1428.519788805
 10
-1545.97510821
 20
1428.068536726
 10
-1545.739595126
 20
1427.605647467
 10
-1545.525518824
 20
1427.132092278
 10
-1545.334071457
 20
1426.648842408
 10
-1545.166445178
 20
1426.156869105
 10
-1545.023832137
 20
1425.65714362
 10
-1544.907424486
 20
1425.1506372
 10
-1544.828095315
 20
1424.704415011
 10
-1544.769388656
 20
1424.254899501
 10
-1544.73110806
 20
1423.803212039
 10
-1544.713057077
 20
1423.350473992
 10
-1544.736858152
 20
1422.446331616
 10
-1544.839220284
 20
1421.551443315
 10
-1544.995676659
 20
1420.760370366
 10
-1545.204716687
 20
1419.98174507
 10
-1545.456637738
 20
1419.213270609
 10
-1545.741737178
 20
1418.452650167
  0
LINE
  5
B4
100
AcDbEntity
  8
GEKO
  6
SOLID
 62
        7
100
AcDbLine
 10
-1594.484549392
 20
1470.958656196
 30
0.0
 11
-1581.284549106
 21
1470.958656196
 31
0.0
  0
LINE
  5
B5
100
AcDbEntity
  8
GEKO
  6
SOLID
 62
        7
100
AcDbLine
 10
-1594.484549392
 20
1486.35865653
 30
0.0
 11
-1594.484549392
 21
1489.958656673
 31
0.0
  0
LINE
  5
B6
100
AcDbEntity
  8
GEKO
  6
SOLID
 62
        7
100
AcDbLine
 10
-1614.484549392
 20
1485.958656434
 30
0.0
 11
-1614.484549392
 21
1477.958656434
 31
0.0
  0
LINE
  5
B7
100
AcDbEntity
  8
GEKO
  6
SOLID
 62
        7
100
AcDbLine
 10
-1614.484549392
 20
1483.291989768
 30
0.0
 11
-1612.484549392
 21
1477.958656434
 31
0.0
  0
LINE
  5
B8
100
AcDbEntity
  8
GEKO
  6
SOLID
 62
        7
100
AcDbLine
 10
-1594.484549392
 20
1485.958656434
 30
0.0
 11
-1594.484549392
 21
1477.958656434
 31
0.0
  0
LINE
  5
B9
100
AcDbEntity
  8
GEKO
  6
SOLID
 62
        7
100
AcDbLine
 10
-1609.484549392
 20
1485.958656434
 30
0.0
 11
-1606.484549392
 21
1477.958656434
 31
0.0
  0
ARC
  5
BA
100
AcDbEntity
  8
GEKO
  6
SOLID
 62
        7
100
AcDbCircle
 10
-1577.779701369
 20
1449.544204848
 30
0.0
 40
5.599999905
100
AcDbArc
 50
280.429059272
 51
75.423885011
  0
LINE
  5
BB
100
AcDbEntity
  8
GEKO
  6
SOLID
 62
        7
100
AcDbLine
 10
-1603.484549392
 20
1485.958656434
 30
0.0
 11
-1600.484549392
 21
1477.958656434
 31
0.0
  0
LWPOLYLINE
  5
BC
100
AcDbEntity
  8
GEKO
  6
SOLID
 62
        7
100
AcDbPolyline
 90
       22
 70
        0
 10
-1547.93482702
 20
1457.35209974
 10
-1547.26758295
 20
1456.626086492
 10
-1546.616518708
 20
1455.887771293
 10
-1545.997814123
 20
1455.124852194
 10
-1545.427649023
 20
1454.325027245
 10
-1545.152838828
 20
1453.886383594
 10
-1544.897081113
 20
1453.435131515
 10
-1544.661568028
 20
1452.972242257
 10
-1544.447491727
 20
1452.498687068
 10
-1544.25604436
 20
1452.015437197
 10
-1544.08841808
 20
1451.523463895
 10
-1543.945805039
 20
1451.023738409
 10
-1543.829397389
 20
1450.51723199
 10
-1543.750068217
 20
1450.071009801
 10
-1543.691361558
 20
1449.621494291
 10
-1543.653080962
 20
1449.169806829
 10
-1543.635029979
 20
1448.717068782
 10
-1543.658831054
 20
1447.812926406
 10
-1543.761193186
 20
1446.918038104
 10
-1543.856233055
 20
1446.403160088
 10
-1543.974850107
 20
1445.893863285
 10
-1544.271421205
 20
1444.889315987
  0
LINE
  5
BD
100
AcDbEntity
  8
GEKO
  6
SOLID
 62
        7
100
AcDbLine
 10
-1597.484549392
 20
1485.958656434
 30
0.0
 11
-1594.484549392
 21
1477.958656434
 31
0.0
  0
LINE
  5
BE
100
AcDbEntity
  8
GEKO
  6
SOLID
 62
        7
100
AcDbLine
 10
-1594.484549392
 20
1477.558656339
 30
0.0
 11
-1594.484549392
 21
1464.591852479
 31
0.0
  0
LWPOLYLINE
  5
BF
100
AcDbEntity
  8
GEKO
  6
SOLID
 62
        7
100
AcDbPolyline
 90
       31
 70
        0
 10
-1609.484549396
 20
1401.943402614
 10
-1605.637981338
 20
1400.96476011
 10
-1601.947417565
 20
1399.947170031
 10
-1600.162509594
 20
1399.424280727
 10
-1598.418817128
 20
1398.892275451
 10
-1596.717044109
 20
1398.351368978
 10
-1595.057877558
 20
1397.801779678
 10
-1593.441987297
 20
1397.243729424
 10
-1591.870025673
 20
1396.677443506
 10
-1590.342627302
 20
1396.103150538
 10
-1588.860408807
 20
1395.521082369
 10
-1587.423968574
 20
1394.931473983
 10
-1586.033886505
 20
1394.334563411
 10
-1584.690723789
 20
1393.730591631
 10
-1583.395022673
 20
1393.119802471
 10
-1582.147306243
 20
1392.502442513
 10
-1580.948078212
 20
1391.87876099
 10
-1579.79782272
 20
1391.249009688
 10
-1578.697004135
 20
1390.613442843
 10
-1577.646066866
 20
1389.972317039
 10
-1576.645435187
 20
1389.325891105
 10
-1575.695513062
 20
1388.674426006
 10
-1574.796683981
 20
1388.018184747
 10
-1573.949310811
 20
1387.357432258
 10
-1573.153735644
 20
1386.692435289
 10
-1572.410279659
 20
1386.023462307
 10
-1571.719242997
 20
1385.350783381
 10
-1571.080904636
 20
1384.674670077
 10
-1570.495522277
 20
1383.99539535
 10
-1569.963332246
 20
1383.313233427
 10
-1569.484549392
 20
1382.628459703
  0
LWPOLYLINE
  5
C0
100
AcDbEntity
  8
GEKO
  6
SOLID
 62
        7
100
AcDbPolyline
 90
       23
 70
        0
 10
-1849.956244666
 20
1431.98550495
 10
-1850.623488736
 20
1431.259491702
 10
-1851.274552978
 20
1430.521176504
 10
-1851.893257563
 20
1429.758257405
 10
-1852.463422663
 20
1428.958432455
 10
-1852.738232858
 20
1428.519788805
 10
-1852.993990574
 20
1428.068536726
 10
-1853.229503658
 20
1427.605647467
 10
-1853.44357996
 20
1427.132092278
 10
-1853.635027326
 20
1426.648842408
 10
-1853.802653606
 20
1426.156869105
 10
-1853.945266647
 20
1425.65714362
 10
-1854.061674298
 20
1425.1506372
 10
-1854.141003469
 20
1424.704415011
 10
-1854.199710128
 20
1424.254899501
 10
-1854.237990724
 20
1423.803212039
 10
-1854.256041707
 20
1423.350473992
 10
-1854.232240632
 20
1422.446331616
 10
-1854.1298785
 20
1421.551443315
 10
-1853.973422125
 20
1420.760370366
 10
-1853.764382096
 20
1419.98174507
 10
-1853.512461046
 20
1419.213270609
 10
-1853.227361606
 20
1418.452650167
  0
ARC
  5
C1
100
AcDbEntity
  8
GEKO
  6
SOLID
 62
        7
100
AcDbCircle
 10
-1821.189397415
 20
1449.544204848
 30
0.0
 40
5.599999905
100
AcDbArc
 50
104.576114989
 51
259.570940728
  0
LINE
  5
C2
100
AcDbEntity
  8
GEKO
  6
SOLID
 62
        7
100
AcDbLine
 10
-1581.28455006
 20
1489.958657031
 30
0.0
 11
-1581.284548293
 21
1475.147366136
 31
0.0
  0
ARC
  5
C3
100
AcDbEntity
  8
GEKO
  6
SOLID
 62
        7
100
AcDbCircle
 10
-1566.257022241
 20
1481.958658236
 30
0.0
 40
15.027526885
100
AcDbArc
 50
162.412052162
 51
197.587961514
  0
LINE
  5
C4
100
AcDbEntity
  8
GEKO
  6
SOLID
 62
        7
100
AcDbLine
 10
-1580.58207501
 20
1477.417796319
 30
0.0
 11
-1575.234548085
 21
1477.417796957
 31
0.0
  0
ARC
  5
C5
100
AcDbEntity
  8
GEKO
  6
SOLID
 62
        7
100
AcDbCircle
 10
-1577.26423901
 20
1475.147366624
 30
0.0
 40
4.020309304
100
AcDbArc
 50
145.615757684
 51
214.384255991
  0
LINE
  5
C6
100
AcDbEntity
  8
GEKO
  6
SOLID
 62
        7
100
AcDbLine
 10
-1581.284549106
 20
1452.72724226
 30
0.0
 11
-1581.284549106
 21
1489.958656673
 31
0.0
  0
LWPOLYLINE
  5
C7
100
AcDbEntity
  8
GEKO
  6
SOLID
 62
        7
100
AcDbPolyline
 90
       22
 70
        0
 10
-1851.034271764
 20
1457.35209974
 10
-1851.701515834
 20
1456.626086492
 10
-1852.352580076
 20
1455.887771293
 10
-1852.971284661
 20
1455.124852194
 10
-1853.541449761
 20
1454.325027245
 10
-1853.816259956
 20
1453.886383594
 10
-1854.072017671
 20
1453.435131515
 10
-1854.307530756
 20
1452.972242257
 10
-1854.521607057
 20
1452.498687068
 10
-1854.713054424
 20
1452.015437197
 10
-1854.880680704
 20
1451.523463895
 10
-1855.023293745
 20
1451.023738409
 10
-1855.139701395
 20
1450.51723199
 10
-1855.219030566
 20
1450.071009801
 10
-1855.277737225
 20
1449.621494291
 10
-1855.316017821
 20
1449.169806829
 10
-1855.334068805
 20
1448.717068782
 10
-1855.31026773
 20
1447.812926406
 10
-1855.207905598
 20
1446.918038104
 10
-1855.112865729
 20
1446.403160087
 10
-1854.994248677
 20
1445.893863283
 10
-1854.697677578
 20
1444.889315984
  0
LWPOLYLINE
  5
C8
100
AcDbEntity
  8
GEKO
  6
SOLID
 62
        7
100
AcDbPolyline
 90
       57
 70
        0
 10
-1851.711914522
 20
1442.459913031
 10
-1852.471213105
 20
1443.029480294
 10
-1853.196848015
 20
1443.601458735
 10
-1853.888644951
 20
1444.17571096
 10
-1854.546437741
 20
1444.752099031
 10
-1855.170068378
 20
1445.330484497
 10
-1855.759387064
 20
1445.910728428
 10
-1856.314252242
 20
1446.492691444
 10
-1856.83453063
 20
1447.076233758
 10
-1857.320097255
 20
1447.661215197
 10
-1857.770835481
 20
1448.247495248
 10
-1858.186637039
 20
1448.834933082
 10
-1858.567402051
 20
1449.423387595
 10
-1858.913039055
 20
1450.012717436
 10
-1859.223465029
 20
1450.602781046
 10
-1859.498605405
 20
1451.193436688
 10
-1859.738394095
 20
1451.784542485
 10
-1859.942773499
 20
1452.375956449
 10
-1860.111694524
 20
1452.96753652
 10
-1860.245116595
 20
1453.559140597
 10
-1860.343007664
 20
1454.150626575
 10
-1860.405344216
 20
1454.741852376
 10
-1860.432111278
 20
1455.332675983
 10
-1860.42330242
 20
1455.922955479
 10
-1860.378919758
 20
1456.512549076
 10
-1860.298973953
 20
1457.10131515
 10
-1860.183484209
 20
1457.689112276
 10
-1860.032478266
 20
1458.275799263
 10
-1859.845992398
 20
1458.861235186
 10
-1859.624071398
 20
1459.44527942
 10
-1859.366768574
 20
1460.027791675
 10
-1859.07414573
 20
1460.608632028
 10
-1858.746273157
 20
1461.187660959
 10
-1858.383229611
 20
1461.764739383
 10
-1857.985102296
 20
1462.339728682
 10
-1857.551986845
 20
1462.91249074
 10
-1857.083987294
 20
1463.482887979
 10
-1856.58121606
 20
1464.050783384
 10
-1856.043793909
 20
1464.616040546
 10
-1855.471849935
 20
1465.178523687
 10
-1854.865521519
 20
1465.738097695
 10
-1854.224954307
 20
1466.294628158
 10
-1853.550302164
 20
1466.847981394
 10
-1852.841727145
 20
1467.398024486
 10
-1852.099399455
 20
1467.94462531
 10
-1851.323497403
 20
1468.487652571
 10
-1850.514207365
 20
1469.02697583
 10
-1849.671723737
 20
1469.562465539
 10
-1848.796248887
 20
1470.093993071
 10
-1846.947174569
 20
1471.144651885
 10
-1844.968760932
 20
1472.177942837
 10
-1842.86290876
 20
1473.192873183
 10
-1840.631641277
 20
1474.188467814
 10
-1838.277102199
 20
1475.163770202
 10
-1835.801553678
 20
1476.117843314
 10
-1833.207374126
 20
1477.049770511
 10
-1830.497055933
 20
1477.958656434
  0
LINE
  5
C9
100
AcDbEntity
  8
GEKO
  6
SOLID
 62
        7
100
AcDbLine
 10
-1787.984549034
 20
1472.458280033
 30
0.0
 11
-1787.984549034
 21
1441.042150362
 31
0.0
  0
LINE
  5
CA
100
AcDbEntity
  8
GEKO
  6
SOLID
 62
        7
100
AcDbLine
 10
-1818.439266659
 20
1450.085732826
 30
0.0
 11
-1822.285341245
 21
1443.904541527
 31
0.0
  0
LWPOLYLINE
  5
CB
100
AcDbEntity
  8
GEKO
  6
SOLID
 62
        7
100
AcDbPolyline
 90
       10
 70
        0
 10
-1849.956244666
 20
1431.98550495
 10
-1848.000634325
 20
1433.494686425
 10
-1847.008188812
 20
1434.22818297
 10
-1845.99817489
 20
1434.936366484
 10
-1844.52605049
 20
1435.887232274
 10
-1843.01399585
 20
1436.776488438
 10
-1841.46933055
 20
1437.610604146
 10
-1839.899374174
 20
1438.396048571
 10
-1837.656955294
 20
1439.434016086
 10
-1835.390134776
 20
1440.414681709
  0
LINE
  5
CC
100
AcDbEntity
  8
GEKO
  6
SOLID
 62
        7
100
AcDbLine
 10
-1787.984549034
 20
1441.042150362
 30
0.0
 11
-1787.984549034
 21
1448.112895237
 31
0.0
  0
LINE
  5
CD
100
AcDbEntity
  8
GEKO
  6
SOLID
 62
        7
100
AcDbLine
 10
-1575.234547543
 20
1472.876936759
 30
0.0
 11
-1580.582074468
 21
1472.87693612
 31
0.0
  0
LINE
  5
CE
100
AcDbEntity
  8
GEKO
  6
SOLID
 62
        7
100
AcDbLine
 10
-1789.668801419
 20
1437.299715626
 30
0.0
 11
-1822.285341245
 21
1443.904541527
 31
0.0
  0
ARC
  5
CF
100
AcDbEntity
  8
GEKO
  6
SOLID
 62
        7
100
AcDbCircle
 10
-1577.264240635
 20
1488.76994722
 30
0.0
 40
4.020309304
100
AcDbArc
 50
145.615757684
 51
214.384255991
  0
LINE
  5
D0
100
AcDbEntity
  8
GEKO
  6
SOLID
 62
        7
100
AcDbLine
 10
-1580.582076094
 20
1486.499516717
 30
0.0
 11
-1575.234549169
 21
1486.499517355
 31
0.0
  0
LINE
  5
D1
100
AcDbEntity
  8
GEKO
  6
SOLID
 62
        7
100
AcDbLine
 10
-1580.582076635
 20
1491.040376916
 30
0.0
 11
-1575.234549711
 21
1491.040377554
 31
0.0
  0
LINE
  5
D2
100
AcDbEntity
  8
GEKO
  6
SOLID
 62
        7
100
AcDbLine
 10
-1574.532076428
 20
1488.769946733
 30
0.0
 11
-1574.532078053
 21
1475.147366136
 31
0.0
  0
ARC
  5
D3
100
AcDbEntity
  8
GEKO
  6
SOLID
 62
        7
100
AcDbCircle
 10
-1589.559604105
 20
1481.958658235
 30
0.0
 40
15.027526885
100
AcDbArc
 50
342.412038486
 51
17.587947838
  0
ARC
  5
D4
100
AcDbEntity
  8
GEKO
  6
SOLID
 62
        7
100
AcDbCircle
 10
-1578.552385711
 20
1488.76994722
 30
0.0
 40
4.020309304
100
AcDbArc
 50
325.615744009
 51
34.384242316
  0
ARC
  5
D5
100
AcDbEntity
  8
GEKO
  6
SOLID
 62
        7
100
AcDbCircle
 10
-1578.552387337
 20
1475.147366624
 30
0.0
 40
4.020309304
100
AcDbArc
 50
325.615744009
 51
34.384242316
  0
LWPOLYLINE
  5
D6
100
AcDbEntity
  8
GEKO
  6
SOLID
 62
        7
100
AcDbPolyline
 90
        3
 70
        0
 10
-1786.484551392
 20
1402.654649189
 10
-1789.763296135
 20
1401.875083528
 10
-1792.939719707
 20
1401.067992132
  0
LWPOLYLINE
  5
D7
100
AcDbEntity
  8
GEKO
  6
SOLID
 62
        7
100
AcDbPolyline
 90
       57
 70
        0
 10
-1547.257184262
 20
1442.459913031
 10
-1546.497885679
 20
1443.029480294
 10
-1545.772250769
 20
1443.601458735
 10
-1545.080453832
 20
1444.17571096
 10
-1544.422661043
 20
1444.752099031
 10
-1543.799030406
 20
1445.330484497
 10
-1543.209711719
 20
1445.910728428
 10
-1542.654846542
 20
1446.492691444
 10
-1542.134568154
 20
1447.076233758
 10
-1541.649001529
 20
1447.661215197
 10
-1541.198263303
 20
1448.247495248
 10
-1540.782461745
 20
1448.834933082
 10
-1540.401696733
 20
1449.423387595
 10
-1540.056059728
 20
1450.012717436
 10
-1539.745633755
 20
1450.602781046
 10
-1539.470493378
 20
1451.193436688
 10
-1539.230704689
 20
1451.784542485
 10
-1539.026325285
 20
1452.375956449
 10
-1538.85740426
 20
1452.96753652
 10
-1538.723982188
 20
1453.559140597
 10
-1538.62609112
 20
1454.150626575
 10
-1538.563754568
 20
1454.741852376
 10
-1538.536987506
 20
1455.332675983
 10
-1538.545796364
 20
1455.922955479
 10
-1538.590179026
 20
1456.512549076
 10
-1538.67012483
 20
1457.10131515
 10
-1538.785614575
 20
1457.689112276
 10
-1538.936620517
 20
1458.275799263
 10
-1539.123106386
 20
1458.861235186
 10
-1539.345027386
 20
1459.44527942
 10
-1539.60233021
 20
1460.027791675
 10
-1539.894953053
 20
1460.608632028
 10
-1540.222825627
 20
1461.187660959
 10
-1540.585869173
 20
1461.764739383
 10
-1540.983996488
 20
1462.339728682
 10
-1541.417111939
 20
1462.91249074
 10
-1541.885111489
 20
1463.482887979
 10
-1542.387882724
 20
1464.050783384
 10
-1542.925304874
 20
1464.616040546
 10
-1543.497248849
 20
1465.178523687
 10
-1544.103577264
 20
1465.738097695
 10
-1544.744144477
 20
1466.294628158
 10
-1545.41879662
 20
1466.847981394
 10
-1546.127371639
 20
1467.398024486
 10
-1546.869699329
 20
1467.94462531
 10
-1547.645601381
 20
1468.487652571
 10
-1548.454891419
 20
1469.02697583
 10
-1549.297375047
 20
1469.562465539
 10
-1550.172849897
 20
1470.093993071
 10
-1552.021924215
 20
1471.144651885
 10
-1554.000337852
 20
1472.177942837
 10
-1556.106190023
 20
1473.192873183
 10
-1558.337457507
 20
1474.188467814
 10
-1560.691996585
 20
1475.163770202
 10
-1563.167545106
 20
1476.117843314
 10
-1565.761724658
 20
1477.049770511
 10
-1568.472042851
 20
1477.958656434
  0
LINE
  5
D8
100
AcDbEntity
  8
GEKO
  6
SOLID
 62
        7
100
AcDbLine
 10
-1787.968295431
 20
1446.316545823
 30
0.0
 11
-1813.676904272
 21
1451.522520659
 31
0.0
  0
ARC
  5
D9
100
AcDbEntity
  8
GEKO
  6
SOLID
 62
        7
100
AcDbCircle
 10
-1792.984549034
 20
1441.042150362
 30
0.0
 40
5.0
100
AcDbArc
 50
282.068037618
 51
0.0
  0
LWPOLYLINE
  5
DA
100
AcDbEntity
  8
GEKO
  6
SOLID
 62
        7
100
AcDbPolyline
 90
       44
 70
        0
 10
-1764.484549392
 20
1411.177762005
 10
-1768.195583918
 20
1410.612495463
 10
-1771.834313465
 20
1410.016957593
 10
-1775.397004969
 20
1409.391759372
 10
-1778.880003374
 20
1408.737542207
 10
-1782.279735382
 20
1408.054977276
 10
-1785.592713122
 20
1407.34476484
 10
-1788.815537725
 20
1406.607633524
 10
-1791.944902815
 20
1405.844339569
 10
-1794.977597895
 20
1405.055666058
 10
-1797.910511645
 20
1404.242422113
 10
-1800.740635117
 20
1403.405442059
 10
-1803.465064812
 20
1402.545584577
 10
-1806.08100567
 20
1401.663731816
 10
-1808.585773931
 20
1400.760788492
 10
-1810.976799888
 20
1399.837680956
 10
-1813.251630527
 20
1398.895356249
 10
-1815.407932041
 20
1397.934781125
 10
-1817.443492227
 20
1396.956941064
 10
-1819.35622275
 20
1395.962839255
 10
-1821.144161291
 20
1394.953495573
 10
-1822.80547356
 20
1393.929945531
 10
-1823.588107099
 20
1393.413170736
 10
-1824.338455173
 20
1392.893239213
 10
-1825.056325319
 20
1392.370284323
 10
-1825.741533406
 20
1391.844440203
 10
-1826.393903678
 20
1391.315841731
 10
-1827.013268804
 20
1390.784624491
 10
-1827.599469919
 20
1390.25092474
 10
-1828.152356663
 20
1389.714879369
 10
-1828.671787221
 20
1389.176625874
 10
-1829.157628362
 20
1388.636302316
 10
-1829.609755467
 20
1388.094047285
 10
-1830.028052568
 20
1387.549999871
 10
-1830.412412371
 20
1387.004299618
 10
-1830.76273629
 20
1386.457086499
 10
-1831.078934468
 20
1385.908500872
 10
-1831.360925799
 20
1385.358683449
 10
-1831.608637954
 20
1384.807775256
 10
-1831.822007395
 20
1384.2559176
 10
-1832.000979394
 20
1383.703252031
 10
-1832.145508044
 20
1383.149920307
 10
-1832.255556275
 20
1382.596064357
 10
-1832.331095858
 20
1382.041826242
  0
LINE
  5
DB
100
AcDbEntity
  8
GEKO
  6
SOLID
 62
        7
100
AcDbLine
 10
-1610.98454975
 20
1472.458280033
 30
0.0
 11
-1610.98454975
 21
1441.042150362
 31
0.0
  0
LWPOLYLINE
  5
DC
100
AcDbEntity
  8
GEKO
  6
SOLID
 62
        7
100
AcDbPolyline
 90
       33
 70
        0
 10
-1829.484549389
 20
1416.757885984
 10
-1829.525837038
 20
1417.17408352
 10
-1829.524419592
 20
1417.577106134
 10
-1829.481160529
 20
1417.981554383
 10
-1829.392482039
 20
1418.401437978
 10
-1829.251158749
 20
1418.848176362
 10
-1829.047826487
 20
1419.329370311
 10
-1828.772641985
 20
1419.848554612
 10
-1828.416611797
 20
1420.405741199
 10
-1827.972374117
 20
1420.998366814
 10
-1827.434465464
 20
1421.62228898
 10
-1826.79923096
 20
1422.272615753
 10
-1826.064550689
 20
1422.944295559
 10
-1825.229510892
 20
1423.632482366
 10
-1824.294094554
 20
1424.332728354
 10
-1823.258923861
 20
1425.041060349
 10
-1822.125061447
 20
1425.753986027
 10
-1820.893864792
 20
1426.468462392
 10
-1819.566883714
 20
1427.181847325
 10
-1818.145790535
 20
1427.891846457
 10
-1816.632334001
 20
1428.596461936
 10
-1815.028309909
 20
1429.293946203
 10
-1813.335543198
 20
1429.982761864
 10
-1811.555877728
 20
1430.661547697
 10
-1809.691171085
 20
1431.329090284
 10
-1807.743292601
 20
1431.984300585
 10
-1805.714123323
 20
1432.626194693
 10
-1803.605557134
 20
1433.253878108
 10
-1801.419502449
 20
1433.866532878
 10
-1799.157884153
 20
1434.463407131
 10
-1796.822645559
 20
1435.043806512
 10
-1794.415750236
 20
1435.607087207
 10
-1791.939183652
 20
1436.152650236
  0
LWPOLYLINE
  5
DD
100
AcDbEntity
  8
GEKO
  6
SOLID
 62
        7
100
AcDbPolyline
 90
       65
 70
        0
 10
-1829.484549386
 20
1406.700815722
 10
-1831.400884288
 20
1407.358422272
 10
-1833.261604697
 20
1408.026506091
 10
-1835.065844588
 20
1408.704756238
 10
-1836.81276422
 20
1409.392857037
 10
-1838.501550533
 20
1410.090488229
 10
-1840.131417522
 20
1410.797325118
 10
-1841.701606607
 20
1411.513038724
 10
-1843.211386981
 20
1412.237295937
 10
-1844.660055954
 20
1412.969759667
 10
-1846.046939279
 20
1413.710089009
 10
-1847.371391464
 20
1414.457939394
 10
-1848.632796076
 20
1415.212962753
 10
-1849.830566026
 20
1415.97480768
 10
-1850.964143839
 20
1416.743119591
 10
-1852.033001922
 20
1417.517540896
 10
-1853.036642799
 20
1418.297711159
 10
-1853.974599351
 20
1419.083267269
 10
-1854.846435028
 20
1419.873843607
 10
-1855.651744057
 20
1420.669072221
 10
-1856.390151626
 20
1421.468582989
 10
-1857.061314062
 20
1422.272003799
 10
-1857.664918987
 20
1423.078960719
 10
-1858.20068547
 20
1423.889078171
 10
-1858.66836415
 20
1424.701979105
 10
-1859.067737359
 20
1425.517285177
 10
-1859.398619218
 20
1426.334616921
 10
-1859.660855725
 20
1427.153593932
 10
-1859.85432483
 20
1427.973835036
 10
-1859.978936486
 20
1428.794958473
 10
-1860.034632697
 20
1429.61658207
 10
-1860.021387541
 20
1430.438323424
 10
-1859.93920718
 20
1431.259800074
 10
-1859.788129866
 20
1432.080629684
 10
-1859.568225912
 20
1432.90043022
 10
-1859.279597668
 20
1433.718820126
 10
-1858.922379468
 20
1434.535418502
 10
-1858.496737571
 20
1435.349845282
 10
-1858.002870082
 20
1436.161721411
 10
-1857.441006859
 20
1436.970669022
 10
-1856.811409408
 20
1437.77631161
 10
-1856.114370758
 20
1438.578274208
 10
-1855.350215331
 20
1439.376183563
 10
-1854.519298783
 20
1440.169668306
 10
-1853.622007843
 20
1440.95835913
 10
-1852.658760135
 20
1441.741888959
 10
-1851.630003977
 20
1442.519893117
 10
-1850.53621818
 20
1443.292009502
 10
-1849.377911819
 20
1444.05787875
 10
-1848.155623999
 20
1444.817144408
 10
-1846.869923604
 20
1445.569453093
 10
-1845.521409032
 20
1446.314454661
 10
-1844.110707916
 20
1447.051802371
 10
-1842.638476832
 20
1447.781153041
 10
-1841.105400993
 20
1448.502167213
 10
-1839.512193934
 20
1449.214509309
 10
-1837.859597172
 20
1449.917847787
 10
-1836.148379868
 20
1450.611855295
 10
-1834.379338466
 20
1451.296208825
 10
-1832.553296324
 20
1451.97058986
 10
-1830.671103327
 20
1452.634684527
 10
-1828.733635497
 20
1453.288183739
 10
-1826.741794579
 20
1453.930783341
 10
-1824.696507629
 20
1454.56218425
 10
-1822.598726573
 20
1455.182092597
  0
LINE
  5
DE
100
AcDbEntity
  8
GEKO
  6
SOLID
 62
        7
100
AcDbLine
 10
-1580.529832125
 20
1450.085732826
 30
0.0
 11
-1576.683757539
 21
1443.904541527
 31
0.0
  0
LWPOLYLINE
  5
DF
100
AcDbEntity
  8
GEKO
  6
SOLID
 62
        7
100
AcDbPolyline
 90
        6
 70
        0
 10
-1835.390134776
 20
1440.414681709
 10
-1833.892396899
 20
1440.890794486
 10
-1832.351254004
 20
1441.359143784
 10
-1829.141584685
 20
1442.27125236
 10
-1825.766823548
 20
1443.148609201
 10
-1822.232729729
 20
1443.98909575
  0
LINE
  5
E0
100
AcDbEntity
  8
GEKO
  6
SOLID
 62
        7
100
AcDbLine
 10
-1829.484549392
 20
1399.487965979
 30
0.0
 11
-1829.484549392
 21
1417.959809523
 31
0.0
  0
LWPOLYLINE
  5
E1
100
AcDbEntity
  8
GEKO
  6
SOLID
 62
        7
100
AcDbPolyline
 90
       10
 70
        0
 10
-1549.012854118
 20
1431.98550495
 10
-1550.968464459
 20
1433.494686425
 10
-1551.960909971
 20
1434.22818297
 10
-1552.970923894
 20
1434.936366484
 10
-1554.443048293
 20
1435.887232274
 10
-1555.955102934
 20
1436.776488438
 10
-1557.499768233
 20
1437.610604146
 10
-1559.06972461
 20
1438.396048571
 10
-1561.31214349
 20
1439.434016086
 10
-1563.578964008
 20
1440.414681709
  0
LWPOLYLINE
  5
E2
100
AcDbEntity
  8
GEKO
  6
SOLID
 62
        7
100
AcDbPolyline
 90
        9
 70
        0
 10
-1562.50093691
 20
1465.781276499
 10
-1564.575468397
 20
1466.435144255
 10
-1566.731860585
 20
1467.07404133
 10
-1568.968260421
 20
1467.697136138
 10
-1571.282802517
 20
1468.303668209
 10
-1573.673607254
 20
1468.892938888
 10
-1576.138778904
 20
1469.464303694
 10
-1578.676403868
 20
1470.017166032
 10
-1581.284549106
 20
1470.550972007
  0
LWPOLYLINE
  5
E3
100
AcDbEntity
  8
GEKO
  6
SOLID
 62
        7
100
AcDbPolyline
 90
       10
 70
        0
 10
-1547.93482702
 20
1457.35209974
 10
-1549.890437361
 20
1458.861281214
 10
-1550.882882874
 20
1459.594777759
 10
-1551.892896797
 20
1460.302961273
 10
-1553.365021196
 20
1461.253827063
 10
-1554.877075836
 20
1462.143083227
 10
-1556.421741136
 20
1462.977198936
 10
-1557.991697513
 20
1463.762643361
 10
-1560.234116393
 20
1464.800610876
 10
-1562.50093691
 20
1465.781276499
  0
ARC
  5
E4
100
AcDbEntity
  8
GEKO
  6
SOLID
 62
        7
100
AcDbCircle
 10
-1586.284549106
 20
1456.423054544
 30
0.0
 40
5.0
100
AcDbArc
 50
281.447556754
 51
0.0
  0
LINE
  5
E5
100
AcDbEntity
  8
GEKO
  6
SOLID
 62
        7
100
AcDbLine
 10
-1804.484549392
 20
1477.558656339
 30
0.0
 11
-1804.484549392
 21
1464.591852479
 31
0.0
  0
LINE
  5
E6
100
AcDbEntity
  8
GEKO
  6
SOLID
 62
        7
100
AcDbLine
 10
-1817.684549678
 20
1452.72724226
 30
0.0
 11
-1817.684549678
 21
1489.958656673
 31
0.0
  0
LWPOLYLINE
  5
E7
100
AcDbEntity
  8
GEKO
  6
SOLID
 62
        7
100
AcDbPolyline
 90
       10
 70
        0
 10
-1851.034271764
 20
1457.35209974
 10
-1849.078661422
 20
1458.861281214
 10
-1848.08621591
 20
1459.594777759
 10
-1847.076201987
 20
1460.302961273
 10
-1845.604077588
 20
1461.253827063
 10
-1844.092022948
 20
1462.143083227
 10
-1842.547357648
 20
1462.977198936
 10
-1840.977401271
 20
1463.762643361
 10
-1838.734982391
 20
1464.800610876
 10
-1836.468161874
 20
1465.781276499
  0
LINE
  5
E8
100
AcDbEntity
  8
GEKO
  6
SOLID
 62
        7
100
AcDbLine
 10
-1581.284549106
 20
1463.079876894
 30
0.0
 11
-1576.37037221
 21
1455.182092597
 31
0.0
  0
LINE
  5
E9
100
AcDbEntity
  8
GEKO
  6
SOLID
 62
        7
100
AcDbLine
 10
-1610.98454975
 20
1441.042150362
 30
0.0
 11
-1610.98454975
 21
1448.112895237
 31
0.0
  0
LINE
  5
EA
100
AcDbEntity
  8
GEKO
  6
SOLID
 62
        7
100
AcDbLine
 10
-1609.300297365
 20
1437.299715626
 30
0.0
 11
-1576.683757539
 21
1443.904541527
 31
0.0
  0
LINE
  5
EB
100
AcDbEntity
  8
GEKO
  6
SOLID
 62
        7
100
AcDbLine
 10
-1610.98454975
 20
1457.161625684
 30
0.0
 11
-1598.492194798
 21
1459.691318594
 31
0.0
  0
LINE
  5
EC
100
AcDbEntity
  8
GEKO
  6
SOLID
 62
        7
100
AcDbLine
 10
-1611.000803353
 20
1446.316545823
 30
0.0
 11
-1585.292194512
 21
1451.522520659
 31
0.0
  0
LINE
  5
ED
100
AcDbEntity
  8
GEKO
  6
SOLID
 62
        7
100
AcDbLine
 10
-1594.484549392
 20
1464.591852479
 30
0.0
 11
-1581.284549106
 21
1464.591852479
 31
0.0
  0
ARC
  5
EE
100
AcDbEntity
  8
GEKO
  6
SOLID
 62
        7
100
AcDbCircle
 10
-1599.484549392
 20
1464.591852479
 30
0.0
 40
5.0
100
AcDbArc
 50
281.447556754
 51
0.0
  0
ARC
  5
EF
100
AcDbEntity
  8
GEKO
  6
SOLID
 62
        7
100
AcDbCircle
 10
-1812.684549678
 20
1456.423054544
 30
0.0
 40
5.0
100
AcDbArc
 50
180.0
 51
258.552443246
  0
LINE
  5
F0
100
AcDbEntity
  8
GEKO
  6
SOLID
 62
        7
100
AcDbLine
 10
-1817.684549678
 20
1463.079876894
 30
0.0
 11
-1822.598726573
 21
1455.182092597
 31
0.0
  0
ARC
  5
F1
100
AcDbEntity
  8
GEKO
  6
SOLID
 62
        7
100
AcDbCircle
 10
-1605.98454975
 20
1441.042150362
 30
0.0
 40
5.0
100
AcDbArc
 50
180.0
 51
257.931962382
  0
LINE
  5
F2
100
AcDbEntity
  8
GEKO
  6
SOLID
 62
        7
100
AcDbLine
 10
-1786.484551392
 20
1405.958656434
 30
0.0
 11
-1786.484551392
 21
1274.132859397
 31
0.0
  0
LINE
  5
F3
100
AcDbEntity
  8
GEKO
  6
SOLID
 62
        7
100
AcDbLine
 10
-1787.984549034
 20
1457.161625684
 30
0.0
 11
-1800.476903986
 21
1459.691318594
 31
0.0
  0
ARC
  5
F4
100
AcDbEntity
  8
GEKO
  6
SOLID
 62
        7
100
AcDbCircle
 10
-1576.284549106
 20
1452.72724226
 30
0.0
 40
5.0
100
AcDbArc
 50
180.0
 51
211.890791802
  0
LINE
  5
F5
100
AcDbEntity
  8
GEKO
  6
SOLID
 62
        7
100
AcDbLine
 10
-1804.484549392
 20
1464.591852479
 30
0.0
 11
-1817.684549678
 21
1464.591852479
 31
0.0
  0
ARC
  5
F6
100
AcDbEntity
  8
GEKO
  6
SOLID
 62
        7
100
AcDbCircle
 10
-1799.484549392
 20
1464.591852479
 30
0.0
 40
5.0
100
AcDbArc
 50
180.0
 51
258.552443246
  0
ARC
  5
F7
100
AcDbEntity
  8
GEKO
  6
SOLID
 62
        7
100
AcDbCircle
 10
-1822.684549678
 20
1452.72724226
 30
0.0
 40
5.0
100
AcDbArc
 50
328.109208198
 51
360.0
  0
LWPOLYLINE
  5
F8
100
AcDbEntity
  8
GEKO
  6
SOLID
 62
        7
100
AcDbPolyline
 90
        9
 70
        0
 10
-1836.468161874
 20
1465.781276499
 10
-1834.393630387
 20
1466.435144255
 10
-1832.237238199
 20
1467.07404133
 10
-1830.000838363
 20
1467.697136138
 10
-1827.686296267
 20
1468.303668209
 10
-1825.29549153
 20
1468.892938888
 10
-1822.83031988
 20
1469.464303694
 10
-1820.292694915
 20
1470.017166032
 10
-1817.684549678
 20
1470.550972007
  0
LINE
  5
F9
100
AcDbEntity
  8
GEKO
  6
SOLID
 62
        7
100
AcDbLine
 10
-1767.484549392
 20
1485.958656434
 30
0.0
 11
-1804.484549392
 21
1485.958656434
 31
0.0
  0
LINE
  5
FA
100
AcDbEntity
  8
GEKO
  6
SOLID
 62
        7
100
AcDbLine
 10
-1767.484549392
 20
1477.958656434
 30
0.0
 11
-1804.484549392
 21
1477.958656434
 31
0.0
  0
LINE
  5
FB
100
AcDbEntity
  8
GEKO
  6
SOLID
 62
        7
100
AcDbLine
 10
-1804.484549392
 20
1485.958656434
 30
0.0
 11
-1804.484549392
 21
1477.958656434
 31
0.0
  0
LINE
  5
FC
100
AcDbEntity
  8
GEKO
  6
SOLID
 62
        7
100
AcDbLine
 10
-1814.103250302
 20
1271.132859397
 30
0.0
 11
-1814.102842805
 21
1277.418543866
 31
0.0
  0
LINE
  5
FD
100
AcDbEntity
  8
GEKO
  6
SOLID
 62
        7
100
AcDbLine
 10
-1807.484549392
 20
1492.958656673
 30
0.0
 11
-1814.684548723
 21
1492.958656673
 31
0.0
  0
LINE
  5
FE
100
AcDbEntity
  8
GEKO
  6
SOLID
 62
        7
100
AcDbLine
 10
-1804.484549392
 20
1470.958656196
 30
0.0
 11
-1817.684549678
 21
1470.958656196
 31
0.0
  0
LINE
  5
FF
100
AcDbEntity
  8
GEKO
  6
SOLID
 62
        7
100
AcDbLine
 10
-1818.722052468
 20
1271.132859397
 30
0.0
 11
-1818.721644951
 21
1277.4188433
 31
0.0
  0
ARC
  5
100
100
AcDbEntity
  8
GEKO
  6
SOLID
 62
        7
100
AcDbCircle
 10
-1816.412401844
 20
1274.043953886
 30
0.0
 40
4.089315873
100
AcDbArc
 50
55.612033752
 51
124.380537346
  0
ARC
  5
101
100
AcDbEntity
  8
GEKO
  6
SOLID
 62
        7
100
AcDbCircle
 10
-1809.484924592
 20
1262.847354035
 30
0.0
 40
15.285466596
100
AcDbArc
 50
72.408329459
 51
107.584241639
  0
LINE
  5
102
100
AcDbEntity
  8
GEKO
  6
SOLID
 62
        7
100
AcDbLine
 10
-1816.412197556
 20
1278.133224986
 30
0.0
 11
-1802.555791373
 21
1278.132326684
 31
0.0
  0
LINE
  5
103
100
AcDbEntity
  8
GEKO
  6
SOLID
 62
        7
100
AcDbLine
 10
-1800.246436366
 20
1277.417645692
 30
0.0
 11
-1800.246843805
 21
1271.132859397
 31
0.0
  0
LINE
  5
104
100
AcDbEntity
  8
GEKO
  6
SOLID
 62
        7
100
AcDbLine
 10
-1804.86564597
 20
1271.132859397
 30
0.0
 11
-1804.865238512
 21
1277.417944997
 31
0.0
  0
ARC
  5
105
100
AcDbEntity
  8
GEKO
  6
SOLID
 62
        7
100
AcDbCircle
 10
-1802.555995661
 20
1274.043055584
 30
0.0
 40
4.089315873
100
AcDbArc
 50
55.612033752
 51
124.380537346
  0
LINE
  5
106
100
AcDbEntity
  8
GEKO
  6
SOLID
 62
        7
100
AcDbLine
 10
-1818.722052468
 20
1271.132859397
 30
0.0
 11
-1800.246843805
 21
1271.132859397
 31
0.0
  0
LINE
  5
107
100
AcDbEntity
  8
GEKO
  6
SOLID
 62
        7
100
AcDbLine
 10
-1584.865848482
 20
1271.132859397
 30
0.0
 11
-1584.866255979
 21
1277.418543866
 31
0.0
  0
LINE
  5
108
100
AcDbEntity
  8
GEKO
  6
SOLID
 62
        7
100
AcDbLine
 10
-1804.484549392
 20
1486.35865653
 30
0.0
 11
-1804.484549392
 21
1489.958656673
 31
0.0
  0
LINE
  5
109
100
AcDbEntity
  8
GEKO
  6
SOLID
 62
        7
100
AcDbLine
 10
-1580.247046316
 20
1271.132859397
 30
0.0
 11
-1580.247453832
 21
1277.4188433
 31
0.0
  0
ARC
  5
10A
100
AcDbEntity
  8
GEKO
  6
SOLID
 62
        7
100
AcDbCircle
 10
-1582.55669694
 20
1274.043953886
 30
0.0
 40
4.089315873
100
AcDbArc
 50
55.619462654
 51
124.387966248
  0
ARC
  5
10B
100
AcDbEntity
  8
GEKO
  6
SOLID
 62
        7
100
AcDbCircle
 10
-1589.484174191
 20
1262.847354035
 30
0.0
 40
15.285466596
100
AcDbArc
 50
72.415758361
 51
107.591670541
  0
LINE
  5
10C
100
AcDbEntity
  8
GEKO
  6
SOLID
 62
        7
100
AcDbLine
 10
-1582.556901228
 20
1278.133224986
 30
0.0
 11
-1596.413307411
 21
1278.132326684
 31
0.0
  0
LINE
  5
10D
100
AcDbEntity
  8
GEKO
  6
SOLID
 62
        7
100
AcDbLine
 10
-1606.976904343
 20
1477.358813918
 30
0.0
 11
-1604.014708578
 21
1477.958656434
 31
0.0
  0
LINE
  5
10E
100
AcDbEntity
  8
GEKO
  6
SOLID
 62
        7
100
AcDbLine
 10
-1589.484730912
 20
1273.932831845
 30
0.0
 11
-1589.485084881
 21
1279.392831633
 31
0.0
  0
LINE
  5
10F
100
AcDbEntity
  8
GEKO
  6
SOLID
 62
        7
100
AcDbLine
 10
-1598.722662418
 20
1277.417645692
 30
0.0
 11
-1598.722254979
 21
1271.132859397
 31
0.0
  0
LINE
  5
110
100
AcDbEntity
  8
GEKO
  6
SOLID
 62
        7
100
AcDbLine
 10
-1594.103452813
 20
1271.132859397
 30
0.0
 11
-1594.103860272
 21
1277.417944997
 31
0.0
  0
ARC
  5
111
100
AcDbEntity
  8
GEKO
  6
SOLID
 62
        7
100
AcDbCircle
 10
-1596.413103122
 20
1274.043055584
 30
0.0
 40
4.089315873
100
AcDbArc
 50
55.619462654
 51
124.387966248
  0
LWPOLYLINE
  5
112
100
AcDbEntity
  8
GEKO
  6
SOLID
 62
        7
100
AcDbPolyline
 90
       44
 70
        0
 10
-1764.484549392
 20
1421.190073707
 10
-1768.258662158
 20
1420.629176925
 10
-1771.96019786
 20
1420.037162875
 10
-1775.585277814
 20
1419.414651902
 10
-1779.13010345
 20
1418.762296309
 10
-1782.590960293
 20
1418.080779673
 10
-1785.964221858
 20
1417.370816127
 10
-1789.246353443
 20
1416.633149612
 10
-1792.433915841
 20
1415.868553097
 10
-1795.523568939
 20
1415.077827771
 10
-1798.512075219
 20
1414.261802203
 10
-1801.39630315
 20
1413.42133147
 10
-1804.173230469
 20
1412.557296268
 10
-1806.839947353
 20
1411.670601982
 10
-1809.393659458
 20
1410.762177743
 10
-1811.831690858
 20
1409.83297545
 10
-1814.151486841
 20
1408.883968775
 10
-1816.350616591
 20
1407.916152143
 10
-1818.42677573
 20
1406.930539688
 10
-1820.37778874
 20
1405.928164192
 10
-1822.201611235
 20
1404.910076003
 10
-1823.896332108
 20
1403.877341932
 10
-1824.694719154
 20
1403.355820298
 10
-1825.460175531
 20
1402.831044139
 10
-1826.192500705
 20
1402.303150939
 10
-1826.89150282
 20
1401.772278995
 10
-1827.556998749
 20
1401.238567386
 10
-1828.188814145
 20
1400.702155935
 10
-1828.786783484
 20
1400.163185172
 10
-1829.350750109
 20
1399.621796297
 10
-1829.880566271
 20
1399.078131145
 10
-1830.376093168
 20
1398.532332145
 10
-1830.83720098
 20
1397.984542287
 10
-1831.263768907
 20
1397.434905082
 10
-1831.655685194
 20
1396.883564525
 10
-1832.012847168
 20
1396.330665056
 10
-1832.335161258
 20
1395.776351526
 10
-1832.622543024
 20
1395.220769154
 10
-1832.874917177
 20
1394.664063493
 10
-1833.092217599
 20
1394.10638039
 10
-1833.274387363
 20
1393.547865947
 10
-1833.421378742
 20
1392.988666485
 10
-1833.533153228
 20
1392.428928503
 10
-1833.609681538
 20
1391.868798644
  0
LINE
  5
113
100
AcDbEntity
  8
GEKO
  6
SOLID
 62
        7
100
AcDbLine
 10
-1565.359417245
 20
1391.868798644
 30
0.0
 11
-1565.359417245
 21
1385.99741385
 31
0.0
  0
LINE
  5
114
100
AcDbEntity
  8
GEKO
  6
SOLID
 62
        7
100
AcDbLine
 10
-1784.484549392
 20
1485.958656434
 30
0.0
 11
-1784.484549392
 21
1477.958656434
 31
0.0
  0
LINE
  5
115
100
AcDbEntity
  8
GEKO
  6
SOLID
 62
        7
100
AcDbLine
 10
-1784.484549392
 20
1483.291989768
 30
0.0
 11
-1786.484549392
 21
1477.958656434
 31
0.0
  0
LINE
  5
116
100
AcDbEntity
  8
GEKO
  6
SOLID
 62
        7
100
AcDbLine
 10
-1499.484547706
 20
1531.517539259
 30
0.0
 11
-1499.484547706
 21
1506.297450312
 31
0.0
  0
LINE
  5
117
100
AcDbEntity
  8
GEKO
  6
SOLID
 62
        7
100
AcDbLine
 10
-1899.484547706
 20
1531.463877508
 30
0.0
 11
-1899.484547706
 21
1506.344120077
 31
0.0
  0
LINE
  5
118
100
AcDbEntity
  8
GEKO
  6
SOLID
 62
        7
100
AcDbLine
 10
-1804.484549392
 20
1485.958656434
 30
0.0
 11
-1804.484549392
 21
1477.958656434
 31
0.0
  0
LINE
  5
119
100
AcDbEntity
  8
GEKO
  6
SOLID
 62
        7
100
AcDbLine
 10
-1569.484549392
 20
1260.632859397
 30
0.0
 11
-1829.484549392
 21
1260.632859397
 31
0.0
  0
LINE
  5
11A
100
AcDbEntity
  8
GEKO
  6
SOLID
 62
        7
100
AcDbLine
 10
-1829.484549392
 20
1382.628459703
 30
0.0
 11
-1829.484549392
 21
1327.505026922
 31
0.0
  0
LINE
  5
11B
100
AcDbEntity
  8
GEKO
  6
SOLID
 62
        7
100
AcDbLine
 10
-1789.484549392
 20
1485.958656434
 30
0.0
 11
-1792.484549392
 21
1477.958656434
 31
0.0
  0
LINE
  5
11C
100
AcDbEntity
  8
GEKO
  6
SOLID
 62
        7
100
AcDbLine
 10
-1795.484549392
 20
1485.958656434
 30
0.0
 11
-1798.484549392
 21
1477.958656434
 31
0.0
  0
ARC
  5
11D
100
AcDbEntity
  8
GEKO
  6
SOLID
 62
        7
100
AcDbCircle
 10
-1789.484551392
 20
1274.132859397
 30
0.0
 40
3.0
100
AcDbArc
 50
270.0
 51
0.0
  0
ARC
  5
11E
100
AcDbEntity
  8
GEKO
  6
SOLID
 62
        7
100
AcDbCircle
 10
-1605.98454975
 20
1472.458280033
 30
0.0
 40
5.0
100
AcDbArc
 50
101.447556754
 51
180.0
  0
LINE
  5
11F
100
AcDbEntity
  8
GEKO
  6
SOLID
 62
        7
100
AcDbLine
 10
-1801.484549392
 20
1485.958656434
 30
0.0
 11
-1804.484549392
 21
1477.958656434
 31
0.0
  0
LINE
  5
120
100
AcDbEntity
  8
GEKO
  6
SOLID
 62
        7
100
AcDbLine
 10
-1817.684548723
 20
1489.958657031
 30
0.0
 11
-1817.684550491
 21
1475.147366136
 31
0.0
  0
ARC
  5
121
100
AcDbEntity
  8
GEKO
  6
SOLID
 62
        7
100
AcDbCircle
 10
-1832.712076543
 20
1481.958658235
 30
0.0
 40
15.027526885
100
AcDbArc
 50
342.412038486
 51
17.587947838
  0
LINE
  5
122
100
AcDbEntity
  8
GEKO
  6
SOLID
 62
        7
100
AcDbLine
 10
-1818.387023774
 20
1477.417796319
 30
0.0
 11
-1823.734550699
 21
1477.417796957
 31
0.0
  0
ARC
  5
123
100
AcDbEntity
  8
GEKO
  6
SOLID
 62
        7
100
AcDbCircle
 10
-1821.704859774
 20
1475.147366624
 30
0.0
 40
4.020309304
100
AcDbArc
 50
325.615744009
 51
34.384242316
  0
LINE
  5
124
100
AcDbEntity
  8
GEKO
  6
SOLID
 62
        7
100
AcDbLine
 10
-1823.73455124
 20
1472.876936759
 30
0.0
 11
-1818.387024316
 21
1472.87693612
 31
0.0
  0
ARC
  5
125
100
AcDbEntity
  8
GEKO
  6
SOLID
 62
        7
100
AcDbCircle
 10
-1821.704858148
 20
1488.76994722
 30
0.0
 40
4.020309304
100
AcDbArc
 50
325.615744009
 51
34.384242316
  0
LINE
  5
126
100
AcDbEntity
  8
GEKO
  6
SOLID
 62
        7
100
AcDbLine
 10
-1569.484549392
 20
1399.487965979
 30
0.0
 11
-1569.484549392
 21
1417.959809523
 31
0.0
  0
LINE
  5
127
100
AcDbEntity
  8
GEKO
  6
SOLID
 62
        7
100
AcDbLine
 10
-1829.484549392
 20
1328.633541735
 30
0.0
 11
-1829.484549392
 21
1260.632859397
 31
0.0
  0
LINE
  5
128
100
AcDbEntity
  8
GEKO
  6
SOLID
 62
        7
100
AcDbLine
 10
-1569.484549392
 20
1382.628459703
 30
0.0
 11
-1569.484549392
 21
1260.632859397
 31
0.0
  0
LINE
  5
129
100
AcDbEntity
  8
GEKO
  6
SOLID
 62
        7
100
AcDbLine
 10
-1609.484549392
 20
1401.943402615
 30
0.0
 11
-1609.484549392
 21
1262.958656434
 31
0.0
  0
ARC
  5
12A
100
AcDbEntity
  8
GEKO
  6
SOLID
 62
        7
100
AcDbCircle
 10
-1591.484549392
 20
1489.958656673
 30
0.0
 40
3.0
100
AcDbArc
 50
90.0
 51
180.0
  0
LINE
  5
12B
100
AcDbEntity
  8
GEKO
  6
SOLID
 62
        7
100
AcDbLine
 10
-1818.38702269
 20
1486.499516717
 30
0.0
 11
-1823.734549615
 21
1486.499517355
 31
0.0
  0
LINE
  5
12C
100
AcDbEntity
  8
GEKO
  6
SOLID
 62
        7
100
AcDbLine
 10
-1818.387022148
 20
1491.040376916
 30
0.0
 11
-1823.734549073
 21
1491.040377554
 31
0.0
  0
ARC
  5
12D
100
AcDbEntity
  8
GEKO
  6
SOLID
 62
        7
100
AcDbCircle
 10
-1584.28455006
 20
1489.958656673
 30
0.0
 40
3.0
100
AcDbArc
 50
0.0
 51
90.0
  0
LINE
  5
12E
100
AcDbEntity
  8
GEKO
  6
SOLID
 62
        7
100
AcDbLine
 10
-1569.484549392
 20
1328.633541735
 30
0.0
 11
-1569.484549392
 21
1271.132859397
 31
0.0
  0
LINE
  5
12F
100
AcDbEntity
  8
GEKO
  6
SOLID
 62
        7
100
AcDbLine
 10
-1824.437022356
 20
1488.769946733
 30
0.0
 11
-1824.43702073
 21
1475.147366136
 31
0.0
  0
LINE
  5
130
100
AcDbEntity
  8
GEKO
  6
SOLID
 62
        7
100
AcDbLine
 10
-1789.484551392
 20
1271.132859397
 30
0.0
 11
-1829.484549392
 21
1271.132859397
 31
0.0
  0
ARC
  5
131
100
AcDbEntity
  8
GEKO
  6
SOLID
 62
        7
100
AcDbCircle
 10
-1606.484549392
 20
1274.132859397
 30
0.0
 40
3.0
100
AcDbArc
 50
180.0
 51
270.0
  0
LINE
  5
132
100
AcDbEntity
  8
GEKO
  6
SOLID
 62
        7
100
AcDbLine
 10
-1569.484549392
 20
1271.132859397
 30
0.0
 11
-1606.484549392
 21
1271.132859397
 31
0.0
  0
ARC
  5
133
100
AcDbEntity
  8
GEKO
  6
SOLID
 62
        7
100
AcDbCircle
 10
-1809.409494679
 20
1481.958658235
 30
0.0
 40
15.027526885
100
AcDbArc
 50
162.412052162
 51
197.587961514
  0
ARC
  5
134
100
AcDbEntity
  8
GEKO
  6
SOLID
 62
        7
100
AcDbCircle
 10
-1820.416713073
 20
1488.76994722
 30
0.0
 40
4.020309304
100
AcDbArc
 50
145.615757684
 51
214.384255991
  0
ARC
  5
135
100
AcDbEntity
  8
GEKO
  6
SOLID
 62
        7
100
AcDbCircle
 10
-1820.416711447
 20
1475.147366624
 30
0.0
 40
4.020309304
100
AcDbArc
 50
145.615757684
 51
214.384255991
  0
LINE
  5
136
100
AcDbEntity
  8
GEKO
  6
SOLID
 62
        7
100
AcDbLine
 10
-1791.99219444
 20
1477.358813918
 30
0.0
 11
-1794.954390206
 21
1477.958656434
 31
0.0
  0
ARC
  5
137
100
AcDbEntity
  8
GEKO
  6
SOLID
 62
        7
100
AcDbCircle
 10
-1792.984549034
 20
1472.458280033
 30
0.0
 40
5.0
100
AcDbArc
 50
0.0
 51
78.552443246
  0
ARC
  5
138
100
AcDbEntity
  8
GEKO
  6
SOLID
 62
        7
100
AcDbCircle
 10
-1807.484549392
 20
1489.958656673
 30
0.0
 40
3.0
100
AcDbArc
 50
0.0
 51
90.0
  0
ARC
  5
139
100
AcDbEntity
  8
GEKO
  6
SOLID
 62
        7
100
AcDbCircle
 10
-1814.684548723
 20
1489.958656673
 30
0.0
 40
3.0
100
AcDbArc
 50
90.0
 51
180.0
  0
LINE
  5
13A
100
AcDbEntity
  8
GEKO
  6
SOLID
 62
        7
100
AcDbLine
 10
-1854.437021543
 20
1485.958656434
 30
0.0
 11
-1824.437022021
 21
1485.958656434
 31
0.0
  0
LINE
  5
13B
100
AcDbEntity
  8
GEKO
  6
SOLID
 62
        7
100
AcDbLine
 10
-1854.437021543
 20
1477.958656434
 30
0.0
 11
-1824.437021066
 21
1477.958656434
 31
0.0
  0
LINE
  5
13C
100
AcDbEntity
  8
GEKO
  6
SOLID
 62
        7
100
AcDbLine
 10
-1833.437021543
 20
1485.958656434
 30
0.0
 11
-1836.437021543
 21
1477.958656434
 31
0.0
  0
LINE
  5
13D
100
AcDbEntity
  8
GEKO
  6
SOLID
 62
        7
100
AcDbLine
 10
-1839.437021543
 20
1485.958656434
 30
0.0
 11
-1842.437021543
 21
1477.958656434
 31
0.0
  0
LINE
  5
13E
100
AcDbEntity
  8
GEKO
  6
SOLID
 62
        7
100
AcDbLine
 10
-1845.437021543
 20
1485.958656434
 30
0.0
 11
-1848.437021543
 21
1477.958656434
 31
0.0
  0
LINE
  5
13F
100
AcDbEntity
  8
GEKO
  6
SOLID
 62
        7
100
AcDbLine
 10
-1851.437021543
 20
1485.958656434
 30
0.0
 11
-1854.437021543
 21
1477.958656434
 31
0.0
  0
LINE
  5
140
100
AcDbEntity
  8
GEKO
  6
SOLID
 62
        7
100
AcDbLine
 10
-1854.437021543
 20
1485.958656434
 30
0.0
 11
-1854.437021543
 21
1477.958656434
 31
0.0
  0
LINE
  5
141
100
AcDbEntity
  8
GEKO
  6
SOLID
 62
        7
100
AcDbLine
 10
-1827.437021543
 20
1485.958656434
 30
0.0
 11
-1830.437021543
 21
1477.958656434
 31
0.0
  0
LINE
  5
142
100
AcDbEntity
  8
GEKO
  6
SOLID
 62
        7
100
AcDbLine
 10
-1767.484549392
 20
1531.958656434
 30
0.0
 11
-1767.484549392
 21
1431.958656434
 31
0.0
  0
LINE
  5
143
100
AcDbEntity
  8
GEKO
  6
SOLID
 62
        7
100
AcDbLine
 10
-1631.484549392
 20
1531.958656434
 30
0.0
 11
-1631.484549392
 21
1431.958656434
 31
0.0
  0
LINE
  5
144
100
AcDbEntity
  8
GEKO
  6
SOLID
 62
        7
100
AcDbLine
 10
-1609.648473576
 20
1406.487716153
 30
0.0
 11
-1607.54820039
 21
1405.975599381
 31
0.0
  0
LINE
  5
145
100
AcDbEntity
  8
GEKO
  6
SOLID
 62
        7
100
AcDbLine
 10
-1786.484551392
 20
1272.958656434
 30
0.0
 11
-1619.484549392
 21
1272.958656434
 31
0.0
  0
LINE
  5
146
100
AcDbEntity
  8
GEKO
  6
SOLID
 62
        7
100
AcDbLine
 10
-1609.484549392
 20
1386.958656434
 30
0.0
 11
-1609.484549392
 21
1262.958656434
 31
0.0
  0
LINE
  5
147
100
AcDbEntity
  8
GEKO
  6
SOLID
 62
        7
100
AcDbLine
 10
-1833.609681539
 20
1391.868798644
 30
0.0
 11
-1833.609681539
 21
1385.99741385
 31
0.0
  0
LWPOLYLINE
  5
148
100
AcDbEntity
  8
GEKO
  6
SOLID
 62
        7
100
AcDbPolyline
 90
       16
 70
        0
 10
-1833.609681538
 20
1385.99741385
 10
-1833.546026043
 20
1385.515910902
 10
-1833.456324617
 20
1385.034682293
 10
-1833.340594623
 20
1384.553821178
 10
-1833.198858465
 20
1384.073420641
 10
-1833.031143579
 20
1383.593573679
 10
-1832.837482432
 20
1383.114373178
 10
-1832.617912513
 20
1382.635911902
 10
-1832.372476324
 20
1382.158282471
 10
-1832.101221379
 20
1381.681577344
 10
-1831.804200184
 20
1381.2058888
 10
-1831.481470238
 20
1380.731308923
 10
-1831.133094015
 20
1380.257929581
 10
-1830.759138951
 20
1379.785842409
 10
-1830.359677438
 20
1379.315138795
 10
-1829.484549293
 20
1378.378246426
  0
LINE
  5
149
100
AcDbEntity
  8
GEKO
  6
SOLID
 62
        7
100
AcDbLine
 10
-1603.546666289
 20
1167.995012403
 30
0.0
 11
-1599.622310782
 21
1167.995012403
 31
0.0
  0
ARC
  5
14A
100
AcDbEntity
  8
GEKO
  6
SOLID
 62
        7
100
AcDbCircle
 10
-1604.051715145
 20
1171.026101232
 30
0.0
 40
5.367226705
100
AcDbArc
 50
325.615745828
 51
34.384254172
  0
LINE
  5
14B
100
AcDbEntity
  8
GEKO
  6
SOLID
 62
        7
100
AcDbLine
 10
-1599.622310782
 20
1174.057190061
 30
0.0
 11
-1603.546666289
 21
1174.057190061
 31
0.0
  0
ARC
  5
14C
100
AcDbEntity
  8
GEKO
  6
SOLID
 62
        7
100
AcDbCircle
 10
-1599.117261927
 20
1171.026101232
 30
0.0
 40
5.367226704
100
AcDbArc
 50
145.615745822
 51
214.384254178
  0
ARC
  5
14D
100
AcDbEntity
  8
GEKO
  6
SOLID
 62
        7
100
AcDbCircle
 10
-1599.117261927
 20
1189.212634206
 30
0.0
 40
5.367226704
100
AcDbArc
 50
145.615745822
 51
214.384254178
  0
ARC
  5
14E
100
AcDbEntity
  8
GEKO
  6
SOLID
 62
        7
100
AcDbCircle
 10
-1584.422315327
 20
1180.119367719
 30
0.0
 40
20.062173304
100
AcDbArc
 50
162.412042636
 51
197.587957364
  0
ARC
  5
14F
100
AcDbEntity
  8
GEKO
  6
SOLID
 62
        7
100
AcDbCircle
 10
-1591.584488535
 20
1172.119337466
 30
0.0
 40
2.0
100
AcDbArc
 50
270.0
 51
0.0
  0
LINE
  5
150
100
AcDbEntity
  8
GEKO
  6
SOLID
 62
        7
100
AcDbLine
 10
-1598.761639344
 20
1170.119337466
 30
0.0
 11
-1591.584488535
 21
1170.119337466
 31
0.0
  0
LINE
  5
151
100
AcDbEntity
  8
GEKO
  6
SOLID
 62
        7
100
AcDbLine
 10
-1599.622310782
 20
1192.243723035
 30
0.0
 11
-1603.546666289
 21
1192.243723035
 31
0.0
  0
ARC
  5
152
100
AcDbEntity
  8
GEKO
  6
SOLID
 62
        7
100
AcDbCircle
 10
-1618.746661747
 20
1180.119367719
 30
0.0
 40
20.062173307
100
AcDbArc
 50
342.412042639
 51
17.587957361
  0
ARC
  5
153
100
AcDbEntity
  8
GEKO
  6
SOLID
 62
        7
100
AcDbCircle
 10
-1604.051715145
 20
1189.212634206
 30
0.0
 40
5.367226705
100
AcDbArc
 50
325.615745828
 51
34.384254172
  0
LINE
  5
154
100
AcDbEntity
  8
GEKO
  6
SOLID
 62
        7
100
AcDbLine
 10
-1598.68448844
 20
1171.026101232
 30
0.0
 11
-1598.68448844
 21
1189.212634206
 31
0.0
  0
LINE
  5
155
100
AcDbEntity
  8
GEKO
  6
SOLID
 62
        7
100
AcDbLine
 10
-1599.622310782
 20
1186.181545377
 30
0.0
 11
-1603.546666289
 21
1186.181545377
 31
0.0
  0
ARC
  5
156
100
AcDbEntity
  8
GEKO
  6
SOLID
 62
        7
100
AcDbCircle
 10
-1591.584488535
 20
1188.119337466
 30
0.0
 40
2.0
100
AcDbArc
 50
0.0
 51
90.0
  0
LINE
  5
157
100
AcDbEntity
  8
GEKO
  6
SOLID
 62
        7
100
AcDbLine
 10
-1598.761628974
 20
1190.119337466
 30
0.0
 11
-1591.584488535
 21
1190.119337466
 31
0.0
  0
LINE
  5
158
100
AcDbEntity
  8
GEKO
  6
SOLID
 62
        7
100
AcDbLine
 10
-1589.584488535
 20
1188.119337466
 30
0.0
 11
-1589.584488535
 21
1172.119337466
 31
0.0
  0
LINE
  5
159
100
AcDbEntity
  8
GEKO
  6
CENTER
 62
        7
100
AcDbLine
 10
-1699.484549392
 20
1664.926011593
 30
0.0
 11
-1699.484549392
 21
1032.186414362
 31
0.0
  0
LINE
  5
15A
100
AcDbEntity
  8
GEKO
  6
SOLID
 62
        7
100
AcDbLine
 10
-1671.98426077
 20
760.549308693
 30
0.0
 11
-1686.98426077
 21
760.549308693
 31
0.0
  0
LINE
  5
15B
100
AcDbEntity
  8
GEKO
  6
SOLID
 62
        7
100
AcDbLine
 10
-1671.984716492
 20
766.549308932
 30
0.0
 11
-1686.984716492
 21
766.549308932
 31
0.0
  0
CIRCLE
  5
15C
100
AcDbEntity
  8
GEKO
  6
SOLID
 62
        7
100
AcDbCircle
 10
-1699.484716492
 20
774.049308932
 30
0.0
 40
3.49999994
  0
LINE
  5
15D
100
AcDbEntity
  8
GEKO
  6
SOLID
 62
        7
100
AcDbLine
 10
-1726.984716492
 20
766.549308932
 30
0.0
 11
-1711.984716492
 21
766.549308932
 31
0.0
  0
LINE
  5
15E
100
AcDbEntity
  8
GEKO
  6
SOLID
 62
        7
100
AcDbLine
 10
-1726.984716492
 20
760.549308693
 30
0.0
 11
-1711.984716492
 21
760.549308693
 31
0.0
  0
LINE
  5
15F
100
AcDbEntity
  8
GEKO
  6
SOLID
 62
        7
100
AcDbLine
 10
-1726.984716492
 20
970.645988381
 30
0.0
 11
-1711.984716492
 21
970.645988381
 31
0.0
  0
LINE
  5
160
100
AcDbEntity
  8
GEKO
  6
SOLID
 62
        7
100
AcDbLine
 10
-1726.984716492
 20
976.645988619
 30
0.0
 11
-1711.984716492
 21
976.645988619
 31
0.0
  0
CIRCLE
  5
161
100
AcDbEntity
  8
GEKO
  6
SOLID
 62
        7
100
AcDbCircle
 10
-1699.484716492
 20
984.145988619
 30
0.0
 40
3.49999994
  0
LINE
  5
162
100
AcDbEntity
  8
GEKO
  6
SOLID
 62
        7
100
AcDbLine
 10
-1671.984716492
 20
970.645988381
 30
0.0
 11
-1686.984716492
 21
970.645988381
 31
0.0
  0
LINE
  5
163
100
AcDbEntity
  8
GEKO
  6
SOLID
 62
        7
100
AcDbLine
 10
-1671.984716492
 20
976.645988619
 30
0.0
 11
-1686.984716492
 21
976.645988619
 31
0.0
  0
LINE
  5
164
100
AcDbEntity
  8
GEKO
  6
SOLID
 62
        7
100
AcDbLine
 10
-1517.484549392
 20
1224.183903591
 30
0.0
 11
-1517.484549392
 21
1035.119021622
 31
0.0
  0
LINE
  5
165
100
AcDbEntity
  8
GEKO
  6
SOLID
 62
        7
100
AcDbLine
 10
-1535.484549392
 20
1225.130657295
 30
0.0
 11
-1535.484549392
 21
1035.119021622
 31
0.0
  0
LINE
  5
166
100
AcDbEntity
  8
GEKO
  6
SOLID
 62
        7
100
AcDbLine
 10
-1481.484549392
 20
1224.183903591
 30
0.0
 11
-1481.484549392
 21
1035.119021622
 31
0.0
  0
LINE
  5
167
100
AcDbEntity
  8
GEKO
  6
SOLID
 62
        7
100
AcDbLine
 10
-1569.484549392
 20
1260.632859397
 30
0.0
 11
-1569.484549392
 21
1188.593775158
 31
0.0
  0
LINE
  5
168
100
AcDbEntity
  8
GEKO
  6
SOLID
 62
        7
100
AcDbLine
 10
-1829.484549392
 20
1260.632859397
 30
0.0
 11
-1829.484549392
 21
1188.593775158
 31
0.0
  0
LINE
  5
169
100
AcDbEntity
  8
GEKO
  6
SOLID
 62
        7
100
AcDbLine
 10
-1579.484549392
 20
1178.593775158
 30
0.0
 11
-1589.584488535
 21
1178.593775158
 31
0.0
  0
LINE
  5
16A
100
AcDbEntity
  8
GEKO
  6
SOLID
 62
        7
100
AcDbLine
 10
-1463.484549392
 20
1223.237149887
 30
0.0
 11
-1463.484549392
 21
1035.119021622
 31
0.0
  0
ARC
  5
16B
100
AcDbEntity
  8
GEKO
  6
SOLID
 62
        7
100
AcDbCircle
 10
-1579.484549392
 20
1188.593775158
 30
0.0
 40
10.0
100
AcDbArc
 50
270.0
 51
0.0
  0
LINE
  5
16C
100
AcDbEntity
  8
GEKO
  6
SOLID
 62
        7
100
AcDbLine
 10
-1454.484549392
 20
855.119021622
 30
0.0
 11
-1544.484549392
 21
855.119021622
 31
0.0
  0
ARC
  5
16D
100
AcDbEntity
  8
GEKO
  6
SOLID
 62
        7
100
AcDbCircle
 10
-1819.484549392
 20
1188.593775158
 30
0.0
 40
10.0
100
AcDbArc
 50
180.0
 51
270.0
  0
LINE
  5
16E
100
AcDbEntity
  8
GEKO
  6
CENTER
 62
        7
100
AcDbLine
 10
-1699.484549392
 20
783.673122388
 30
0.0
 11
-1699.484549392
 21
753.090869346
 31
0.0
  0
LINE
  5
16F
100
AcDbEntity
  8
GEKO
  6
SOLID
 62
        7
100
AcDbLine
 10
-1544.484549392
 20
855.119021622
 30
0.0
 11
-1544.484549392
 21
1035.119021622
 31
0.0
  0
LINE
  5
170
100
AcDbEntity
  8
GEKO
  6
SOLID
 62
        7
100
AcDbLine
 10
-1454.484549392
 20
855.119021622
 30
0.0
 11
-1454.484549392
 21
1035.119021622
 31
0.0
  0
LINE
  5
171
100
AcDbEntity
  8
GEKO
  6
CENTER
 62
        7
100
AcDbLine
 10
-1699.484549392
 20
994.846927258
 30
0.0
 11
-1699.484549392
 21
842.200194354
 31
0.0
  0
LINE
  5
172
100
AcDbEntity
  8
GEKO
  6
CENTER
 62
        7
100
AcDbLine
 10
-1458.107492981
 20
1035.119021622
 30
0.0
 11
-1862.154816864
 21
1035.119021622
 31
0.0
  0
LINE
  5
173
100
AcDbEntity
  8
GEKO
  6
SOLID
 62
        7
100
AcDbLine
 10
-1604.484549392
 20
1244.350656362
 30
0.0
 11
-1604.484549392
 21
875.119286035
 31
0.0
  0
LINE
  5
174
100
AcDbEntity
  8
GEKO
  6
SOLID
 62
        7
100
AcDbLine
 10
-1794.484549392
 20
1244.350656362
 30
0.0
 11
-1794.484549392
 21
875.119286035
 31
0.0
  0
LINE
  5
175
100
AcDbEntity
  8
GEKO
  6
SOLID
 62
        7
100
AcDbLine
 10
-1604.484549392
 20
875.119286035
 30
0.0
 11
-1794.484549392
 21
875.119286035
 31
0.0
  0
LINE
  5
176
100
AcDbEntity
  8
GEKO
  6
SOLID
 62
        7
100
AcDbLine
 10
-1604.484549392
 20
1165.119021622
 30
0.0
 11
-1794.484549392
 21
1165.119021622
 31
0.0
  0
LINE
  5
177
100
AcDbEntity
  8
GEKO
  6
SOLID
 62
        7
100
AcDbLine
 10
-1604.484549392
 20
1105.119021622
 30
0.0
 11
-1794.484549392
 21
1105.119021622
 31
0.0
  0
LINE
  5
178
100
AcDbEntity
  8
GEKO
  6
SOLID
 62
        7
100
AcDbLine
 10
-1604.484549392
 20
965.119021622
 30
0.0
 11
-1794.484549392
 21
965.119021622
 31
0.0
  0
LINE
  5
179
100
AcDbEntity
  8
GEKO
  6
SOLID
 62
        7
100
AcDbLine
 10
-1604.484549392
 20
905.119021622
 30
0.0
 11
-1794.484549392
 21
905.119021622
 31
0.0
  0
LINE
  5
17A
100
AcDbEntity
  8
GEKO
  6
CENTER
 62
        7
100
AcDbLine
 10
-1774.484549392
 20
1147.643390318
 30
0.0
 11
-1774.484549392
 21
1114.404921912
 31
0.0
  0
LINE
  5
17B
100
AcDbEntity
  8
GEKO
  6
CENTER
 62
        7
100
AcDbLine
 10
-1761.411520546
 20
1135.119006363
 30
0.0
 11
-1791.004479514
 21
1135.119006363
 31
0.0
  0
CIRCLE
  5
17C
100
AcDbEntity
  8
GEKO
  6
SOLID
 62
        7
100
AcDbCircle
 10
-1774.484549392
 20
1135.119006363
 30
0.0
 40
7.0
  0
ARC
  5
17D
100
AcDbEntity
  8
GEKO
  6
SOLID
 62
        7
100
AcDbCircle
 10
-1774.484549392
 20
1135.119006363
 30
0.0
 40
8.0
100
AcDbArc
 50
15.0
 51
335.0
  0
LINE
  5
17E
100
AcDbEntity
  8
GEKO
  6
CENTER
 62
        7
100
AcDbLine
 10
-1624.484549392
 20
1147.643390318
 30
0.0
 11
-1624.484549392
 21
1114.404921912
 31
0.0
  0
LINE
  5
17F
100
AcDbEntity
  8
GEKO
  6
CENTER
 62
        7
100
AcDbLine
 10
-1637.557578238
 20
1135.119006363
 30
0.0
 11
-1607.96461927
 21
1135.119006363
 31
0.0
  0
CIRCLE
  5
180
100
AcDbEntity
  8
GEKO
  6
SOLID
 62
        7
100
AcDbCircle
 10
-1624.484549392
 20
1135.119006363
 30
0.0
 40
7.0
  0
ARC
  5
181
100
AcDbEntity
  8
GEKO
  6
SOLID
 62
        7
100
AcDbCircle
 10
-1624.484549392
 20
1135.119006363
 30
0.0
 40
8.0
100
AcDbArc
 50
205.0
 51
165.0
  0
LINE
  5
182
100
AcDbEntity
  8
GEKO
  6
CENTER
 62
        7
100
AcDbLine
 10
-1774.484549392
 20
922.594652926
 30
0.0
 11
-1774.484549392
 21
955.833121332
 31
0.0
  0
LINE
  5
183
100
AcDbEntity
  8
GEKO
  6
CENTER
 62
        7
100
AcDbLine
 10
-1761.411520546
 20
935.119036881
 30
0.0
 11
-1791.004479514
 21
935.119036881
 31
0.0
  0
CIRCLE
  5
184
100
AcDbEntity
  8
GEKO
  6
SOLID
 62
        7
100
AcDbCircle
 10
-1774.484549392
 20
935.119036881
 30
0.0
 40
7.0
  0
ARC
  5
185
100
AcDbEntity
  8
GEKO
  6
SOLID
 62
        7
100
AcDbCircle
 10
-1774.484549392
 20
935.119036881
 30
0.0
 40
8.0
100
AcDbArc
 50
25.0
 51
345.0
  0
LINE
  5
186
100
AcDbEntity
  8
GEKO
  6
CENTER
 62
        7
100
AcDbLine
 10
-1624.484549392
 20
922.594652926
 30
0.0
 11
-1624.484549392
 21
955.833121332
 31
0.0
  0
LINE
  5
187
100
AcDbEntity
  8
GEKO
  6
CENTER
 62
        7
100
AcDbLine
 10
-1637.557578238
 20
935.119036881
 30
0.0
 11
-1607.96461927
 21
935.119036881
 31
0.0
  0
CIRCLE
  5
188
100
AcDbEntity
  8
GEKO
  6
SOLID
 62
        7
100
AcDbCircle
 10
-1624.484549392
 20
935.119036881
 30
0.0
 40
7.0
  0
ARC
  5
189
100
AcDbEntity
  8
GEKO
  6
SOLID
 62
        7
100
AcDbCircle
 10
-1624.484549392
 20
935.119036881
 30
0.0
 40
8.0
100
AcDbArc
 50
195.0
 51
155.0
  0
LINE
  5
18A
100
AcDbEntity
  8
GEKO
  6
SOLID
 62
        7
100
AcDbLine
 10
-1569.484549392
 20
1115.119021622
 30
0.0
 11
-1569.484549392
 21
955.119021622
 31
0.0
  0
LINE
  5
18B
100
AcDbEntity
  8
GEKO
  6
SOLID
 62
        7
100
AcDbLine
 10
-1574.484549392
 20
1120.119021622
 30
0.0
 11
-1599.484549392
 21
1120.119021622
 31
0.0
  0
LINE
  5
18C
100
AcDbEntity
  8
GEKO
  6
SOLID
 62
        7
100
AcDbLine
 10
-1574.484549392
 20
950.119021622
 30
0.0
 11
-1599.484549392
 21
950.119021622
 31
0.0
  0
LINE
  5
18D
100
AcDbEntity
  8
GEKO
  6
SOLID
 62
        7
100
AcDbLine
 10
-1535.484549392
 20
845.107385949
 30
0.0
 11
-1535.484549392
 21
1035.119021622
 31
0.0
  0
LINE
  5
18E
100
AcDbEntity
  8
GEKO
  6
SOLID
 62
        7
100
AcDbLine
 10
-1517.484549392
 20
846.054139653
 30
0.0
 11
-1517.484549392
 21
1035.119021622
 31
0.0
  0
ARC
  5
18F
100
AcDbEntity
  8
GEKO
  6
SOLID
 62
        7
100
AcDbCircle
 10
-1574.484549392
 20
1115.119021622
 30
0.0
 40
5.0
100
AcDbArc
 50
0.0
 51
90.0
  0
ARC
  5
190
100
AcDbEntity
  8
GEKO
  6
SOLID
 62
        7
100
AcDbCircle
 10
-1574.484549392
 20
955.119021622
 30
0.0
 40
5.0
100
AcDbArc
 50
270.0
 51
0.0
  0
ARC
  5
191
100
AcDbEntity
  8
GEKO
  6
SOLID
 62
        7
100
AcDbCircle
 10
-1599.484549392
 20
1125.119021622
 30
0.0
 40
5.0
100
AcDbArc
 50
180.0
 51
270.0
  0
ARC
  5
192
100
AcDbEntity
  8
GEKO
  6
SOLID
 62
        7
100
AcDbCircle
 10
-1599.484549392
 20
945.119021622
 30
0.0
 40
5.0
100
AcDbArc
 50
90.0
 51
180.0
  0
LINE
  5
193
100
AcDbEntity
  8
GEKO
  6
SOLID
 62
        7
100
AcDbLine
 10
-1809.484549392
 20
1177.619021622
 30
0.0
 11
-1809.484549392
 21
1035.119021622
 31
0.0
  0
LINE
  5
194
100
AcDbEntity
  8
GEKO
  6
SOLID
 62
        7
100
AcDbLine
 10
-1799.484549392
 20
1177.619021622
 30
0.0
 11
-1819.484549392
 21
1177.619021622
 31
0.0
  0
LINE
  5
195
100
AcDbEntity
  8
GEKO
  6
SOLID
 62
        7
100
AcDbLine
 10
-1819.484549392
 20
1177.619021622
 30
0.0
 11
-1819.484549392
 21
1035.119021622
 31
0.0
  0
LINE
  5
196
100
AcDbEntity
  8
GEKO
  6
SOLID
 62
        7
100
AcDbLine
 10
-1829.484549392
 20
1090.119021622
 30
0.0
 11
-1829.484549392
 21
1035.119021622
 31
0.0
  0
ARC
  5
197
100
AcDbEntity
  8
GEKO
  6
SOLID
 62
        7
100
AcDbCircle
 10
-1799.484549392
 20
1182.619021622
 30
0.0
 40
5.0
100
AcDbArc
 50
270.0
 51
306.384983933
  0
INSERT
  5
1A8
100
AcDbEntity
  8
GEKO
100
AcDbBlockReference
  2
*D6
 10
0.0
 20
0.0
 30
0.0
  0
ARC
  5
1A9
100
AcDbEntity
  8
GEKO
  6
SOLID
 62
        7
100
AcDbCircle
 10
-1799.484549392
 20
887.619021622
 30
0.0
 40
5.0
100
AcDbArc
 50
0.0
 51
90.0
  0
LINE
  5
1AA
100
AcDbEntity
  8
GEKO
  6
SOLID
 62
        7
100
AcDbLine
 10
-1819.484549392
 20
892.619021622
 30
0.0
 11
-1819.484549392
 21
1035.119021622
 31
0.0
  0
LINE
  5
1AB
100
AcDbEntity
  8
GEKO
  6
SOLID
 62
        7
100
AcDbLine
 10
-1829.484549392
 20
1090.119021622
 30
0.0
 11
-1819.484549392
 21
1137.619021622
 31
0.0
  0
LINE
  5
1AC
100
AcDbEntity
  8
GEKO
  6
SOLID
 62
        7
100
AcDbLine
 10
-1809.484549392
 20
892.619021622
 30
0.0
 11
-1809.484549392
 21
1035.119021622
 31
0.0
  0
LINE
  5
1AD
100
AcDbEntity
  8
GEKO
  6
SOLID
 62
        7
100
AcDbLine
 10
-1799.484549392
 20
892.619021622
 30
0.0
 11
-1819.484549392
 21
892.619021622
 31
0.0
  0
LINE
  5
1AE
100
AcDbEntity
  8
GEKO
  6
SOLID
 62
        7
100
AcDbLine
 10
-1829.484549392
 20
980.119021622
 30
0.0
 11
-1819.484549392
 21
932.619021622
 31
0.0
  0
LINE
  5
1AF
100
AcDbEntity
  8
GEKO
  6
SOLID
 62
        7
100
AcDbLine
 10
-1829.484549392
 20
980.119021622
 30
0.0
 11
-1829.484549392
 21
1035.119021622
 31
0.0
  0
LINE
  5
1B0
100
AcDbEntity
  8
GEKO
  6
SOLID
 62
        7
100
AcDbLine
 10
-1499.484549392
 20
845.107385949
 30
0.0
 11
-1499.484549392
 21
1035.119021622
 31
0.0
  0
LINE
  5
1B1
100
AcDbEntity
  8
GEKO
  6
SOLID
 62
        7
100
AcDbLine
 10
-1481.484549392
 20
846.054139653
 30
0.0
 11
-1481.484549392
 21
1035.119021622
 31
0.0
  0
LINE
  5
1B2
100
AcDbEntity
  8
GEKO
  6
SOLID
 62
        7
100
AcDbLine
 10
-1463.484549392
 20
847.000893357
 30
0.0
 11
-1463.484549392
 21
1035.119021622
 31
0.0
  0
LINE
  5
1B3
100
AcDbEntity
  8
GEKO
  6
SOLID
 62
        7
100
AcDbLine
 10
-1544.484549392
 20
1060.119021622
 30
0.0
 11
-1569.484549392
 21
1060.119021622
 31
0.0
  0
LINE
  5
1B4
100
AcDbEntity
  8
GEKO
  6
SOLID
 62
        7
100
AcDbLine
 10
-1544.484549392
 20
1010.119021622
 30
0.0
 11
-1569.484549392
 21
1010.119021622
 31
0.0
  0
LINE
  5
1B5
100
AcDbEntity
  8
GEKO
  6
SOLID
 62
        7
100
AcDbLine
 10
-1499.484549392
 20
1225.130657295
 30
0.0
 11
-1499.484549392
 21
1035.119021622
 31
0.0
  0
LINE
  5
1B6
100
AcDbEntity
  8
GEKO
  6
SOLID
 62
        7
100
AcDbLine
 10
-1544.484549392
 20
1215.119021622
 30
0.0
 11
-1544.484549392
 21
1035.119021622
 31
0.0
  0
LINE
  5
1B7
100
AcDbEntity
  8
GEKO
  6
SOLID
 62
        7
100
AcDbLine
 10
-1454.484549392
 20
1215.119021622
 30
0.0
 11
-1454.484549392
 21
1035.119021622
 31
0.0
  0
LINE
  5
1B8
100
AcDbEntity
  8
GEKO
  6
SOLID
 62
        7
100
AcDbLine
 10
-1454.484549392
 20
1215.119021622
 30
0.0
 11
-1544.484549392
 21
1215.119021622
 31
0.0
  0
LINE
  5
1B9
100
AcDbEntity
  8
GEKO
  6
SOLID
 62
        7
100
AcDbLine
 10
-1699.484549392
 20
842.200194354
 30
0.0
 11
-1699.484549392
 21
833.701075162
 31
0.0
  0
LINE
  5
1BA
100
AcDbEntity
  8
GEKO
  6
SOLID
 62
        7
100
AcDbLine
 10
-1569.484549392
 20
1244.350656362
 30
0.0
 11
-1829.484549392
 21
1244.350656362
 31
0.0
  0
LINE
  5
1BB
100
AcDbEntity
  8
GEKO
  6
SOLID
 62
        7
100
AcDbLine
 10
-1794.484549392
 20
1178.593775158
 30
0.0
 11
-1819.484549392
 21
1178.593775158
 31
0.0
  0
LWPOLYLINE
  5
1BC
100
AcDbEntity
  8
GEKO
  6
SOLID
 62
        7
100
AcDbPolyline
 90
       16
 70
        0
 10
-1565.359417246
 20
1385.99741385
 10
-1565.423072741
 20
1385.515910902
 10
-1565.512774167
 20
1385.034682293
 10
-1565.628504161
 20
1384.553821178
 10
-1565.770240319
 20
1384.073420641
 10
-1565.937955204
 20
1383.593573679
 10
-1566.131616351
 20
1383.114373178
 10
-1566.351186271
 20
1382.635911902
 10
-1566.596622459
 20
1382.158282471
 10
-1566.867877405
 20
1381.681577344
 10
-1567.1648986
 20
1381.2058888
 10
-1567.487628545
 20
1380.731308923
 10
-1567.836004769
 20
1380.257929581
 10
-1568.209959832
 20
1379.785842409
 10
-1568.609421346
 20
1379.315138795
 10
-1569.484549491
 20
1378.378246426
  0
LWPOLYLINE
  5
1BD
100
AcDbEntity
  8
GEKO
  6
SOLID
 62
        7
100
AcDbPolyline
 90
       33
 70
        0
 10
-1569.484549395
 20
1416.757885984
 10
-1569.443261746
 20
1417.17408352
 10
-1569.444679192
 20
1417.577106134
 10
-1569.487938254
 20
1417.981554383
 10
-1569.576616745
 20
1418.401437978
 10
-1569.717940035
 20
1418.848176362
 10
-1569.921272297
 20
1419.329370311
 10
-1570.196456799
 20
1419.848554612
 10
-1570.552486987
 20
1420.405741199
 10
-1570.996724667
 20
1420.998366814
 10
-1571.53463332
 20
1421.62228898
 10
-1572.169867824
 20
1422.272615753
 10
-1572.904548095
 20
1422.944295559
 10
-1573.739587892
 20
1423.632482366
 10
-1574.67500423
 20
1424.332728354
 10
-1575.710174922
 20
1425.041060349
 10
-1576.844037337
 20
1425.753986027
 10
-1578.075233992
 20
1426.468462392
 10
-1579.40221507
 20
1427.181847325
 10
-1580.823308249
 20
1427.891846457
 10
-1582.336764783
 20
1428.596461936
 10
-1583.940788875
 20
1429.293946203
 10
-1585.633555586
 20
1429.982761864
 10
-1587.413221056
 20
1430.661547697
 10
-1589.277927698
 20
1431.329090284
 10
-1591.225806183
 20
1431.984300585
 10
-1593.254975461
 20
1432.626194693
 10
-1595.36354165
 20
1433.253878108
 10
-1597.549596335
 20
1433.866532878
 10
-1599.81121463
 20
1434.463407131
 10
-1602.146453225
 20
1435.043806512
 10
-1604.553348547
 20
1435.607087207
 10
-1607.029915132
 20
1436.152650236
  0
LINE
  5
1BE
100
AcDbEntity
  8
GEKO
  6
SOLID
 62
        7
100
AcDbLine
 10
-1565.532077241
 20
1485.958656434
 30
0.0
 11
-1562.532077241
 21
1477.958656434
 31
0.0
  0
LWPOLYLINE
  5
1BF
100
AcDbEntity
  8
GEKO
  6
SOLID
 62
        7
100
AcDbPolyline
 90
       65
 70
        0
 10
-1569.484549398
 20
1406.700815722
 10
-1567.568214496
 20
1407.358422272
 10
-1565.707494087
 20
1408.026506091
 10
-1563.903254196
 20
1408.704756238
 10
-1562.156334564
 20
1409.392857037
 10
-1560.467548251
 20
1410.090488229
 10
-1558.837681261
 20
1410.797325118
 10
-1557.267492177
 20
1411.513038724
 10
-1555.757711803
 20
1412.237295937
 10
-1554.30904283
 20
1412.969759667
 10
-1552.922159505
 20
1413.710089009
 10
-1551.59770732
 20
1414.457939394
 10
-1550.336302707
 20
1415.212962753
 10
-1549.138532758
 20
1415.97480768
 10
-1548.004954944
 20
1416.743119591
 10
-1546.936096862
 20
1417.517540896
 10
-1545.932455985
 20
1418.297711159
 10
-1544.994499433
 20
1419.083267269
 10
-1544.122663756
 20
1419.873843607
 10
-1543.317354727
 20
1420.669072221
 10
-1542.578947158
 20
1421.468582989
 10
-1541.907784722
 20
1422.272003799
 10
-1541.304179797
 20
1423.078960719
 10
-1540.768413314
 20
1423.889078171
 10
-1540.300734633
 20
1424.701979105
 10
-1539.901361425
 20
1425.517285177
 10
-1539.570479566
 20
1426.334616921
 10
-1539.308243059
 20
1427.153593932
 10
-1539.114773954
 20
1427.973835036
 10
-1538.990162298
 20
1428.794958473
 10
-1538.934466086
 20
1429.61658207
 10
-1538.947711243
 20
1430.438323424
 10
-1539.029891603
 20
1431.259800074
 10
-1539.180968918
 20
1432.080629684
 10
-1539.400872872
 20
1432.90043022
 10
-1539.689501116
 20
1433.718820126
 10
-1540.046719316
 20
1434.535418502
 10
-1540.472361213
 20
1435.349845282
 10
-1540.966228702
 20
1436.161721411
 10
-1541.528091925
 20
1436.970669022
 10
-1542.157689376
 20
1437.77631161
 10
-1542.854728025
 20
1438.578274208
 10
-1543.618883453
 20
1439.376183563
 10
-1544.449800001
 20
1440.169668306
 10
-1545.347090941
 20
1440.95835913
 10
-1546.310338649
 20
1441.741888959
 10
-1547.339094807
 20
1442.519893117
 10
-1548.432880604
 20
1443.292009502
 10
-1549.591186965
 20
1444.05787875
 10
-1550.813474785
 20
1444.817144408
 10
-1552.09917518
 20
1445.569453093
 10
-1553.447689752
 20
1446.314454661
 10
-1554.858390868
 20
1447.051802371
 10
-1556.330621952
 20
1447.781153041
 10
-1557.86369779
 20
1448.502167213
 10
-1559.45690485
 20
1449.214509309
 10
-1561.109501612
 20
1449.917847787
 10
-1562.820718916
 20
1450.611855295
 10
-1564.589760318
 20
1451.296208825
 10
-1566.41580246
 20
1451.97058986
 10
-1568.297995457
 20
1452.634684527
 10
-1570.235463287
 20
1453.288183739
 10
-1572.227304204
 20
1453.930783341
 10
-1574.272591155
 20
1454.56218425
 10
-1576.37037221
 20
1455.182092597
  0
LWPOLYLINE
  5
1C0
100
AcDbEntity
  8
GEKO
  6
SOLID
 62
        7
100
AcDbPolyline
 90
      153
 70
        0
 10
-1499.484547805
 20
1531.517539259
 10
-1499.502178839
 20
1532.130910537
 10
-1499.549906703
 20
1532.744181586
 10
-1499.627724215
 20
1533.357260112
 10
-1499.735619662
 20
1533.970053848
 10
-1499.873576806
 20
1534.58247057
 10
-1500.041574887
 20
1535.194418111
 10
-1500.23958862
 20
1535.805804373
 10
-1500.467588204
 20
1536.416537346
 10
-1500.725539327
 20
1537.026525115
 10
-1501.013403167
 20
1537.635675879
 10
-1501.331136402
 20
1538.243897961
 10
-1501.678691213
 20
1538.851099826
 10
-1502.056015295
 20
1539.457190093
 10
-1502.463051861
 20
1540.062077544
 10
-1502.899739653
 20
1540.665671147
 10
-1503.366012951
 20
1541.267880063
 10
-1503.861801581
 20
1541.86861366
 10
-1504.387030929
 20
1542.467781529
 10
-1504.941621949
 20
1543.065293497
 10
-1505.525491177
 20
1543.66105964
 10
-1506.138550741
 20
1544.254990297
 10
-1506.780708378
 20
1544.846996083
 10
-1507.451867445
 20
1545.436987901
 10
-1508.151926933
 20
1546.024876961
 10
-1509.638321413
 20
1547.19399323
 10
-1511.238997057
 20
1548.35364112
 10
-1512.95299031
 20
1549.503122559
 10
-1514.779269404
 20
1550.641745599
 10
-1516.71673498
 20
1551.768824825
 10
-1518.764220746
 20
1552.883681771
 10
-1520.920494182
 20
1553.985645332
 10
-1523.184257282
 20
1555.07405216
 10
-1525.554147335
 20
1556.148247071
 10
-1528.028737744
 20
1557.207583433
 10
-1530.606538887
 20
1558.251423562
 10
-1533.285999012
 20
1559.279139099
 10
-1536.06550517
 20
1560.290111393
 10
-1538.943384191
 20
1561.283731871
 10
-1541.917903684
 20
1562.259402408
 10
-1544.987273087
 20
1563.216535681
 10
-1548.149644738
 20
1564.154555526
 10
-1551.403114994
 20
1565.072897287
 10
-1554.745725372
 20
1565.971008153
 10
-1558.175463729
 20
1566.848347488
 10
-1561.690265475
 20
1567.704387165
 10
-1565.288014813
 20
1568.538611874
 10
-1568.966546017
 20
1569.35051944
 10
-1572.723644731
 20
1570.139621121
 10
-1576.557049303
 20
1570.905441904
 10
-1580.464452149
 20
1571.647520789
 10
-1584.443501141
 20
1572.365411069
 10
-1588.491801021
 20
1573.058680598
 10
-1592.606914844
 20
1573.72691205
 10
-1596.786365447
 20
1574.369703172
 10
-1601.027636936
 20
1574.986667024
 10
-1605.328176204
 20
1575.577432214
 10
-1609.685394468
 20
1576.141643121
 10
-1614.096668823
 20
1576.678960108
 10
-1618.559343828
 20
1577.189059728
 10
-1623.070733097
 20
1577.671634917
 10
-1627.628120921
 20
1578.126395182
 10
-1632.228763902
 20
1578.553066771
 10
-1636.869892602
 20
1578.951392842
 10
-1641.548713214
 20
1579.321133616
 10
-1646.26240924
 20
1579.66206652
 10
-1651.00814319
 20
1579.973986325
 10
-1655.783058286
 20
1580.256705264
 10
-1660.584280185
 20
1580.510053151
 10
-1665.408918709
 20
1580.733877477
 10
-1670.254069583
 20
1580.928043509
 10
-1675.116816183
 20
1581.092434364
 10
-1679.994231296
 20
1581.226951085
 10
-1684.883378876
 20
1581.331512697
 10
-1689.781315817
 20
1581.406056257
 10
-1694.68509372
 20
1581.450536892
 10
-1699.591760672
 20
1581.464927827
 10
-1704.498363017
 20
1581.449220398
 10
-1709.401947144
 20
1581.403424061
 10
-1714.299561253
 20
1581.327566385
 10
-1719.18825714
 20
1581.221693032
 10
-1724.065091972
 20
1581.085867735
 10
-1728.927130052
 20
1580.920172256
 10
-1733.771444591
 20
1580.72470634
 10
-1738.595119472
 20
1580.499587649
 10
-1743.395250998
 20
1580.244951698
 10
-1748.168949649
 20
1579.960951769
 10
-1752.913341812
 20
1579.647758821
 10
-1757.625571518
 20
1579.305561387
 10
-1762.30280216
 20
1578.934565457
 10
-1766.942218197
 20
1578.53499436
 10
-1771.541026852
 20
1578.107088623
 10
-1776.096459792
 20
1577.651105833
 10
-1780.605774795
 20
1577.167320476
 10
-1785.066257402
 20
1576.656023774
 10
-1789.475222547
 20
1576.117523513
 10
-1793.830016177
 20
1575.552143851
 10
-1798.128016848
 20
1574.960225128
 10
-1802.366637304
 20
1574.342123661
 10
-1806.543326035
 20
1573.698211526
 10
-1810.65556881
 20
1573.028876338
 10
-1814.700890192
 20
1572.334521013
 10
-1818.676855032
 20
1571.615563532
 10
-1822.581069927
 20
1570.872436684
 10
-1826.411184667
 20
1570.105587806
 10
-1830.164893649
 20
1569.315478516
 10
-1833.839937263
 20
1568.502584435
 10
-1837.434103252
 20
1567.667394898
 10
-1840.945228045
 20
1566.810412663
 10
-1844.37119806
 20
1565.932153603
 10
-1847.709950975
 20
1565.033146403
 10
-1850.95947697
 20
1564.113932236
 10
-1854.117819936
 20
1563.175064438
 10
-1857.183078654
 20
1562.217108178
 10
-1860.153407937
 20
1561.240640113
 10
-1863.027019746
 20
1560.246248046
 10
-1865.802184259
 20
1559.234530568
 10
-1868.477230917
 20
1558.206096701
 10
-1871.050549431
 20
1557.161565526
 10
-1873.520590746
 20
1556.10156582
 10
-1875.885867978
 20
1555.026735665
 10
-1878.144957308
 20
1553.937722076
 10
-1880.296498837
 20
1552.835180603
 10
-1882.339197408
 20
1551.71977494
 10
-1884.271823382
 20
1550.592176524
 10
-1886.093213383
 20
1549.453064133
 10
-1887.802270992
 20
1548.303123476
 10
-1889.397967413
 20
1547.143046779
 10
-1890.879342089
 20
1545.973532371
 10
-1891.576877401
 20
1545.385455817
 10
-1892.245503281
 20
1544.79528426
 10
-1892.885119102
 20
1544.203106519
 10
-1893.495628603
 20
1543.609011715
 10
-1894.076939905
 20
1543.013089258
 10
-1894.628965522
 20
1542.415428832
 10
-1895.151622375
 20
1541.816120384
 10
-1895.644831806
 20
1541.215254109
 10
-1896.108519587
 20
1540.612920435
 10
-1896.542615936
 20
1540.009210012
 10
-1896.947055521
 20
1539.404213697
 10
-1897.321777475
 20
1538.798022541
 10
-1897.666725404
 20
1538.190727773
 10
-1897.981847394
 20
1537.58242079
 10
-1898.26709602
 20
1536.973193141
 10
-1898.522428353
 20
1536.363136513
 10
-1898.747805965
 20
1535.752342718
 10
-1898.943194938
 20
1535.140903678
 10
-1899.108565867
 20
1534.528911415
 10
-1899.243893863
 20
1533.916458031
 10
-1899.34915856
 20
1533.303635698
 10
-1899.424344116
 20
1532.690536646
 10
-1899.469439216
 20
1532.077253144
 10
-1899.484437072
 20
1531.463877489
  0
LWPOLYLINE
  5
1C1
100
AcDbEntity
  8
GEKO
  6
SOLID
 62
        7
100
AcDbPolyline
 90
      223
 70
        0
 10
-1554.213840901
 20
1471.983937733
 10
-1551.738754173
 20
1472.64987043
 10
-1549.312502992
 20
1473.326942307
 10
-1546.935889327
 20
1474.014929566
 10
-1544.609698738
 20
1474.713604802
 10
-1542.334700121
 20
1475.422737076
 10
-1540.111645447
 20
1476.142091993
 10
-1537.941269522
 20
1476.871431778
 10
-1535.824289736
 20
1477.610515358
 10
-1533.761405831
 20
1478.359098437
 10
-1531.75329967
 20
1479.11693358
 10
-1529.800635006
 20
1479.883770294
 10
-1527.90405727
 20
1480.65935511
 10
-1526.064193353
 20
1481.443431669
 10
-1524.281651399
 20
1482.235740802
 10
-1522.557020606
 20
1483.036020622
 10
-1520.890871029
 20
1483.844006606
 10
-1519.283753395
 20
1484.659431684
 10
-1517.736198917
 20
1485.482026328
 10
-1516.24871912
 20
1486.311518638
 10
-1514.821805672
 20
1487.147634435
 10
-1513.455930223
 20
1487.990097353
 10
-1512.151544246
 20
1488.838628924
 10
-1510.90907889
 20
1489.692948678
 10
-1509.728944837
 20
1490.552774228
 10
-1508.611532166
 20
1491.417821371
 10
-1507.557210225
 20
1492.287804175
 10
-1506.566327506
 20
1493.162435078
 10
-1505.639211534
 20
1494.041424981
 10
-1504.776168755
 20
1494.924483345
 10
-1503.977484439
 20
1495.811318285
 10
-1503.243422581
 20
1496.70163667
 10
-1502.574225816
 20
1497.595144214
 10
-1501.970115338
 20
1498.49154558
 10
-1501.43129083
 20
1499.390544474
 10
-1500.957930393
 20
1500.291843741
 10
-1500.550190491
 20
1501.19514547
 10
-1500.208205896
 20
1502.100151083
 10
-1499.932089649
 20
1503.006561442
 10
-1499.721933016
 20
1503.914076945
 10
-1499.577805462
 20
1504.822397624
 10
-1499.499754626
 20
1505.731223242
 10
-1499.487806307
 20
1506.640253401
 10
-1499.541964455
 20
1507.549187629
 10
-1499.662211167
 20
1508.457725492
 10
-1499.848506699
 20
1509.365566681
 10
-1500.100789472
 20
1510.272411121
 10
-1500.418976097
 20
1511.177959066
 10
-1500.802961402
 20
1512.081911198
 10
-1501.252618465
 20
1512.983968726
 10
-1501.767798657
 20
1513.883833487
 10
-1502.348331691
 20
1514.78120804
 10
-1502.99402568
 20
1515.675795769
 10
-1503.704667197
 20
1516.56730098
 10
-1504.480021348
 20
1517.455428996
 10
-1505.319831849
 20
1518.339886257
 10
-1506.223821111
 20
1519.220380416
 10
-1507.191690332
 20
1520.096620437
 10
-1508.223119593
 20
1520.96831669
 10
-1509.317767969
 20
1521.835181044
 10
-1510.475273636
 20
1522.69692697
 10
-1511.695253995
 20
1523.553269627
 10
-1512.977305797
 20
1524.403925962
 10
-1514.321005274
 20
1525.248614801
 10
-1515.725908284
 20
1526.087056941
 10
-1517.191550451
 20
1526.918975246
 10
-1518.717447327
 20
1527.744094735
 10
-1520.303094544
 20
1528.562142675
 10
-1521.947967985
 20
1529.372848671
 10
-1523.651523959
 20
1530.175944753
 10
-1525.413199374
 20
1530.971165467
 10
-1527.232411931
 20
1531.758247963
 10
-1529.108560311
 20
1532.536932081
 10
-1531.041024375
 20
1533.306960435
 10
-1533.029165371
 20
1534.068078502
 10
-1535.072326144
 20
1534.820034705
 10
-1537.16983135
 20
1535.562580492
 10
-1539.320987685
 20
1536.295470424
 10
-1541.525084111
 20
1537.018462253
 10
-1543.78139209
 20
1537.731317004
 10
-1546.089165826
 20
1538.43379905
 10
-1548.447642513
 20
1539.125676195
 10
-1550.856042585
 20
1539.806719747
 10
-1553.313569975
 20
1540.476704595
 10
-1555.819412376
 20
1541.135409284
 10
-1558.372741513
 20
1541.782616088
 10
-1560.972713413
 20
1542.418111079
 10
-1563.618468688
 20
1543.041684202
 10
-1566.309132814
 20
1543.653129344
 10
-1569.043816427
 20
1544.252244398
 10
-1571.821615608
 20
1544.838831333
 10
-1574.64161219
 20
1545.412696262
 10
-1577.502874057
 20
1545.973649499
 10
-1580.404455454
 20
1546.521505628
 10
-1583.345397298
 20
1547.056083563
 10
-1589.341461268
 20
1548.084702502
 10
-1595.483138917
 20
1549.058146437
 10
-1601.762310686
 20
1549.975128436
 10
-1608.170675244
 20
1550.834436208
 10
-1614.699760462
 20
1551.634933713
 10
-1621.340934613
 20
1552.375562659
 10
-1628.085417783
 20
1553.055343903
 10
-1634.924293481
 20
1553.673378746
 10
-1641.848520422
 20
1554.228850119
 10
-1648.848944486
 20
1554.721023665
 10
-1655.916310815
 20
1555.149248711
 10
-1663.041276053
 20
1555.512959125
 10
-1670.214420692
 20
1555.811674065
 10
-1677.426261533
 20
1556.044998619
 10
-1684.667264216
 20
1556.212624322
 10
-1691.927855829
 20
1556.314329564
 10
-1699.198437562
 20
1556.349979888
 10
-1706.469397399
 20
1556.319528163
 10
-1713.731122823
 20
1556.223014646
 10
-1720.974013525
 20
1556.060566932
 10
-1728.188494097
 20
1555.832399786
 10
-1735.36502669
 20
1555.538814852
 10
-1742.494123624
 20
1555.180200263
 10
-1749.566359931
 20
1554.757030122
 10
-1756.572385816
 20
1554.269863879
 10
-1763.502939015
 20
1553.719345587
 10
-1770.348857043
 20
1553.106203056
 10
-1777.101089307
 20
1552.431246885
 10
-1783.750709071
 20
1551.695369395
 10
-1790.288925254
 20
1550.899543448
 10
-1796.707094059
 20
1550.044821159
 10
-1802.996730394
 20
1549.132332507
 10
-1809.149519094
 20
1548.16328384
 10
-1815.157325912
 20
1547.138956283
 10
-1818.104371284
 20
1546.606483303
 10
-1821.012208272
 20
1546.060704039
 10
-1823.879875726
 20
1545.501798893
 10
-1826.706425773
 20
1544.929952604
 10
-1829.490924131
 20
1544.345354189
 10
-1832.232450417
 20
1543.748196879
 10
-1834.930098454
 20
1543.138678058
 10
-1837.582976566
 20
1542.516999195
 10
-1840.190207877
 20
1541.883365778
 10
-1842.750930598
 20
1541.237987247
 10
-1845.264298313
 20
1540.581076925
 10
-1847.729480259
 20
1539.912851944
 10
-1850.145661599
 20
1539.233533179
 10
-1852.512043695
 20
1538.54334517
 10
-1854.827844367
 20
1537.842516051
 10
-1857.092298155
 20
1537.131277472
 10
-1859.304656571
 20
1536.409864524
 10
-1861.464188348
 20
1535.678515662
 10
-1863.570179678
 20
1534.937472625
 10
-1865.621934451
 20
1534.186980354
 10
-1867.618774484
 20
1533.427286916
 10
-1869.560039747
 20
1532.65864342
 10
-1871.445088577
 20
1531.881303929
 10
-1873.273297894
 20
1531.095525386
 10
-1875.044063406
 20
1530.301567519
 10
-1876.756799808
 20
1529.499692761
 10
-1878.410940975
 20
1528.690166162
 10
-1880.005940151
 20
1527.873255302
 10
-1881.541270129
 20
1527.049230201
 10
-1883.016423423
 20
1526.21836323
 10
-1884.43091244
 20
1525.380929022
 10
-1885.784269637
 20
1524.537204381
 10
-1887.076047679
 20
1523.68746819
 10
-1888.305819584
 20
1522.832001318
 10
-1889.473178865
 20
1521.971086531
 10
-1890.577739666
 20
1521.105008393
 10
-1891.619136889
 20
1520.234053176
 10
-1892.597026311
 20
1519.358508763
 10
-1893.511084703
 20
1518.478664556
 10
-1894.361009935
 20
1517.594811375
 10
-1895.146521073
 20
1516.707241368
 10
-1895.867358477
 20
1515.816247911
 10
-1896.523283882
 20
1514.92212551
 10
-1897.114080481
 20
1514.025169707
 10
-1897.639552992
 20
1513.12567698
 10
-1898.099527727
 20
1512.223944645
 10
-1898.493852647
 20
1511.320270758
 10
-1898.822397413
 20
1510.41495402
 10
-1899.085053428
 20
1509.50829367
 10
-1899.281733874
 20
1508.600589395
 10
-1899.412373741
 20
1507.692141224
 10
-1899.476929848
 20
1506.783249436
 10
-1899.475380856
 20
1505.874214452
 10
-1899.407727278
 20
1504.965336744
 10
-1899.273991475
 20
1504.05691673
 10
-1899.074217652
 20
1503.149254677
 10
-1898.808471842
 20
1502.242650602
 10
-1898.476841884
 20
1501.337404171
 10
-1898.079437394
 20
1500.433814604
 10
-1897.61638973
 20
1499.532180571
 10
-1897.087851946
 20
1498.632800096
 10
-1896.493998744
 20
1497.735970458
 10
-1895.835026416
 20
1496.841988093
 10
-1895.111152776
 20
1495.951148497
 10
-1894.322617092
 20
1495.063746126
 10
-1893.469680005
 20
1494.180074299
 10
-1892.552623443
 20
1493.300425105
 10
-1891.571750528
 20
1492.4250893
 10
-1890.527385476
 20
1491.554356216
 10
-1889.419873489
 20
1490.688513663
 10
-1888.249580642
 20
1489.827847835
 10
-1887.01689376
 20
1488.972643215
 10
-1885.722220294
 20
1488.123182481
 10
-1884.365988182
 20
1487.27974641
 10
-1882.94864571
 20
1486.442613791
 10
-1881.470661364
 20
1485.612061329
 10
-1879.932523673
 20
1484.788363551
 10
-1878.334741051
 20
1483.971792721
 10
-1876.677841624
 20
1483.162618748
 10
-1874.962373062
 20
1482.361109093
 10
-1873.188902391
 20
1481.567528686
 10
-1871.358015811
 20
1480.782139835
 10
-1869.470318499
 20
1480.005202141
 10
-1867.526434411
 20
1479.236972412
 10
-1865.527006074
 20
1478.477704576
 10
-1863.472694374
 20
1477.7276496
 10
-1861.364178341
 20
1476.987055407
 10
-1859.202154917
 20
1476.256166789
 10
-1856.987338735
 20
1475.535225334
 10
-1854.720461874
 20
1474.824469341
 10
-1852.402273623
 20
1474.12413374
 10
-1850.033540232
 20
1473.43445002
 10
-1847.615044656
 20
1472.755646147
 10
-1845.1475863
 20
1472.087946491
  0
LWPOLYLINE
  5
1C2
100
AcDbEntity
  8
GEKO
  6
SOLID
 62
        7
100
AcDbPolyline
 90
        6
 70
        0
 10
-1563.578964008
 20
1440.414681709
 10
-1565.076701885
 20
1440.890794486
 10
-1566.617844779
 20
1441.359143784
 10
-1569.827514099
 20
1442.27125236
 10
-1573.202275236
 20
1443.148609201
 10
-1576.736369055
 20
1443.98909575
  0
LWPOLYLINE
  5
1C3
100
AcDbEntity
  8
GEKO
  6
SOLID
 62
        7
100
AcDbPolyline
 90
       60
 70
        0
 10
-1570.975940527
 20
1485.958656434
 10
-1570.158938742
 20
1486.655283892
 10
-1569.399039787
 20
1487.356171789
 10
-1568.696579181
 20
1488.061010659
 10
-1568.051867085
 20
1488.769489293
 10
-1567.465188159
 20
1489.481294875
 10
-1566.936801443
 20
1490.196113119
 10
-1566.466940235
 20
1490.913628409
 10
-1566.055811995
 20
1491.633523939
 10
-1565.703598251
 20
1492.35548185
 10
-1565.410454514
 20
1493.079183376
 10
-1565.17651022
 20
1493.804308977
 10
-1565.00186866
 20
1494.530538488
 10
-1564.886606946
 20
1495.257551253
 10
-1564.83077597
 20
1495.985026273
 10
-1564.834400382
 20
1496.712642344
 10
-1564.897478582
 20
1497.440078199
 10
-1565.019982719
 20
1498.167012651
 10
-1565.201858704
 20
1498.893124736
 10
-1565.443026231
 20
1499.618093849
 10
-1565.743378819
 20
1500.341599895
 10
-1566.102783851
 20
1501.063323421
 10
-1566.521082638
 20
1501.782945762
 10
-1566.998090488
 20
1502.500149182
 10
-1567.533596786
 20
1503.214617011
 10
-1568.127365087
 20
1503.926033789
 10
-1568.779133225
 20
1504.634085401
 10
-1569.488613422
 20
1505.33845922
 10
-1570.255492418
 20
1506.038844242
 10
-1571.079431613
 20
1506.734931223
 10
-1571.960067209
 20
1507.426412818
 10
-1572.897010377
 20
1508.112983715
 10
-1573.889847425
 20
1508.79434077
 10
-1574.938139984
 20
1509.470183143
 10
-1576.041425198
 20
1510.140212426
 10
-1577.19921593
 20
1510.804132779
 10
-1578.411000978
 20
1511.461651061
 10
-1579.676245297
 20
1512.112476953
 10
-1580.994390243
 20
1512.756323097
 10
-1582.36485381
 20
1513.392905212
 10
-1583.787030893
 20
1514.021942227
 10
-1585.260293554
 20
1514.643156401
 10
-1586.783991301
 20
1515.256273447
 10
-1588.357451369
 20
1515.861022655
 10
-1589.979979024
 20
1516.457137007
 10
-1591.650857868
 20
1517.0443533
 10
-1593.369350152
 20
1517.622412258
 10
-1595.134697105
 20
1518.191058648
 10
-1596.946119269
 20
1518.750041396
 10
-1598.802816841
 20
1519.299113692
 10
-1600.703970029
 20
1519.838033102
 10
-1602.64873941
 20
1520.366561675
 10
-1604.636266304
 20
1520.88446605
 10
-1606.665673154
 20
1521.391517553
 10
-1608.73606391
 20
1521.887492306
 10
-1612.996122862
 20
1522.845340589
 10
-1617.408920168
 20
1523.756319401
 10
-1621.966663107
 20
1524.618820009
 10
-1626.661302994
 20
1525.431319294
 10
-1631.484549392
 20
1526.192382432
  0
LWPOLYLINE
  5
1C4
100
AcDbEntity
  8
GEKO
  6
SOLID
 62
        7
100
AcDbPolyline
 90
       60
 70
        0
 10
-1767.484549392
 20
1526.193281161
 10
-1772.308129846
 20
1525.432251695
 10
-1777.00310392
 20
1524.619780504
 10
-1781.561179954
 20
1523.757302471
 10
-1785.974308059
 20
1522.846340795
 10
-1790.234694336
 20
1521.888504298
 10
-1792.305247088
 20
1521.392533466
 10
-1794.334814637
 20
1520.885484588
 10
-1796.322500791
 20
1520.36758156
 10
-1798.267427856
 20
1519.83905307
 10
-1800.168737017
 20
1519.300132499
 10
-1802.025588718
 20
1518.751057817
 10
-1803.837163036
 20
1518.192071476
 10
-1805.60266004
 20
1517.623420306
 10
-1807.321300146
 20
1517.045355404
 10
-1808.992324459
 20
1516.458132026
 10
-1810.614995111
 20
1515.862009468
 10
-1812.188595585
 20
1515.257250959
 10
-1813.712431032
 20
1514.64412354
 10
-1815.185828575
 20
1514.022897948
 10
-1816.608137613
 20
1513.393848495
 10
-1817.9787301
 20
1512.757252948
 10
-1819.29700083
 20
1512.113392407
 10
-1820.562367697
 20
1511.462551178
 10
-1821.774271957
 20
1510.805016653
 10
-1822.932178476
 20
1510.141079176
 10
-1824.035575958
 20
1509.471031919
 10
-1825.083977182
 20
1508.795170754
 10
-1826.076919207
 20
1508.113794117
 10
-1827.013963584
 20
1507.427202883
 10
-1827.894696546
 20
1506.735700227
 10
-1828.71872919
 20
1506.039591493
 10
-1829.48569765
 20
1505.33918406
 10
-1830.195263259
 20
1504.634787205
 10
-1830.847112697
 20
1503.926711965
 10
-1831.440958128
 20
1503.215271003
 10
-1831.976537331
 20
1502.500778468
 10
-1832.453613811
 20
1501.783549855
 10
-1832.871976907
 20
1501.06390187
 10
-1833.231441884
 20
1500.342152283
 10
-1833.531850014
 20
1499.618619797
 10
-1833.773068648
 20
1498.893623898
 10
-1833.95499127
 20
1498.167484721
 10
-1834.077537551
 20
1497.440522905
 10
-1834.140653377
 20
1496.713059451
 10
-1834.144310879
 20
1495.985415584
 10
-1834.088508442
 20
1495.257912606
 10
-1833.973270706
 20
1494.530871759
 10
-1833.798648557
 20
1493.804614079
 10
-1833.564719101
 20
1493.079460258
 10
-1833.271585635
 20
1492.355730499
 10
-1832.919377596
 20
1491.633744378
 10
-1832.508250507
 20
1490.913820699
 10
-1832.038385909
 20
1490.196277357
 10
-1831.509991278
 20
1489.481431194
 10
-1830.923299935
 20
1488.769597864
 10
-1830.278570944
 20
1488.061091687
 10
-1829.576088996
 20
1487.356225518
 10
-1828.816164283
 20
1486.6553106
 10
-1827.999132362
 20
1485.958656434
  0
LINE
  5
1C5
100
AcDbEntity
  8
GEKO
  6
SOLID
 62
        7
100
AcDbLine
 10
-1559.532077241
 20
1485.958656434
 30
0.0
 11
-1556.532077241
 21
1477.958656434
 31
0.0
  0
LINE
  5
1C6
100
AcDbEntity
  8
GEKO
  6
SOLID
 62
        7
100
AcDbLine
 10
-1553.532077241
 20
1485.958656434
 30
0.0
 11
-1550.532077241
 21
1477.958656434
 31
0.0
  0
MTEXT
  5
1C7
100
AcDbEntity
  8
GEKO
  6
SOLID
 62
        7
100
AcDbMText
 10
-1387.877197266
 20
1013.507446289
 30
0.0
 40
30.0
 41
0.0
 71
        1
 72
        5
  1
\f|b0|i0|c177|p0;\W1.1;:
 11
-0.000000044
 21
-1.0
 31
0.0
 73
        2
 44
1.0
  0
INSERT
  5
1D0
100
AcDbEntity
  8
0
100
AcDbBlockReference
  2
*H7
 10
0.0
 20
0.0
 30
0.0
  0
INSERT
  5
1D9
100
AcDbEntity
  8
0
100
AcDbBlockReference
  2
*H8
 10
0.0
 20
0.0
 30
0.0
  0
INSERT
  5
1E8
100
AcDbEntity
  8
GEKO
100
AcDbBlockReference
  2
*D9
 10
0.0
 20
0.0
 30
0.0
  0
INSERT
  5
1F7
100
AcDbEntity
  8
GEKO
100
AcDbBlockReference
  2
*D10
 10
0.0
 20
0.0
 30
0.0
  0
INSERT
  5
206
100
AcDbEntity
  8
GEKO
100
AcDbBlockReference
  2
*D11
 10
0.0
 20
0.0
 30
0.0
  0
INSERT
  5
217
100
AcDbEntity
  8
GEKO
100
AcDbBlockReference
  2
*D12
 10
0.0
 20
0.0
 30
0.0
  0
LINE
  5
218
100
AcDbEntity
  8
GEKO
  6
SOLID
 62
        7
100
AcDbLine
 10
-1547.532077241
 20
1485.958656434
 30
0.0
 11
-1544.532077241
 21
1477.958656434
 31
0.0
  0
LINE
  5
219
100
AcDbEntity
  8
GEKO
  6
SOLID
 62
        7
100
AcDbLine
 10
-1544.532077241
 20
1485.958656434
 30
0.0
 11
-1574.532076763
 21
1485.958656434
 31
0.0
  0
LINE
  5
21A
100
AcDbEntity
  8
GEKO
  6
SOLID
 62
        7
100
AcDbLine
 10
-1544.532077241
 20
1485.958656434
 30
0.0
 11
-1544.532077241
 21
1477.958656434
 31
0.0
  0
LINE
  5
21B
100
AcDbEntity
  8
GEKO
  6
SOLID
 62
        7
100
AcDbLine
 10
-1544.532077241
 20
1477.958656434
 30
0.0
 11
-1574.532077718
 21
1477.958656434
 31
0.0
  0
LINE
  5
21C
100
AcDbEntity
  8
GEKO
  6
SOLID
 62
        7
100
AcDbLine
 10
-1571.532077241
 20
1485.958656434
 30
0.0
 11
-1568.532077241
 21
1477.958656434
 31
0.0
  0
INSERT
  5
22B
100
AcDbEntity
  8
GEKO
100
AcDbBlockReference
  2
*D13
 10
0.0
 20
0.0
 30
0.0
  0
LINE
  5
22C
100
AcDbEntity
  8
GEKO
  6
SOLID
 62
        7
100
AcDbLine
 10
-1793.484495222
 20
1277.834331371
 30
0.0
 11
-1797.408850729
 21
1277.834331371
 31
0.0
  0
INSERT
  5
23B
100
AcDbEntity
  8
GEKO
100
AcDbBlockReference
  2
*D14
 10
0.0
 20
0.0
 30
0.0
  0
ARC
  5
23C
100
AcDbEntity
  8
GEKO
  6
SOLID
 62
        7
100
AcDbCircle
 10
-1792.979446366
 20
1280.8654202
 30
0.0
 40
5.367226705
100
AcDbArc
 50
145.615745828
 51
214.384254172
  0
ARC
  5
23D
100
AcDbEntity
  8
GEKO
  6
SOLID
 62
        7
100
AcDbCircle
 10
-1778.284499764
 20
1289.958686687
 30
0.0
 40
20.062173307
100
AcDbArc
 50
162.412042639
 51
197.587957361
  0
ARC
  5
23E
100
AcDbEntity
  8
GEKO
  6
SOLID
 62
        7
100
AcDbCircle
 10
-1792.979446366
 20
1299.051953174
 30
0.0
 40
5.367226705
100
AcDbArc
 50
145.615745828
 51
214.384254172
  0
LINE
  5
23F
100
AcDbEntity
  8
GEKO
  6
SOLID
 62
        7
100
AcDbLine
 10
-1775.484551392
 20
1262.958656434
 30
0.0
 11
-1609.484549392
 21
1262.958656434
 31
0.0
  0
LINE
  5
240
100
AcDbEntity
  8
GEKO
  6
SOLID
 62
        7
100
AcDbLine
 10
-1797.408850729
 20
1302.083042003
 30
0.0
 11
-1793.484495222
 21
1302.083042003
 31
0.0
  0
LINE
  5
241
100
AcDbEntity
  8
GEKO
  6
SOLID
 62
        7
100
AcDbLine
 10
-1786.484551392
 20
1405.958656434
 30
0.0
 11
-1704.869714199
 21
1405.958656434
 31
0.0
  0
LINE
  5
242
100
AcDbEntity
  8
GEKO
  6
SOLID
 62
        7
100
AcDbLine
 10
-1609.484549392
 20
1395.958656434
 30
0.0
 11
-1619.484549392
 21
1395.958656434
 31
0.0
  0
LINE
  5
243
100
AcDbEntity
  8
GEKO
  6
SOLID
 62
        7
100
AcDbLine
 10
-1694.099384585
 20
1405.958656434
 30
0.0
 11
-1619.484549392
 21
1405.958656434
 31
0.0
  0
LINE
  5
244
100
AcDbEntity
  8
GEKO
  6
SOLID
 62
        7
100
AcDbLine
 10
-1764.484549392
 20
1431.958656434
 30
0.0
 11
-1764.484549392
 21
1405.958656434
 31
0.0
  0
LINE
  5
245
100
AcDbEntity
  8
GEKO
  6
SOLID
 62
        7
100
AcDbLine
 10
-1634.484549392
 20
1431.958656434
 30
0.0
 11
-1634.484549392
 21
1405.958656434
 31
0.0
  0
LWPOLYLINE
  5
246
100
AcDbEntity
  8
GEKO
  6
SOLID
 62
        7
100
AcDbPolyline
 90
       44
 70
        0
 10
-1634.484549412
 20
1411.177762008
 10
-1630.773514885
 20
1410.612495466
 10
-1627.134785336
 20
1410.016957596
 10
-1623.572093831
 20
1409.391759375
 10
-1620.089095426
 20
1408.73754221
 10
-1616.689363417
 20
1408.054977279
 10
-1613.376385676
 20
1407.344764843
 10
-1610.153561071
 20
1406.607633527
 10
-1607.024195981
 20
1405.844339572
 10
-1603.991500901
 20
1405.055666061
 10
-1601.058587149
 20
1404.242422116
 10
-1598.228463677
 20
1403.405442062
 10
-1595.50403398
 20
1402.54558458
 10
-1592.888093121
 20
1401.663731819
 10
-1590.38332486
 20
1400.760788494
 10
-1587.992298903
 20
1399.837680959
 10
-1585.717468263
 20
1398.895356252
 10
-1583.561166748
 20
1397.934781128
 10
-1581.525606562
 20
1396.956941066
 10
-1579.612876038
 20
1395.962839257
 10
-1577.824937496
 20
1394.953495575
 10
-1576.163625227
 20
1393.929945532
 10
-1575.380991687
 20
1393.413170737
 10
-1574.630643613
 20
1392.893239214
 10
-1573.912773467
 20
1392.370284324
 10
-1573.22756538
 20
1391.844440205
 10
-1572.575195108
 20
1391.315841732
 10
-1571.955829981
 20
1390.784624493
 10
-1571.369628866
 20
1390.250924741
 10
-1570.816742123
 20
1389.71487937
 10
-1570.297311564
 20
1389.176625875
 10
-1569.811470423
 20
1388.636302317
 10
-1569.359343317
 20
1388.094047286
 10
-1568.941046217
 20
1387.549999871
 10
-1568.556686413
 20
1387.004299619
 10
-1568.206362494
 20
1386.4570865
 10
-1567.890164316
 20
1385.908500873
 10
-1567.608172985
 20
1385.358683449
 10
-1567.36046083
 20
1384.807775256
 10
-1567.147091389
 20
1384.2559176
 10
-1566.96811939
 20
1383.703252031
 10
-1566.82359074
 20
1383.149920307
 10
-1566.713542509
 20
1382.596064357
 10
-1566.638002926
 20
1382.041826242
  0
LWPOLYLINE
  5
247
100
AcDbEntity
  8
GEKO
  6
SOLID
 62
        7
100
AcDbPolyline
 90
       44
 70
        0
 10
-1634.484549394
 20
1421.190073707
 10
-1630.710436628
 20
1420.629176925
 10
-1627.008900925
 20
1420.037162875
 10
-1623.383820972
 20
1419.414651902
 10
-1619.838995336
 20
1418.762296309
 10
-1616.378138492
 20
1418.080779674
 10
-1613.004876928
 20
1417.370816128
 10
-1609.722745342
 20
1416.633149612
 10
-1606.535182944
 20
1415.868553097
 10
-1603.445529845
 20
1415.077827772
 10
-1600.457023566
 20
1414.261802203
 10
-1597.572795635
 20
1413.42133147
 10
-1594.795868315
 20
1412.557296268
 10
-1592.129151432
 20
1411.670601983
 10
-1589.575439326
 20
1410.762177743
 10
-1587.137407926
 20
1409.83297545
 10
-1584.817611943
 20
1408.883968775
 10
-1582.618482194
 20
1407.916152143
 10
-1580.542323054
 20
1406.930539688
 10
-1578.591310044
 20
1405.928164192
 10
-1576.767487549
 20
1404.910076003
 10
-1575.072766676
 20
1403.877341933
 10
-1574.27437963
 20
1403.355820298
 10
-1573.508923253
 20
1402.831044139
 10
-1572.776598079
 20
1402.303150939
 10
-1572.077595964
 20
1401.772278995
 10
-1571.412100035
 20
1401.238567386
 10
-1570.780284639
 20
1400.702155935
 10
-1570.1823153
 20
1400.163185172
 10
-1569.618348675
 20
1399.621796297
 10
-1569.088532513
 20
1399.078131145
 10
-1568.593005616
 20
1398.532332145
 10
-1568.131897804
 20
1397.984542287
 10
-1567.705329877
 20
1397.434905082
 10
-1567.31341359
 20
1396.883564525
 10
-1566.956251616
 20
1396.330665056
 10
-1566.633937526
 20
1395.776351526
 10
-1566.34655576
 20
1395.220769154
 10
-1566.094181607
 20
1394.664063493
 10
-1565.876881185
 20
1394.10638039
 10
-1565.694711421
 20
1393.547865947
 10
-1565.547720042
 20
1392.988666485
 10
-1565.435945555
 20
1392.428928503
 10
-1565.359417245
 20
1391.868798644
  0
LINE
  5
248
100
AcDbEntity
  8
GEKO
  6
SOLID
 62
        7
100
AcDbLine
 10
-1764.484549392
 20
1426.958656434
 30
0.0
 11
-1711.984549392
 21
1426.958656434
 31
0.0
  0
LINE
  5
249
100
AcDbEntity
  8
GEKO
  6
SOLID
 62
        7
100
AcDbLine
 10
-1764.484549392
 20
1411.958656434
 30
0.0
 11
-1704.484549392
 21
1411.958656434
 31
0.0
  0
LINE
  5
24A
100
AcDbEntity
  8
GEKO
  6
SOLID
 62
        7
100
AcDbLine
 10
-1686.984549392
 20
1426.958656434
 30
0.0
 11
-1634.484549392
 21
1426.958656434
 31
0.0
  0
LINE
  5
24B
100
AcDbEntity
  8
GEKO
  6
SOLID
 62
        7
100
AcDbLine
 10
-1694.484549392
 20
1411.958656434
 30
0.0
 11
-1634.484549392
 21
1411.958656434
 31
0.0
  0
LINE
  5
24C
100
AcDbEntity
  8
GEKO
  6
SOLID
 62
        7
100
AcDbLine
 10
-1797.408850729
 20
1283.896509029
 30
0.0
 11
-1793.484495222
 21
1283.896509029
 31
0.0
  0
LINE
  5
24D
100
AcDbEntity
  8
GEKO
  6
SOLID
 62
        7
100
AcDbLine
 10
-1798.346673071
 20
1280.8654202
 30
0.0
 11
-1798.346673071
 21
1299.051953174
 31
0.0
  0
LINE
  5
24E
100
AcDbEntity
  8
GEKO
  6
SOLID
 62
        7
100
AcDbLine
 10
-1797.408850729
 20
1296.020864345
 30
0.0
 11
-1793.484495222
 21
1296.020864345
 31
0.0
  0
ARC
  5
24F
100
AcDbEntity
  8
GEKO
  6
SOLID
 62
        7
100
AcDbCircle
 10
-1797.913899584
 20
1299.051953174
 30
0.0
 40
5.367226704
100
AcDbArc
 50
325.615745822
 51
34.384254178
  0
ARC
  5
250
100
AcDbEntity
  8
GEKO
  6
SOLID
 62
        7
100
AcDbCircle
 10
-1812.608846184
 20
1289.958686687
 30
0.0
 40
20.062173304
100
AcDbArc
 50
342.412042636
 51
17.587957364
  0
ARC
  5
251
100
AcDbEntity
  8
GEKO
  6
SOLID
 62
        7
100
AcDbCircle
 10
-1797.913899584
 20
1280.8654202
 30
0.0
 40
5.367226704
100
AcDbArc
 50
325.615745822
 51
34.384254178
  0
LINE
  5
252
100
AcDbEntity
  8
GEKO
  6
SOLID
 62
        7
100
AcDbLine
 10
-1792.54667288
 20
1299.051953174
 30
0.0
 11
-1792.54667288
 21
1279.958656434
 31
0.0
  0
LINE
  5
253
100
AcDbEntity
  8
GEKO
  6
SOLID
 62
        7
100
AcDbLine
 10
-1792.54667288
 20
1299.958656434
 30
0.0
 11
-1792.54667288
 21
1279.958656434
 31
0.0
  0
LINE
  5
254
100
AcDbEntity
  8
GEKO
  6
SOLID
 62
        7
100
AcDbLine
 10
-1786.484551392
 20
1279.958656434
 30
0.0
 11
-1792.54667288
 21
1279.958656434
 31
0.0
  0
LINE
  5
255
100
AcDbEntity
  8
GEKO
  6
SOLID
 62
        7
100
AcDbLine
 10
-1786.484551392
 20
1299.958656434
 30
0.0
 11
-1792.54667288
 21
1299.958656434
 31
0.0
  0
LINE
  5
256
100
AcDbEntity
  8
GEKO
  6
SOLID
 62
        7
100
AcDbLine
 10
-1793.484495222
 20
1402.082981498
 30
0.0
 11
-1797.408850729
 21
1402.082981498
 31
0.0
  0
ARC
  5
257
100
AcDbEntity
  8
GEKO
  6
SOLID
 62
        7
100
AcDbCircle
 10
-1792.979446366
 20
1399.051892669
 30
0.0
 40
5.367226705
100
AcDbArc
 50
145.615745828
 51
214.384254172
  0
ARC
  5
258
100
AcDbEntity
  8
GEKO
  6
SOLID
 62
        7
100
AcDbCircle
 10
-1778.284499764
 20
1389.958626182
 30
0.0
 40
20.062173307
100
AcDbArc
 50
162.412042639
 51
197.587957361
  0
ARC
  5
259
100
AcDbEntity
  8
GEKO
  6
SOLID
 62
        7
100
AcDbCircle
 10
-1792.979446366
 20
1380.865359694
 30
0.0
 40
5.367226705
100
AcDbArc
 50
145.615745828
 51
214.384254172
  0
LINE
  5
25A
100
AcDbEntity
  8
GEKO
  6
SOLID
 62
        7
100
AcDbLine
 10
-1797.408850729
 20
1377.834270865
 30
0.0
 11
-1793.484495222
 21
1377.834270865
 31
0.0
  0
LINE
  5
25B
100
AcDbEntity
  8
GEKO
  6
SOLID
 62
        7
100
AcDbLine
 10
-1797.408850729
 20
1396.02080384
 30
0.0
 11
-1793.484495222
 21
1396.02080384
 31
0.0
  0
LINE
  5
25C
100
AcDbEntity
  8
GEKO
  6
SOLID
 62
        7
100
AcDbLine
 10
-1798.346673071
 20
1399.051892669
 30
0.0
 11
-1798.346673071
 21
1380.865359694
 31
0.0
  0
LINE
  5
25D
100
AcDbEntity
  8
GEKO
  6
SOLID
 62
        7
100
AcDbLine
 10
-1797.408850729
 20
1383.896448524
 30
0.0
 11
-1793.484495222
 21
1383.896448524
 31
0.0
  0
ARC
  5
25E
100
AcDbEntity
  8
GEKO
  6
SOLID
 62
        7
100
AcDbCircle
 10
-1797.913899584
 20
1380.865359694
 30
0.0
 40
5.367226704
100
AcDbArc
 50
325.615745822
 51
34.384254178
  0
ARC
  5
25F
100
AcDbEntity
  8
GEKO
  6
SOLID
 62
        7
100
AcDbCircle
 10
-1812.608846184
 20
1389.958626182
 30
0.0
 40
20.062173304
100
AcDbArc
 50
342.412042636
 51
17.587957364
  0
ARC
  5
260
100
AcDbEntity
  8
GEKO
  6
SOLID
 62
        7
100
AcDbCircle
 10
-1797.913899584
 20
1399.051892669
 30
0.0
 40
5.367226704
100
AcDbArc
 50
325.615745822
 51
34.384254178
  0
LINE
  5
261
100
AcDbEntity
  8
GEKO
  6
SOLID
 62
        7
100
AcDbLine
 10
-1792.54667288
 20
1380.865359694
 30
0.0
 11
-1792.54667288
 21
1399.958656434
 31
0.0
  0
LINE
  5
262
100
AcDbEntity
  8
GEKO
  6
SOLID
 62
        7
100
AcDbLine
 10
-1792.54667288
 20
1379.958656434
 30
0.0
 11
-1792.54667288
 21
1399.958656434
 31
0.0
  0
LINE
  5
263
100
AcDbEntity
  8
GEKO
  6
SOLID
 62
        7
100
AcDbLine
 10
-1786.484551392
 20
1399.958656434
 30
0.0
 11
-1792.54667288
 21
1399.958656434
 31
0.0
  0
LINE
  5
264
100
AcDbEntity
  8
GEKO
  6
SOLID
 62
        7
100
AcDbLine
 10
-1786.484551392
 20
1379.958656434
 30
0.0
 11
-1792.54667288
 21
1379.958656434
 31
0.0
  0
LINE
  5
265
100
AcDbEntity
  8
GEKO
  6
SOLID
 62
        7
100
AcDbLine
 10
-1797.706497009
 20
1362.958654422
 30
0.0
 11
-1799.548964255
 21
1362.367123416
 31
0.0
  0
LINE
  5
266
100
AcDbEntity
  8
GEKO
  6
SOLID
 62
        7
100
AcDbLine
 10
-1799.548964255
 20
1362.367123416
 30
0.0
 11
-1800.750721633
 21
1361.573180425
 31
0.0
  0
LINE
  5
267
100
AcDbEntity
  8
GEKO
  6
SOLID
 62
        7
100
AcDbLine
 10
-1797.706497009
 20
1362.958654422
 30
0.0
 11
-1787.438754155
 21
1362.958655648
 31
0.0
  0
LINE
  5
268
100
AcDbEntity
  8
GEKO
  6
SOLID
 62
        7
100
AcDbLine
 10
-1800.750721633
 20
1361.573180425
 30
0.0
 11
-1801.323797551
 21
1360.481607248
 31
0.0
  0
LINE
  5
269
100
AcDbEntity
  8
GEKO
  6
SOLID
 62
        7
100
AcDbLine
 10
-1788.846673071
 20
1357.712087437
 30
0.0
 11
-1788.846673071
 21
1322.205044553
 31
0.0
  0
LINE
  5
26A
100
AcDbEntity
  8
GEKO
  6
SOLID
 62
        7
100
AcDbLine
 10
-1801.346877724
 20
1360.458658881
 30
0.0
 11
-1788.480323759
 21
1360.458657345
 31
0.0
  0
LINE
  5
26B
100
AcDbEntity
  8
GEKO
  6
SOLID
 62
        7
100
AcDbLine
 10
-1801.346877724
 20
1316.287206399
 30
0.0
 11
-1801.346877724
 21
1363.629930245
 31
0.0
  0
ARC
  5
26C
100
AcDbEntity
  8
GEKO
  6
SOLID
 62
        7
100
AcDbCircle
 10
-1749.677647309
 20
1339.958565995
 30
0.0
 40
39.169025762
100
AcDbArc
 50
162.412051068
 51
197.587948932
  0
ARC
  5
26D
100
AcDbEntity
  8
GEKO
  6
SOLID
 62
        7
100
AcDbCircle
 10
-1778.367796991
 20
1357.712087437
 30
0.0
 40
10.47887608
100
AcDbArc
 50
145.615761582
 51
214.384238418
  0
LINE
  5
26E
100
AcDbEntity
  8
GEKO
  6
SOLID
 62
        7
100
AcDbLine
 10
-1808.346673071
 20
1357.712089765
 30
0.0
 11
-1808.346673071
 21
1322.20504688
 31
0.0
  0
ARC
  5
26F
100
AcDbEntity
  8
GEKO
  6
SOLID
 62
        7
100
AcDbCircle
 10
-1769.177647309
 20
1339.958568322
 30
0.0
 40
39.169025762
100
AcDbArc
 50
162.412051068
 51
197.587948932
  0
ARC
  5
270
100
AcDbEntity
  8
GEKO
  6
SOLID
 62
        7
100
AcDbCircle
 10
-1797.867796991
 20
1357.712089765
 30
0.0
 40
10.47887608
100
AcDbArc
 50
145.615761582
 51
214.384238418
  0
LINE
  5
271
100
AcDbEntity
  8
GEKO
  6
SOLID
 62
        7
100
AcDbLine
 10
-1806.515687366
 20
1351.794249284
 30
0.0
 11
-1801.346877724
 21
1351.794249284
 31
0.0
  0
LINE
  5
272
100
AcDbEntity
  8
GEKO
  6
SOLID
 62
        7
100
AcDbLine
 10
-1801.346877724
 20
1363.629930245
 30
0.0
 11
-1806.515687366
 21
1363.629930245
 31
0.0
  0
LINE
  5
273
100
AcDbEntity
  8
GEKO
  6
SOLID
 62
        7
100
AcDbLine
 10
-1786.484551392
 20
1363.629927918
 30
0.0
 11
-1787.015687366
 21
1363.629927918
 31
0.0
  0
LINE
  5
274
100
AcDbEntity
  8
GEKO
  6
SOLID
 62
        7
100
AcDbLine
 10
-1787.015687366
 20
1351.794246957
 30
0.0
 11
-1786.484551392
 21
1351.794246957
 31
0.0
  0
LINE
  5
275
100
AcDbEntity
  8
GEKO
  6
SOLID
 62
        7
100
AcDbLine
 10
-1801.346877724
 20
1319.458658881
 30
0.0
 11
-1788.480373379
 21
1319.458657345
 31
0.0
  0
LINE
  5
276
100
AcDbEntity
  8
GEKO
  6
SOLID
 62
        7
100
AcDbLine
 10
-1806.515687366
 20
1316.287206399
 30
0.0
 11
-1801.346877724
 21
1316.287206399
 31
0.0
  0
LINE
  5
277
100
AcDbEntity
  8
GEKO
  6
SOLID
 62
        7
100
AcDbLine
 10
-1806.515687366
 20
1328.12288736
 30
0.0
 11
-1801.346877724
 21
1328.12288736
 31
0.0
  0
LINE
  5
278
100
AcDbEntity
  8
GEKO
  6
SOLID
 62
        7
100
AcDbLine
 10
-1797.706497009
 20
1316.958658446
 30
0.0
 11
-1799.548964255
 21
1317.550189452
 31
0.0
  0
LINE
  5
279
100
AcDbEntity
  8
GEKO
  6
SOLID
 62
        7
100
AcDbLine
 10
-1797.706497009
 20
1316.958658446
 30
0.0
 11
-1787.438754155
 21
1316.958657221
 31
0.0
  0
LINE
  5
27A
100
AcDbEntity
  8
GEKO
  6
SOLID
 62
        7
100
AcDbLine
 10
-1799.548964255
 20
1317.550189452
 30
0.0
 11
-1800.750721633
 21
1318.344132444
 31
0.0
  0
LINE
  5
27B
100
AcDbEntity
  8
GEKO
  6
SOLID
 62
        7
100
AcDbLine
 10
-1800.750721633
 20
1318.344132444
 30
0.0
 11
-1801.323797551
 21
1319.43570562
 31
0.0
  0
ARC
  5
27C
100
AcDbEntity
  8
GEKO
  6
SOLID
 62
        7
100
AcDbCircle
 10
-1778.367796991
 20
1322.205044553
 30
0.0
 40
10.47887608
100
AcDbArc
 50
145.615761582
 51
214.384238418
  0
ARC
  5
27D
100
AcDbEntity
  8
GEKO
  6
SOLID
 62
        7
100
AcDbCircle
 10
-1797.867796991
 20
1322.20504688
 30
0.0
 40
10.47887608
100
AcDbArc
 50
145.615761582
 51
214.384238418
  0
LINE
  5
27E
100
AcDbEntity
  8
GEKO
  6
SOLID
 62
        7
100
AcDbLine
 10
-1787.015687366
 20
1328.122885033
 30
0.0
 11
-1786.484551392
 21
1328.122885033
 31
0.0
  0
LINE
  5
27F
100
AcDbEntity
  8
GEKO
  6
SOLID
 62
        7
100
AcDbLine
 10
-1787.015687366
 20
1316.287204072
 30
0.0
 11
-1786.484551392
 21
1316.287204072
 31
0.0
  0
LWPOLYLINE
  5
280
100
AcDbEntity
  8
GEKO
  6
SOLID
 62
        7
100
AcDbPolyline
 90
       26
 70
        0
 10
-1798.321760791
 20
1399.568418657
 10
-1801.288437708
 20
1398.660378465
 10
-1804.132450141
 20
1397.726747504
 10
-1806.850462084
 20
1396.768620916
 10
-1809.439285332
 20
1395.787122574
 10
-1811.895883216
 20
1394.783403769
 10
-1814.217374165
 20
1393.758641855
 10
-1816.40103509
 20
1392.71403887
 10
-1817.440372452
 20
1392.184679015
 10
-1818.444304573
 20
1391.650820124
 10
-1819.412537033
 20
1391.112618761
 10
-1820.344785877
 20
1390.570232765
 10
-1821.240777705
 20
1390.0238212
 10
-1822.10024975
 20
1389.473544313
 10
-1822.922949956
 20
1388.919563482
 10
-1823.70863705
 20
1388.362041174
 10
-1824.457080612
 20
1387.801140893
 10
-1825.168061149
 20
1387.237027134
 10
-1825.84137015
 20
1386.669865334
 10
-1826.476810155
 20
1386.099821824
 10
-1827.074194808
 20
1385.527063781
 10
-1827.633348916
 20
1384.951759177
 10
-1828.154108494
 20
1384.374076732
 10
-1828.636320821
 20
1383.794185862
 10
-1829.079844477
 20
1383.212256632
 10
-1829.484549392
 20
1382.628459703
  0
INSERT
  5
28F
100
AcDbEntity
  8
GEKO
100
AcDbBlockReference
  2
*D15
 10
0.0
 20
0.0
 30
0.0
  0
LINE
  5
290
100
AcDbEntity
  8
GEKO
  6
SOLID
 62
        7
100
AcDbLine
 10
-1728.484549392
 20
1580.936513664
 30
0.0
 11
-1728.484549392
 21
1605.464935027
 31
0.0
  0
LINE
  5
291
100
AcDbEntity
  8
GEKO
  6
SOLID
 62
        7
100
AcDbLine
 10
-1728.484549392
 20
1605.464935027
 30
0.0
 11
-1670.484549392
 21
1605.464935027
 31
0.0
  0
LINE
  5
292
100
AcDbEntity
  8
GEKO
  6
SOLID
 62
        7
100
AcDbLine
 10
-1670.484549392
 20
1605.464935027
 30
0.0
 11
-1670.484549392
 21
1580.936521891
 31
0.0
  0
INSERT
  5
2A1
100
AcDbEntity
  8
GEKO
100
AcDbBlockReference
  2
*D16
 10
0.0
 20
0.0
 30
0.0
  0
LINE
  5
2A2
100
AcDbEntity
  8
GEKO
  6
SOLID
 62
        7
100
AcDbLine
 10
-587.801316917
 20
1573.234785159
 30
0.0
 11
-589.21553048
 21
1570.785295416
 31
0.0
  0
LINE
  5
2A3
100
AcDbEntity
  8
GEKO
  6
SOLID
 62
        7
100
AcDbLine
 10
-593.49533591
 20
1594.485153337
 30
0.0
 11
-587.801316917
 21
1573.234785159
 31
0.0
  0
LINE
  5
2A4
100
AcDbEntity
  8
GEKO
  6
SOLID
 62
        7
100
AcDbLine
 10
-593.49533591
 20
1594.485153337
 30
0.0
 11
-595.944825652
 21
1595.8993669
 31
0.0
  0
LINE
  5
2A5
100
AcDbEntity
  8
GEKO
  6
SOLID
 62
        7
100
AcDbLine
 10
-595.944825652
 20
1595.8993669
 30
0.0
 11
-778.504806821
 21
1546.982567375
 31
0.0
  0
LINE
  5
2A6
100
AcDbEntity
  8
GEKO
  6
SOLID
 62
        7
100
AcDbLine
 10
-589.21553048
 20
1570.785295416
 30
0.0
 11
-771.775619589
 21
1521.868466969
 31
0.0
  0
LINE
  5
2A8
100
AcDbEntity
  8
GEKO
  6
L_DASH
 62
        7
100
AcDbLine
 10
-598.602512331
 20
1609.681386319
 30
0.0
 11
-598.410598176
 21
1609.732809562
 31
0.0
  0
LINE
  5
2A9
100
AcDbEntity
  8
GEKO
  6
L_DASH
 62
        7
100
AcDbLine
 10
-782.128419326
 20
1560.505767749
 30
0.0
 11
-598.410598176
 21
1609.732809562
 31
0.0
  0
ARC
  5
2AA
100
AcDbEntity
  8
GEKO
  6
L_DASH
 62
        7
100
AcDbCircle
 10
-597.11650295
 20
1604.90318043
 30
0.0
 40
5.0
100
AcDbArc
 50
55.541601874
 51
105.0
  0
ARC
  5
2AB
100
AcDbEntity
  8
GEKO
  6
L_DASH
 62
        7
100
AcDbCircle
 10
-608.432656914
 20
1588.412435769
 30
0.0
 40
25.0
100
AcDbArc
 50
338.130102354
 51
55.541601874
  0
LINE
  5
2AC
100
AcDbEntity
  8
GEKO
  6
SOLID
 62
        7
100
AcDbLine
 10
-588.577919926
 20
1576.132801444
 30
0.0
 11
-589.543845752
 21
1575.873982399
 31
0.0
  0
LINE
  5
2AD
100
AcDbEntity
  8
GEKO
  6
L_DASH
 62
        7
100
AcDbLine
 10
-588.577919926
 20
1576.132801444
 30
0.0
 11
-773.069752747
 21
1526.698363829
 31
0.0
  0
ARC
  5
2AE
100
AcDbEntity
  8
GEKO
  6
L_DASH
 62
        7
100
AcDbCircle
 10
-589.872015152
 20
1580.962430575
 30
0.0
 40
5.0
100
AcDbArc
 50
285.0
 51
338.130102354
  0
LINE
  5
2AF
100
AcDbEntity
  8
GEKO
  6
L_DASH
 62
        7
100
AcDbLine
 10
-560.289326219
 20
1344.987548918
 30
0.0
 11
-558.840437479
 21
1345.375777486
 31
0.0
  0
LINE
  5
2B0
100
AcDbEntity
  8
GEKO
  6
L_DASH
 62
        7
100
AcDbLine
 10
-562.101059535
 20
1351.749029702
 30
0.0
 11
-560.652170795
 21
1352.13725827
 31
0.0
  0
LINE
  5
2B1
100
AcDbEntity
  8
GEKO
  6
L_DASH
 62
        7
100
AcDbLine
 10
-498.953036249
 20
1361.422558282
 30
0.0
 11
-497.50414751
 21
1361.81078685
 31
0.0
  0
LINE
  5
2B2
100
AcDbEntity
  8
GEKO
  6
L_DASH
 62
        7
100
AcDbLine
 10
-500.764769565
 20
1368.184039066
 30
0.0
 11
-499.315880826
 21
1368.572267634
 31
0.0
  0
LINE
  5
2B3
100
AcDbEntity
  8
GEKO
  6
SOLID
 62
        7
100
AcDbLine
 10
-505.944644199
 20
1369.149856656
 30
0.0
 11
-501.784560106
 21
1370.264547829
 31
0.0
  0
ARC
  5
2B4
100
AcDbEntity
  8
GEKO
  6
SOLID
 62
        7
100
AcDbCircle
 10
-503.448357587
 20
1368.324442149
 30
0.0
 40
2.555823176
100
AcDbArc
 50
-19.384241824
 51
49.384241824
  0
ARC
  5
2B5
100
AcDbEntity
  8
GEKO
  6
SOLID
 62
        7
100
AcDbCircle
 10
-509.086797545
 20
1362.33074925
 30
0.0
 40
9.553419824
100
AcDbArc
 50
-2.587950754
 51
32.587950754
  0
ARC
  5
2B6
100
AcDbEntity
  8
GEKO
  6
SOLID
 62
        7
100
AcDbCircle
 10
-501.206918855
 20
1359.959278916
 30
0.0
 40
2.555823176
100
AcDbArc
 50
-19.384241824
 51
49.384241824
  0
LINE
  5
2B7
100
AcDbEntity
  8
GEKO
  6
SOLID
 62
        7
100
AcDbLine
 10
-498.795975129
 20
1359.110996852
 30
0.0
 11
-502.956059222
 21
1357.996305679
 31
0.0
  0
ARC
  5
2B8
100
AcDbEntity
  8
GEKO
  6
SOLID
 62
        7
100
AcDbCircle
 10
-501.292261741
 20
1359.936411359
 30
0.0
 40
2.555823176
100
AcDbArc
 50
160.615758176
 51
229.384241824
  0
ARC
  5
2B9
100
AcDbEntity
  8
GEKO
  6
SOLID
 62
        7
100
AcDbCircle
 10
-495.653821783
 20
1365.930104258
 30
0.0
 40
9.553419824
100
AcDbArc
 50
177.412049246
 51
212.587950754
  0
ARC
  5
2BA
100
AcDbEntity
  8
GEKO
  6
SOLID
 62
        7
100
AcDbCircle
 10
-503.533700473
 20
1368.301574591
 30
0.0
 40
2.555823176
100
AcDbArc
 50
160.615758176
 51
229.384241824
  0
LINE
  5
2BB
100
AcDbEntity
  8
GEKO
  6
SOLID
 62
        7
100
AcDbLine
 10
-501.037413862
 20
1367.476160084
 30
0.0
 11
-505.197497954
 21
1366.361468911
 31
0.0
  0
LINE
  5
2BC
100
AcDbEntity
  8
GEKO
  6
SOLID
 62
        7
100
AcDbLine
 10
-500.979621974
 20
1368.985937863
 30
0.0
 11
-498.738183241
 21
1360.62077463
 31
0.0
  0
LINE
  5
2BD
100
AcDbEntity
  8
GEKO
  6
SOLID
 62
        7
100
AcDbLine
 10
-499.543121373
 20
1361.899384596
 30
0.0
 11
-503.703205466
 21
1360.784693423
 31
0.0
  0
LINE
  5
2BE
100
AcDbEntity
  8
GEKO
  6
SOLID
 62
        7
100
AcDbLine
 10
-503.760997354
 20
1359.274915645
 30
0.0
 11
-506.002436087
 21
1367.640078877
 31
0.0
  0
CIRCLE
  5
2BF
100
AcDbEntity
  8
GEKO
  6
SOLID
 62
        7
100
AcDbCircle
 10
-529.802603522
 20
1356.779908276
 30
0.0
 40
16.5
  0
LINE
  5
2C0
100
AcDbEntity
  8
GEKO
  6
SOLID
 62
        7
100
AcDbLine
 10
-517.976236064
 20
1432.418106515
 30
0.0
 11
-481.74156975
 21
1297.188490834
 31
0.0
  0
LINE
  5
2C1
100
AcDbEntity
  8
GEKO
  6
SOLID
 62
        7
100
AcDbLine
 10
-543.077859719
 20
1280.75348147
 30
0.0
 11
-579.312526034
 21
1415.983097151
 31
0.0
  0
LINE
  5
2C2
100
AcDbEntity
  8
GEKO
  6
SOLID
 62
        7
100
AcDbLine
 10
-480.292681011
 20
1297.576719402
 30
0.0
 11
-543.077859719
 21
1280.75348147
 31
0.0
  0
LINE
  5
2C3
100
AcDbEntity
  8
GEKO
  6
SOLID
 62
        7
100
AcDbLine
 10
-516.527347325
 20
1432.806335082
 30
0.0
 11
-480.292681011
 21
1297.576719402
 31
0.0
  0
LINE
  5
2C4
100
AcDbEntity
  8
GEKO
  6
SOLID
 62
        7
100
AcDbLine
 10
-579.312526034
 20
1415.983097151
 30
0.0
 11
-516.527347325
 21
1432.806335082
 31
0.0
  0
LINE
  5
2C5
100
AcDbEntity
  8
GEKO
  6
SOLID
 62
        7
100
AcDbLine
 10
-541.62897098
 20
1281.141710038
 30
0.0
 11
-577.863637294
 21
1416.371325718
 31
0.0
  0
LINE
  5
2C6
100
AcDbEntity
  8
GEKO
  6
SOLID
 62
        7
100
AcDbLine
 10
-533.845567045
 20
1407.460408486
 30
0.0
 11
-532.347490263
 21
1413.051307148
 31
0.0
  0
LINE
  5
2C7
100
AcDbEntity
  8
GEKO
  6
SOLID
 62
        7
100
AcDbLine
 10
-529.752745164
 20
1403.367586606
 30
0.0
 11
-533.845567045
 21
1407.460408486
 31
0.0
  0
LINE
  5
2C8
100
AcDbEntity
  8
GEKO
  6
SOLID
 62
        7
100
AcDbLine
 10
-524.161846503
 20
1404.865663387
 30
0.0
 11
-529.752745164
 21
1403.367586606
 31
0.0
  0
LINE
  5
2C9
100
AcDbEntity
  8
GEKO
  6
SOLID
 62
        7
100
AcDbLine
 10
-522.663769721
 20
1410.456562049
 30
0.0
 11
-524.161846503
 21
1404.865663387
 31
0.0
  0
LINE
  5
2CA
100
AcDbEntity
  8
GEKO
  6
SOLID
 62
        7
100
AcDbLine
 10
-526.756591602
 20
1414.549383929
 30
0.0
 11
-522.663769721
 21
1410.456562049
 31
0.0
  0
LINE
  5
2CB
100
AcDbEntity
  8
GEKO
  6
SOLID
 62
        7
100
AcDbLine
 10
-532.347490263
 20
1413.051307148
 30
0.0
 11
-526.756591602
 21
1414.549383929
 31
0.0
  0
LINE
  5
2CC
100
AcDbEntity
  8
GEKO
  6
SOLID
 62
        7
100
AcDbLine
 10
-508.471366413
 20
1300.093332107
 30
0.0
 11
-519.932708669
 21
1297.022274706
 31
0.0
  0
LINE
  5
2CD
100
AcDbEntity
  8
GEKO
  6
SOLID
 62
        7
100
AcDbLine
 10
-519.932708669
 20
1297.022274706
 30
0.0
 11
-528.322993523
 21
1305.41255956
 31
0.0
  0
LINE
  5
2CE
100
AcDbEntity
  8
GEKO
  6
SOLID
 62
        7
100
AcDbLine
 10
-528.322993523
 20
1305.41255956
 30
0.0
 11
-525.251936122
 21
1316.873901816
 31
0.0
  0
LINE
  5
2CF
100
AcDbEntity
  8
GEKO
  6
SOLID
 62
        7
100
AcDbLine
 10
-525.251936122
 20
1316.873901816
 30
0.0
 11
-513.790593865
 21
1319.944959218
 31
0.0
  0
LINE
  5
2D0
100
AcDbEntity
  8
GEKO
  6
SOLID
 62
        7
100
AcDbLine
 10
-513.790593865
 20
1319.944959218
 30
0.0
 11
-505.400309011
 21
1311.554674364
 31
0.0
  0
LINE
  5
2D1
100
AcDbEntity
  8
GEKO
  6
SOLID
 62
        7
100
AcDbLine
 10
-505.400309011
 20
1311.554674364
 30
0.0
 11
-508.471366413
 21
1300.093332107
 31
0.0
  0
CIRCLE
  5
2D2
100
AcDbEntity
  8
GEKO
  6
SOLID
 62
        7
100
AcDbCircle
 10
-557.232443172
 20
1401.193913914
 30
0.0
 40
6.0
  0
LINE
  5
2D3
100
AcDbEntity
  8
GEKO
  6
SOLID
 62
        7
100
AcDbLine
 10
-548.842158317
 20
1392.80362906
 30
0.0
 11
-560.303500573
 21
1389.732571658
 31
0.0
  0
LINE
  5
2D4
100
AcDbEntity
  8
GEKO
  6
SOLID
 62
        7
100
AcDbLine
 10
-560.303500573
 20
1389.732571658
 30
0.0
 11
-568.693785428
 21
1398.122856512
 31
0.0
  0
LINE
  5
2D5
100
AcDbEntity
  8
GEKO
  6
SOLID
 62
        7
100
AcDbLine
 10
-568.693785428
 20
1398.122856512
 30
0.0
 11
-565.622728026
 21
1409.584198769
 31
0.0
  0
CIRCLE
  5
2D6
100
AcDbEntity
  8
GEKO
  6
SOLID
 62
        7
100
AcDbCircle
 10
-516.861651267
 20
1308.483616962
 30
0.0
 40
6.0
  0
CIRCLE
  5
2D7
100
AcDbEntity
  8
GEKO
  6
SOLID
 62
        7
100
AcDbCircle
 10
-529.802603522
 20
1356.779908276
 30
0.0
 40
10.0
  0
LINE
  5
2D8
100
AcDbEntity
  8
GEKO
  6
SOLID
 62
        7
100
AcDbLine
 10
-548.252569106
 20
1351.836254898
 30
0.0
 11
-543.308915727
 21
1370.286220481
 31
0.0
  0
LINE
  5
2D9
100
AcDbEntity
  8
GEKO
  6
SOLID
 62
        7
100
AcDbLine
 10
-534.746256901
 20
1338.329942693
 30
0.0
 11
-548.252569106
 21
1351.836254898
 31
0.0
  0
LINE
  5
2DA
100
AcDbEntity
  8
GEKO
  6
SOLID
 62
        7
100
AcDbLine
 10
-516.296291317
 20
1343.273596071
 30
0.0
 11
-534.746256901
 21
1338.329942693
 31
0.0
  0
LINE
  5
2DB
100
AcDbEntity
  8
GEKO
  6
SOLID
 62
        7
100
AcDbLine
 10
-511.352637939
 20
1361.723561655
 30
0.0
 11
-516.296291317
 21
1343.273596071
 31
0.0
  0
LINE
  5
2DC
100
AcDbEntity
  8
GEKO
  6
SOLID
 62
        7
100
AcDbLine
 10
-565.622728026
 20
1409.584198769
 30
0.0
 11
-554.16138577
 21
1412.65525617
 31
0.0
  0
LINE
  5
2DD
100
AcDbEntity
  8
GEKO
  6
SOLID
 62
        7
100
AcDbLine
 10
-554.16138577
 20
1412.65525617
 30
0.0
 11
-545.771100915
 21
1404.264971316
 31
0.0
  0
LINE
  5
2DE
100
AcDbEntity
  8
GEKO
  6
SOLID
 62
        7
100
AcDbLine
 10
-545.771100915
 20
1404.264971316
 30
0.0
 11
-548.842158317
 21
1392.80362906
 31
0.0
  0
LINE
  5
2DF
100
AcDbEntity
  8
GEKO
  6
SOLID
 62
        7
100
AcDbLine
 10
-524.858950144
 20
1375.22987386
 30
0.0
 11
-511.352637939
 21
1361.723561655
 31
0.0
  0
LINE
  5
2E0
100
AcDbEntity
  8
GEKO
  6
SOLID
 62
        7
100
AcDbLine
 10
-543.308915727
 20
1370.286220481
 30
0.0
 11
-524.858950144
 21
1375.22987386
 31
0.0
  0
LINE
  5
2E1
100
AcDbEntity
  8
GEKO
  6
SOLID
 62
        7
100
AcDbLine
 10
-577.245340422
 20
1383.154138864
 30
0.0
 11
-572.415712444
 21
1384.448233781
 31
0.0
  0
ARC
  5
2E2
100
AcDbEntity
  8
GEKO
  6
SOLID
 62
        7
100
AcDbCircle
 10
-596.974446763
 20
1464.511529528
 30
0.0
 40
2.0
100
AcDbArc
 50
120.000006837
 51
195.000006837
  0
INSERT
  5
2F1
100
AcDbEntity
  8
GEKO
100
AcDbBlockReference
  2
*D17
 10
0.0
 20
0.0
 30
0.0
  0
ARC
  5
2F2
100
AcDbEntity
  8
GEKO
  6
SOLID
 62
        7
100
AcDbCircle
 10
-594.793156346
 20
1440.916525786
 30
0.0
 40
2.0
100
AcDbArc
 50
15.0
 51
105.0
  0
ARC
  5
2F3
100
AcDbEntity
  8
GEKO
  6
SOLID
 62
        7
100
AcDbCircle
 10
-591.151823152
 20
1462.099720674
 30
0.0
 40
2.0
100
AcDbArc
 50
120.000006837
 51
195.000006837
  0
LINE
  5
2F4
100
AcDbEntity
  8
GEKO
  6
L_DASH
 62
        7
100
AcDbLine
 10
-915.429829329
 20
1170.942557946
 30
0.0
 11
-908.943508512
 21
1177.916420358
 31
0.0
  0
ARC
  5
2F5
100
AcDbEntity
  8
GEKO
  6
SOLID
 62
        7
100
AcDbCircle
 10
-780.429829329
 20
1051.883748948
 30
0.0
 40
180.0
100
AcDbArc
 50
138.590377891
 51
221.409622109
  0
ARC
  5
2F6
100
AcDbEntity
  8
GEKO
  6
L_DASH
 62
        7
100
AcDbCircle
 10
-780.429829329
 20
1051.883748948
 30
0.0
 40
180.0
100
AcDbArc
 50
297.266228167
 51
124.944465687
  0
LINE
  5
2F7
100
AcDbEntity
  8
GEKO
  6
SOLID
 62
        7
100
AcDbLine
 10
-890.134871308
 20
1275.852089715
 30
0.0
 11
-854.395616877
 21
1285.428398649
 31
0.0
  0
LINE
  5
2F8
100
AcDbEntity
  8
GEKO
  6
SOLID
 62
        7
100
AcDbLine
 10
-562.644089639
 20
1347.980058408
 30
0.0
 11
-553.002652264
 21
1350.563473766
 31
0.0
  0
LINE
  5
2F9
100
AcDbEntity
  8
GEKO
  6
CENTER
 62
        7
100
AcDbLine
 10
-789.303189361
 20
1587.282270172
 30
0.0
 11
-603.939814601
 21
895.496902814
 31
0.0
  0
INSERT
  5
308
100
AcDbEntity
  8
GEKO
100
AcDbBlockReference
  2
*D18
 10
0.0
 20
0.0
 30
0.0
  0
INSERT
  5
317
100
AcDbEntity
  8
GEKO
100
AcDbBlockReference
  2
*D19
 10
0.0
 20
0.0
 30
0.0
  0
INSERT
  5
320
100
AcDbEntity
  8
0
100
AcDbBlockReference
  2
*H20
 10
0.0
 20
0.0
 30
0.0
  0
INSERT
  5
329
100
AcDbEntity
  8
0
100
AcDbBlockReference
  2
*H21
 10
0.0
 20
0.0
 30
0.0
  0
INSERT
  5
33A
100
AcDbEntity
  8
GEKO
100
AcDbBlockReference
  2
*D22
 10
0.0
 20
0.0
 30
0.0
  0
INSERT
  5
349
100
AcDbEntity
  8
GEKO
100
AcDbBlockReference
  2
*D23
 10
0.0
 20
0.0
 30
0.0
  0
INSERT
  5
35A
100
AcDbEntity
  8
GEKO
100
AcDbBlockReference
  2
*D24
 10
0.0
 20
0.0
 30
0.0
  0
INSERT
  5
369
100
AcDbEntity
  8
GEKO
100
AcDbBlockReference
  2
*D25
 10
0.0
 20
0.0
 30
0.0
  0
INSERT
  5
378
100
AcDbEntity
  8
GEKO
100
AcDbBlockReference
  2
*D26
 10
0.0
 20
0.0
 30
0.0
  0
INSERT
  5
381
100
AcDbEntity
  8
0
100
AcDbBlockReference
  2
*H27
 10
0.0
 20
0.0
 30
0.0
  0
INSERT
  5
38A
100
AcDbEntity
  8
0
100
AcDbBlockReference
  2
*H28
 10
0.0
 20
0.0
 30
0.0
  0
INSERT
  5
393
100
AcDbEntity
  8
0
100
AcDbBlockReference
  2
*H29
 10
0.0
 20
0.0
 30
0.0
  0
INSERT
  5
3A2
100
AcDbEntity
  8
GEKO
100
AcDbBlockReference
  2
*D30
 10
0.0
 20
0.0
 30
0.0
  0
INSERT
  5
3B1
100
AcDbEntity
  8
GEKO
100
AcDbBlockReference
  2
*D31
 10
0.0
 20
0.0
 30
0.0
  0
INSERT
  5
3C0
100
AcDbEntity
  8
GEKO
100
AcDbBlockReference
  2
*D32
 10
0.0
 20
0.0
 30
0.0
  0
LINE
  5
3C1
100
AcDbEntity
  8
GEKO
  6
SOLID
 62
        7
100
AcDbLine
 10
-909.188047337
 20
1474.461665304
 30
0.0
 11
-911.834860783
 21
1484.33970285
 31
0.0
  0
LINE
  5
3C2
100
AcDbEntity
  8
GEKO
  6
SOLID
 62
        7
100
AcDbLine
 10
-629.06956667
 20
1549.519221811
 30
0.0
 11
-631.716380117
 21
1559.397259357
 31
0.0
  0
LINE
  5
3C3
100
AcDbEntity
  8
GEKO
  6
SOLID
 62
        7
100
AcDbLine
 10
-898.034496263
 20
1471.473081727
 30
0.0
 11
-909.188047337
 21
1474.461665303
 31
0.0
  0
LINE
  5
3C4
100
AcDbEntity
  8
GEKO
  6
SOLID
 62
        7
100
AcDbLine
 10
-870.599665114
 20
1369.084946855
 30
0.0
 11
-880.823072931
 21
1407.239206042
 31
0.0
  0
LINE
  5
3C5
100
AcDbEntity
  8
GEKO
  6
SOLID
 62
        7
100
AcDbLine
 10
-637.234531505
 20
1541.354255027
 30
0.0
 11
-629.06956667
 21
1549.519221811
 31
0.0
  0
LINE
  5
3C6
100
AcDbEntity
  8
GEKO
  6
SOLID
 62
        7
100
AcDbLine
 10
-609.799692016
 20
1438.966089033
 30
0.0
 11
-620.023108172
 21
1477.120379342
 31
0.0
  0
LINE
  5
3C7
100
AcDbEntity
  8
GEKO
  6
SOLID
 62
        7
100
AcDbLine
 10
-710.835516486
 20
1391.029559265
 30
0.0
 11
-672.898495564
 21
1249.446703487
 31
0.0
  0
LINE
  5
3C8
100
AcDbEntity
  8
GEKO
  6
SOLID
 62
        7
100
AcDbLine
 10
-826.480696169
 20
1208.29445722
 30
0.0
 11
-844.598033758
 21
1275.909281602
 31
0.0
  0
ARC
  5
3C9
100
AcDbEntity
  8
GEKO
  6
SOLID
 62
        7
100
AcDbCircle
 10
-608.973479499
 20
1432.018959359
 30
0.0
 40
10.0
100
AcDbArc
 50
319.437366895
 51
15.0
  0
LINE
  5
3CA
100
AcDbEntity
  8
GEKO
  6
SOLID
 62
        7
100
AcDbLine
 10
-601.376523846
 20
1425.516170349
 30
0.0
 11
-601.41443306
 21
1425.471882488
 31
0.0
  0
ARC
  5
3CB
100
AcDbEntity
  8
GEKO
  6
SOLID
 62
        7
100
AcDbCircle
 10
-602.520563062
 20
1438.845973399
 30
0.0
 40
2.0
100
AcDbArc
 50
15.0
 51
105.0
  0
ARC
  5
3CC
100
AcDbEntity
  8
GEKO
  6
SOLID
 62
        7
100
AcDbCircle
 10
-596.856259677
 20
1421.570209083
 30
0.0
 40
6.0
100
AcDbArc
 50
139.437366895
 51
195.0
  0
ARC
  5
3CD
100
AcDbEntity
  8
GEKO
  6
SOLID
 62
        7
100
AcDbCircle
 10
-573.898505164
 20
1362.936625949
 30
0.0
 40
2.0
100
AcDbArc
 50
285.0
 51
15.0
  0
LINE
  5
3CE
100
AcDbEntity
  8
GEKO
  6
SOLID
 62
        7
100
AcDbLine
 10
-919.085407401
 20
1352.9877684
 30
0.0
 11
-921.478400594
 21
1361.918540579
 31
0.0
  0
ARC
  5
3CF
100
AcDbEntity
  8
GEKO
  6
SOLID
 62
        7
100
AcDbCircle
 10
-922.847483353
 20
1374.755433582
 30
0.0
 40
2.0
100
AcDbArc
 50
105.0
 51
179.604187082
  0
LINE
  5
3D0
100
AcDbEntity
  8
GEKO
  6
SOLID
 62
        7
100
AcDbLine
 10
-863.232944441
 20
1345.455715064
 30
0.0
 11
-863.37745821
 21
1345.995047793
 31
0.0
  0
ARC
  5
3D1
100
AcDbEntity
  8
GEKO
  6
SOLID
 62
        7
100
AcDbCircle
 10
-872.341938969
 20
1371.723934526
 30
0.0
 40
3.0
100
AcDbArc
 50
195.0
 51
285.0
  0
LINE
  5
3D2
100
AcDbEntity
  8
GEKO
  6
SOLID
 62
        7
100
AcDbLine
 10
-844.598033758
 20
1275.909281602
 30
0.0
 11
-867.951498186
 21
1363.065597378
 31
0.0
  0
LINE
  5
3D3
100
AcDbEntity
  8
GEKO
  6
SOLID
 62
        7
100
AcDbLine
 10
-881.830310906
 20
1387.816504173
 30
0.0
 11
-900.182901606
 21
1382.898942317
 31
0.0
  0
ARC
  5
3D4
100
AcDbEntity
  8
GEKO
  6
SOLID
 62
        7
100
AcDbCircle
 10
-881.312672822
 20
1385.884652522
 30
0.0
 40
2.0
100
AcDbArc
 50
15.0
 51
105.0
  0
LINE
  5
3D5
100
AcDbEntity
  8
GEKO
  6
SOLID
 62
        7
100
AcDbLine
 10
-875.239716442
 20
1370.94747739
 30
0.0
 11
-879.380821164
 21
1386.402290611
 31
0.0
  0
LINE
  5
3D6
100
AcDbEntity
  8
GEKO
  6
SOLID
 62
        7
100
AcDbLine
 10
-592.861304693
 20
1441.434163876
 30
0.0
 11
-571.966653506
 21
1363.454264038
 31
0.0
  0
LINE
  5
3D7
100
AcDbEntity
  8
GEKO
  6
SOLID
 62
        7
100
AcDbLine
 10
-923.365121437
 20
1376.687285234
 30
0.0
 11
-900.182901606
 21
1382.898942316
 31
0.0
  0
LINE
  5
3D8
100
AcDbEntity
  8
GEKO
  6
SOLID
 62
        7
100
AcDbLine
 10
-595.310794436
 20
1442.848377438
 30
0.0
 11
-871.565481828
 21
1368.826157047
 31
0.0
  0
LINE
  5
3D9
100
AcDbEntity
  8
GEKO
  6
SOLID
 62
        7
100
AcDbLine
 10
-599.314221231
 20
1434.607149809
 30
0.0
 11
-600.588711304
 21
1439.363611515
 31
0.0
  0
LINE
  5
3DA
100
AcDbEntity
  8
GEKO
  6
SOLID
 62
        7
100
AcDbLine
 10
-566.693705352
 20
1285.819804045
 30
0.0
 11
-602.651814629
 21
1420.017294812
 31
0.0
  0
LINE
  5
3DB
100
AcDbEntity
  8
GEKO
  6
SOLID
 62
        7
100
AcDbLine
 10
-573.380867068
 20
1361.004774296
 30
0.0
 11
-585.93790281
 21
1357.640126709
 31
0.0
  0
LINE
  5
3DC
100
AcDbEntity
  8
GEKO
  6
SOLID
 62
        7
100
AcDbLine
 10
-579.832160935
 20
1470.944533739
 30
0.0
 11
-592.151823359
 21
1463.831771362
 31
0.0
  0
LINE
  5
3DD
100
AcDbEntity
  8
GEKO
  6
SOLID
 62
        7
100
AcDbLine
 10
-372.388001808
 20
1024.383360796
 30
0.0
 11
-372.387990654
 21
1039.383360796
 31
0.0
  0
LINE
  5
3DE
100
AcDbEntity
  8
GEKO
  6
SOLID
 62
        7
100
AcDbLine
 10
-378.388002047
 20
1024.383365258
 30
0.0
 11
-378.387990892
 21
1039.383365258
 31
0.0
  0
LINE
  5
3DF
100
AcDbEntity
  8
GEKO
  6
SOLID
 62
        7
100
AcDbLine
 10
-292.388001808
 20
1024.383301305
 30
0.0
 11
-292.387990654
 21
1039.383301305
 31
0.0
  0
LINE
  5
3E0
100
AcDbEntity
  8
GEKO
  6
SOLID
 62
        7
100
AcDbLine
 10
-298.388002047
 20
1024.383305767
 30
0.0
 11
-298.387990892
 21
1039.383305767
 31
0.0
  0
LINE
  5
3E1
100
AcDbEntity
  8
GEKO
  6
SOLID
 62
        7
100
AcDbLine
 10
-358.824049638
 20
1051.883650291
 30
0.0
 11
-391.858629521
 21
1051.883650291
 31
0.0
  0
LINE
  5
3E2
100
AcDbEntity
  8
GEKO
  6
SOLID
 62
        7
100
AcDbLine
 10
-270.538250988
 20
1051.883650291
 30
0.0
 11
-317.569003539
 21
1051.883650291
 31
0.0
  0
CIRCLE
  5
3E3
100
AcDbEntity
  8
GEKO
  6
SOLID
 62
        7
100
AcDbCircle
 10
-385.887981597
 20
1051.883370835
 30
0.0
 40
3.49999994
  0
LINE
  5
3E4
100
AcDbEntity
  8
GEKO
  6
SOLID
 62
        7
100
AcDbLine
 10
-372.387960908
 20
1079.383360796
 30
0.0
 11
-372.387972063
 21
1064.383360796
 31
0.0
  0
LINE
  5
3E5
100
AcDbEntity
  8
GEKO
  6
SOLID
 62
        7
100
AcDbLine
 10
-378.387961147
 20
1079.383365258
 30
0.0
 11
-378.387972301
 21
1064.383365258
 31
0.0
  0
LINE
  5
3E6
100
AcDbEntity
  8
GEKO
  6
SOLID
 62
        7
100
AcDbLine
 10
-292.387960908
 20
1079.383301305
 30
0.0
 11
-292.387972063
 21
1064.383301305
 31
0.0
  0
LINE
  5
3E7
100
AcDbEntity
  8
GEKO
  6
SOLID
 62
        7
100
AcDbLine
 10
-298.387961147
 20
1079.383305767
 30
0.0
 11
-298.387972301
 21
1064.383305767
 31
0.0
  0
CIRCLE
  5
3E8
100
AcDbEntity
  8
GEKO
  6
SOLID
 62
        7
100
AcDbCircle
 10
-305.887981597
 20
1051.883311344
 30
0.0
 40
3.49999994
  0
LINE
  5
3E9
100
AcDbEntity
  8
GEKO
  6
SOLID
 62
        7
100
AcDbLine
 10
-845.429829329
 20
896.884013361
 30
0.0
 11
-715.429829329
 21
896.884013361
 31
0.0
  0
ARC
  5
3EA
100
AcDbEntity
  8
GEKO
  6
SOLID
 62
        7
100
AcDbCircle
 10
-715.429829329
 20
891.884013361
 30
0.0
 40
5.0
100
AcDbArc
 50
0.0
 51
90.0
  0
LINE
  5
3EB
100
AcDbEntity
  8
GEKO
  6
SOLID
 62
        7
100
AcDbLine
 10
-710.429829329
 20
891.884013361
 30
0.0
 11
-650.429829329
 21
891.884013361
 31
0.0
  0
ARC
  5
3EC
100
AcDbEntity
  8
GEKO
  6
SOLID
 62
        7
100
AcDbCircle
 10
-780.429829329
 20
1051.883748948
 30
0.0
 40
180.0
100
AcDbArc
 50
242.733771833
 51
297.266228167
  0
ARC
  5
3ED
100
AcDbEntity
  8
GEKO
  6
SOLID
 62
        7
100
AcDbCircle
 10
-780.429829329
 20
1051.883748948
 30
0.0
 40
180.0
100
AcDbArc
 50
124.944465687
 51
135.558431786
  0
LINE
  5
3EE
100
AcDbEntity
  8
GEKO
  6
CENTER
 62
        7
100
AcDbLine
 10
-863.974910254
 20
949.383764207
 30
0.0
 11
-921.149367173
 21
949.383764207
 31
0.0
  0
LINE
  5
3EF
100
AcDbEntity
  8
GEKO
  6
CENTER
 62
        7
100
AcDbLine
 10
-677.92981325
 20
943.338914714
 30
0.0
 11
-677.92981325
 21
886.164457796
 31
0.0
  0
LINE
  5
3F0
100
AcDbEntity
  8
GEKO
  6
SOLID
 62
        7
100
AcDbLine
 10
-684.92981325
 20
934.88399564
 30
0.0
 11
-677.92981325
 21
938.925447524
 31
0.0
  0
LINE
  5
3F1
100
AcDbEntity
  8
GEKO
  6
SOLID
 62
        7
100
AcDbLine
 10
-670.92981325
 20
934.88399564
 30
0.0
 11
-677.92981325
 21
938.925447524
 31
0.0
  0
LINE
  5
3F2
100
AcDbEntity
  8
GEKO
  6
SOLID
 62
        7
100
AcDbLine
 10
-684.92981325
 20
934.88399564
 30
0.0
 11
-670.92981325
 21
934.88399564
 31
0.0
  0
LINE
  5
3F3
100
AcDbEntity
  8
GEKO
  6
SOLID
 62
        7
100
AcDbLine
 10
-685.92981325
 20
926.88399564
 30
0.0
 11
-669.92981325
 21
926.88399564
 31
0.0
  0
LINE
  5
3F4
100
AcDbEntity
  8
GEKO
  6
SOLID
 62
        7
100
AcDbLine
 10
-684.92981325
 20
934.88399564
 30
0.0
 11
-684.92981325
 21
891.88399564
 31
0.0
  0
LINE
  5
3F5
100
AcDbEntity
  8
GEKO
  6
SOLID
 62
        7
100
AcDbLine
 10
-670.92981325
 20
934.88399564
 30
0.0
 11
-670.92981325
 21
891.88399564
 31
0.0
  0
LINE
  5
3F6
100
AcDbEntity
  8
GEKO
  6
SOLID
 62
        7
100
AcDbLine
 10
-668.92981325
 20
926.88399564
 30
0.0
 11
-668.92981325
 21
891.88399564
 31
0.0
  0
LINE
  5
3F7
100
AcDbEntity
  8
GEKO
  6
SOLID
 62
        7
100
AcDbLine
 10
-686.92981325
 20
926.88399564
 30
0.0
 11
-686.92981325
 21
891.88399564
 31
0.0
  0
LINE
  5
3F8
100
AcDbEntity
  8
GEKO
  6
CENTER
 62
        7
100
AcDbLine
 10
-863.974910254
 20
1154.38373369
 30
0.0
 11
-921.149367173
 21
1154.38373369
 31
0.0
  0
LINE
  5
3F9
100
AcDbEntity
  8
GEKO
  6
SOLID
 62
        7
100
AcDbLine
 10
-872.429829329
 20
1161.38373369
 30
0.0
 11
-868.388377445
 21
1154.38373369
 31
0.0
  0
LINE
  5
3FA
100
AcDbEntity
  8
GEKO
  6
SOLID
 62
        7
100
AcDbLine
 10
-872.429829329
 20
1147.38373369
 30
0.0
 11
-868.388377445
 21
1154.38373369
 31
0.0
  0
LINE
  5
3FB
100
AcDbEntity
  8
GEKO
  6
SOLID
 62
        7
100
AcDbLine
 10
-872.429829329
 20
1161.38373369
 30
0.0
 11
-872.429829329
 21
1147.38373369
 31
0.0
  0
LINE
  5
3FC
100
AcDbEntity
  8
GEKO
  6
SOLID
 62
        7
100
AcDbLine
 10
-880.429829329
 20
1162.38373369
 30
0.0
 11
-880.429829329
 21
1146.38373369
 31
0.0
  0
LINE
  5
3FD
100
AcDbEntity
  8
GEKO
  6
SOLID
 62
        7
100
AcDbLine
 10
-872.429829329
 20
1161.38373369
 30
0.0
 11
-915.429829329
 21
1161.38373369
 31
0.0
  0
LINE
  5
3FE
100
AcDbEntity
  8
GEKO
  6
SOLID
 62
        7
100
AcDbLine
 10
-872.429829329
 20
1147.38373369
 30
0.0
 11
-915.429829329
 21
1147.38373369
 31
0.0
  0
LINE
  5
3FF
100
AcDbEntity
  8
GEKO
  6
SOLID
 62
        7
100
AcDbLine
 10
-880.429829329
 20
1145.38373369
 30
0.0
 11
-915.429829329
 21
1145.38373369
 31
0.0
  0
LINE
  5
400
100
AcDbEntity
  8
GEKO
  6
SOLID
 62
        7
100
AcDbLine
 10
-880.429829329
 20
1163.38373369
 30
0.0
 11
-915.429829329
 21
1163.38373369
 31
0.0
  0
LINE
  5
401
100
AcDbEntity
  8
GEKO
  6
SOLID
 62
        7
100
AcDbLine
 10
-611.865035778
 20
949.38375232
 30
0.0
 11
-554.69057886
 21
949.38375232
 31
0.0
  0
LINE
  5
402
100
AcDbEntity
  8
GEKO
  6
SOLID
 62
        7
100
AcDbLine
 10
-603.410116704
 20
942.38375232
 30
0.0
 11
-607.451568588
 21
949.38375232
 31
0.0
  0
LINE
  5
403
100
AcDbEntity
  8
GEKO
  6
SOLID
 62
        7
100
AcDbLine
 10
-603.410116704
 20
956.38375232
 30
0.0
 11
-607.451568588
 21
949.38375232
 31
0.0
  0
LINE
  5
404
100
AcDbEntity
  8
GEKO
  6
SOLID
 62
        7
100
AcDbLine
 10
-603.410116704
 20
942.38375232
 30
0.0
 11
-603.410116704
 21
956.38375232
 31
0.0
  0
LINE
  5
405
100
AcDbEntity
  8
GEKO
  6
SOLID
 62
        7
100
AcDbLine
 10
-595.410116704
 20
941.38375232
 30
0.0
 11
-595.410116704
 21
957.38375232
 31
0.0
  0
LINE
  5
406
100
AcDbEntity
  8
GEKO
  6
SOLID
 62
        7
100
AcDbLine
 10
-603.410116704
 20
942.38375232
 30
0.0
 11
-560.410116704
 21
942.38375232
 31
0.0
  0
LINE
  5
407
100
AcDbEntity
  8
GEKO
  6
SOLID
 62
        7
100
AcDbLine
 10
-603.410116704
 20
956.38375232
 30
0.0
 11
-560.410116704
 21
956.38375232
 31
0.0
  0
LINE
  5
408
100
AcDbEntity
  8
GEKO
  6
SOLID
 62
        7
100
AcDbLine
 10
-595.410116704
 20
958.38375232
 30
0.0
 11
-560.410116704
 21
958.38375232
 31
0.0
  0
LINE
  5
409
100
AcDbEntity
  8
GEKO
  6
SOLID
 62
        7
100
AcDbLine
 10
-595.410116704
 20
940.38375232
 30
0.0
 11
-560.410116704
 21
940.38375232
 31
0.0
  0
LINE
  5
40A
100
AcDbEntity
  8
GEKO
  6
CENTER
 62
        7
100
AcDbLine
 10
-611.865035778
 20
1154.383737061
 30
0.0
 11
-554.69057886
 21
1154.383737061
 31
0.0
  0
LINE
  5
40B
100
AcDbEntity
  8
GEKO
  6
SOLID
 62
        7
100
AcDbLine
 10
-603.410116704
 20
1147.383737061
 30
0.0
 11
-607.451568588
 21
1154.383737061
 31
0.0
  0
LINE
  5
40C
100
AcDbEntity
  8
GEKO
  6
SOLID
 62
        7
100
AcDbLine
 10
-603.410116704
 20
1161.383737061
 30
0.0
 11
-607.451568588
 21
1154.383737061
 31
0.0
  0
LINE
  5
40D
100
AcDbEntity
  8
GEKO
  6
SOLID
 62
        7
100
AcDbLine
 10
-603.410116704
 20
1147.383737061
 30
0.0
 11
-603.410116704
 21
1161.383737061
 31
0.0
  0
LINE
  5
40E
100
AcDbEntity
  8
GEKO
  6
SOLID
 62
        7
100
AcDbLine
 10
-595.410116704
 20
1146.383737061
 30
0.0
 11
-595.410116704
 21
1162.383737061
 31
0.0
  0
LINE
  5
40F
100
AcDbEntity
  8
GEKO
  6
SOLID
 62
        7
100
AcDbLine
 10
-603.410116704
 20
1147.383737061
 30
0.0
 11
-560.410116704
 21
1147.383737061
 31
0.0
  0
LINE
  5
410
100
AcDbEntity
  8
GEKO
  6
SOLID
 62
        7
100
AcDbLine
 10
-603.410116704
 20
1161.383737061
 30
0.0
 11
-560.410116704
 21
1161.383737061
 31
0.0
  0
LINE
  5
411
100
AcDbEntity
  8
GEKO
  6
SOLID
 62
        7
100
AcDbLine
 10
-595.410116704
 20
1163.383737061
 30
0.0
 11
-560.410116704
 21
1163.383737061
 31
0.0
  0
LINE
  5
412
100
AcDbEntity
  8
GEKO
  6
SOLID
 62
        7
100
AcDbLine
 10
-595.410116704
 20
1145.383737061
 30
0.0
 11
-560.410116704
 21
1145.383737061
 31
0.0
  0
LINE
  5
413
100
AcDbEntity
  8
GEKO
  6
CENTER
 62
        7
100
AcDbLine
 10
-882.92981325
 20
943.338914714
 30
0.0
 11
-882.92981325
 21
886.164457796
 31
0.0
  0
LINE
  5
414
100
AcDbEntity
  8
GEKO
  6
SOLID
 62
        7
100
AcDbLine
 10
-889.92981325
 20
934.88399564
 30
0.0
 11
-882.92981325
 21
938.925447524
 31
0.0
  0
LINE
  5
415
100
AcDbEntity
  8
GEKO
  6
SOLID
 62
        7
100
AcDbLine
 10
-875.92981325
 20
934.88399564
 30
0.0
 11
-882.92981325
 21
938.925447524
 31
0.0
  0
LINE
  5
416
100
AcDbEntity
  8
GEKO
  6
SOLID
 62
        7
100
AcDbLine
 10
-889.92981325
 20
934.88399564
 30
0.0
 11
-875.92981325
 21
934.88399564
 31
0.0
  0
LINE
  5
417
100
AcDbEntity
  8
GEKO
  6
SOLID
 62
        7
100
AcDbLine
 10
-890.92981325
 20
926.88399564
 30
0.0
 11
-874.92981325
 21
926.88399564
 31
0.0
  0
LINE
  5
418
100
AcDbEntity
  8
GEKO
  6
SOLID
 62
        7
100
AcDbLine
 10
-889.92981325
 20
934.88399564
 30
0.0
 11
-889.92981325
 21
891.88399564
 31
0.0
  0
LINE
  5
419
100
AcDbEntity
  8
GEKO
  6
SOLID
 62
        7
100
AcDbLine
 10
-875.92981325
 20
934.88399564
 30
0.0
 11
-875.92981325
 21
891.88399564
 31
0.0
  0
LINE
  5
41A
100
AcDbEntity
  8
GEKO
  6
SOLID
 62
        7
100
AcDbLine
 10
-873.92981325
 20
926.88399564
 30
0.0
 11
-873.92981325
 21
891.88399564
 31
0.0
  0
LINE
  5
41B
100
AcDbEntity
  8
GEKO
  6
SOLID
 62
        7
100
AcDbLine
 10
-891.92981325
 20
926.88399564
 30
0.0
 11
-891.92981325
 21
891.88399564
 31
0.0
  0
LINE
  5
41C
100
AcDbEntity
  8
GEKO
  6
SOLID
 62
        7
100
AcDbLine
 10
-872.429829329
 20
956.383748948
 30
0.0
 11
-868.388377445
 21
949.383748948
 31
0.0
  0
LINE
  5
41D
100
AcDbEntity
  8
GEKO
  6
SOLID
 62
        7
100
AcDbLine
 10
-872.429829329
 20
942.383748948
 30
0.0
 11
-868.388377445
 21
949.383748948
 31
0.0
  0
LINE
  5
41E
100
AcDbEntity
  8
GEKO
  6
SOLID
 62
        7
100
AcDbLine
 10
-872.429829329
 20
956.383748948
 30
0.0
 11
-872.429829329
 21
942.383748948
 31
0.0
  0
LINE
  5
41F
100
AcDbEntity
  8
GEKO
  6
SOLID
 62
        7
100
AcDbLine
 10
-880.429829329
 20
957.383748948
 30
0.0
 11
-880.429829329
 21
941.383748948
 31
0.0
  0
LINE
  5
420
100
AcDbEntity
  8
GEKO
  6
SOLID
 62
        7
100
AcDbLine
 10
-872.429829329
 20
956.383748948
 30
0.0
 11
-915.429829329
 21
956.383748948
 31
0.0
  0
LINE
  5
421
100
AcDbEntity
  8
GEKO
  6
SOLID
 62
        7
100
AcDbLine
 10
-560.410117386
 20
1181.883748948
 30
0.0
 11
-560.410117386
 21
1121.883748948
 31
0.0
  0
LINE
  5
422
100
AcDbEntity
  8
GEKO
  6
SOLID
 62
        7
100
AcDbLine
 10
-872.429829329
 20
942.383748948
 30
0.0
 11
-915.429829329
 21
942.383748948
 31
0.0
  0
ARC
  5
423
100
AcDbEntity
  8
GEKO
  6
SOLID
 62
        7
100
AcDbCircle
 10
-563.430103271
 20
986.883748948
 30
0.0
 40
5.0
100
AcDbArc
 50
180.0
 51
270.0
  0
LINE
  5
424
100
AcDbEntity
  8
GEKO
  6
SOLID
 62
        7
100
AcDbLine
 10
-563.430103271
 20
981.883748948
 30
0.0
 11
-560.410117386
 21
981.883748948
 31
0.0
  0
ARC
  5
425
100
AcDbEntity
  8
GEKO
  6
SOLID
 62
        7
100
AcDbCircle
 10
-563.430103271
 20
1116.883748948
 30
0.0
 40
5.0
100
AcDbArc
 50
90.0
 51
180.0
  0
LINE
  5
426
100
AcDbEntity
  8
GEKO
  6
SOLID
 62
        7
100
AcDbLine
 10
-564.368559085
 20
921.883748948
 30
0.0
 11
-560.410117386
 21
921.883748948
 31
0.0
  0
LINE
  5
427
100
AcDbEntity
  8
GEKO
  6
SOLID
 62
        7
100
AcDbLine
 10
-845.429829329
 20
896.884013361
 30
0.0
 11
-715.429829329
 21
896.884013361
 31
0.0
  0
LINE
  5
428
100
AcDbEntity
  8
GEKO
  6
SOLID
 62
        7
100
AcDbLine
 10
-563.430103271
 20
1121.883748948
 30
0.0
 11
-560.410117386
 21
1121.883748948
 31
0.0
  0
ARC
  5
429
100
AcDbEntity
  8
GEKO
  6
SOLID
 62
        7
100
AcDbCircle
 10
-715.429829329
 20
891.884013361
 30
0.0
 40
5.0
100
AcDbArc
 50
0.0
 51
90.0
  0
LINE
  5
42A
100
AcDbEntity
  8
GEKO
  6
SOLID
 62
        7
100
AcDbLine
 10
-710.429829329
 20
891.884013361
 30
0.0
 11
-650.429829329
 21
891.884013361
 31
0.0
  0
LINE
  5
42B
100
AcDbEntity
  8
GEKO
  6
SOLID
 62
        7
100
AcDbLine
 10
-560.410117386
 20
981.883748948
 30
0.0
 11
-560.410117386
 21
921.883748948
 31
0.0
  0
LINE
  5
42C
100
AcDbEntity
  8
GEKO
  6
SOLID
 62
        7
100
AcDbLine
 10
-915.429829329
 20
1176.178415934
 30
0.0
 11
-915.429829329
 21
1151.883748948
 31
0.0
  0
ARC
  5
42D
100
AcDbEntity
  8
GEKO
  6
SOLID
 62
        7
100
AcDbCircle
 10
-915.429829329
 20
1116.883748948
 30
0.0
 40
5.0
100
AcDbArc
 50
0.0
 51
90.0
  0
LINE
  5
42E
100
AcDbEntity
  8
GEKO
  6
SOLID
 62
        7
100
AcDbLine
 10
-880.429829329
 20
958.383748948
 30
0.0
 11
-915.429829329
 21
958.383748948
 31
0.0
  0
LINE
  5
42F
100
AcDbEntity
  8
GEKO
  6
SOLID
 62
        7
100
AcDbLine
 10
-880.429829329
 20
940.383748948
 30
0.0
 11
-915.429829329
 21
940.383748948
 31
0.0
  0
LINE
  5
430
100
AcDbEntity
  8
GEKO
  6
SOLID
 62
        7
100
AcDbLine
 10
-568.430103271
 20
1116.883748948
 30
0.0
 11
-568.430103271
 21
986.883748948
 31
0.0
  0
LINE
  5
431
100
AcDbEntity
  8
GEKO
  6
SOLID
 62
        7
100
AcDbLine
 10
-915.429829329
 20
1121.883748948
 30
0.0
 11
-915.429829329
 21
1151.88373369
 31
0.0
  0
ARC
  5
432
100
AcDbEntity
  8
GEKO
  6
SOLID
 62
        7
100
AcDbCircle
 10
-845.429829329
 20
891.884013361
 30
0.0
 40
5.0
100
AcDbArc
 50
90.0
 51
180.0
  0
LINE
  5
433
100
AcDbEntity
  8
GEKO
  6
SOLID
 62
        7
100
AcDbLine
 10
-568.430103271
 20
1265.254090125
 30
0.0
 11
-568.430103271
 21
1186.883748948
 31
0.0
  0
LINE
  5
434
100
AcDbEntity
  8
GEKO
  6
SOLID
 62
        7
100
AcDbLine
 10
-910.429829329
 20
1116.883748948
 30
0.0
 11
-910.429829329
 21
986.883748948
 31
0.0
  0
ARC
  5
435
100
AcDbEntity
  8
GEKO
  6
SOLID
 62
        7
100
AcDbCircle
 10
-915.429829329
 20
986.883748948
 30
0.0
 40
5.0
100
AcDbArc
 50
270.0
 51
360.0
  0
LINE
  5
436
100
AcDbEntity
  8
GEKO
  6
SOLID
 62
        7
100
AcDbLine
 10
-915.429829329
 20
981.883748948
 30
0.0
 11
-915.429829329
 21
921.883748948
 31
0.0
  0
LINE
  5
437
100
AcDbEntity
  8
GEKO
  6
SOLID
 62
        7
100
AcDbLine
 10
-910.429829329
 20
891.884013361
 30
0.0
 11
-850.429829329
 21
891.884013361
 31
0.0
  0
ARC
  5
438
100
AcDbEntity
  8
GEKO
  6
SOLID
 62
        7
100
AcDbCircle
 10
-915.429829329
 20
916.883748948
 30
0.0
 40
5.0
100
AcDbArc
 50
0.0
 51
90.0
  0
ARC
  5
439
100
AcDbEntity
  8
GEKO
  6
SOLID
 62
        7
100
AcDbCircle
 10
-563.430103271
 20
1186.883748948
 30
0.0
 40
5.0
100
AcDbArc
 50
180.0
 51
270.0
  0
LINE
  5
43A
100
AcDbEntity
  8
GEKO
  6
SOLID
 62
        7
100
AcDbLine
 10
-563.430103271
 20
1181.883748948
 30
0.0
 11
-560.410117386
 21
1181.883748948
 31
0.0
  0
LINE
  5
43B
100
AcDbEntity
  8
GEKO
  6
SOLID
 62
        7
100
AcDbLine
 10
-910.429829329
 20
916.883748948
 30
0.0
 11
-910.429829329
 21
891.884013361
 31
0.0
  0
LINE
  5
43C
100
AcDbEntity
  8
GEKO
  6
SOLID
 62
        7
100
AcDbLine
 10
-1113.732750323
 20
1051.883748948
 30
0.0
 11
-1154.656378122
 21
1051.883748948
 31
0.0
  0
LINE
  5
43D
100
AcDbEntity
  8
GEKO
  6
CENTER
 62
        7
100
AcDbLine
 10
-780.429829329
 20
800.875259708
 30
0.0
 11
-780.429829329
 21
727.812619283
 31
0.0
  0
ARC
  5
43E
100
AcDbEntity
  8
GEKO
  6
L_DASH
 62
        7
100
AcDbCircle
 10
-780.429829329
 20
1051.883748948
 30
0.0
 40
180.0
100
AcDbArc
 50
221.409622109
 51
242.733771833
  0
LINE
  5
43F
100
AcDbEntity
  8
GEKO
  6
SOLID
 62
        7
100
AcDbLine
 10
-914.430049724
 20
1014.883766084
 30
0.0
 11
-910.430049724
 21
1014.883766367
 31
0.0
  0
LINE
  5
440
100
AcDbEntity
  8
GEKO
  6
SOLID
 62
        7
100
AcDbLine
 10
-914.43004788
 20
988.883765338
 30
0.0
 11
-910.43004788
 21
988.883765621
 31
0.0
  0
LINE
  5
441
100
AcDbEntity
  8
GEKO
  6
SOLID
 62
        7
100
AcDbLine
 10
-915.430054419
 20
989.883765318
 30
0.0
 11
-915.430056121
 21
1013.883765318
 31
0.0
  0
LINE
  5
442
100
AcDbEntity
  8
GEKO
  6
SOLID
 62
        7
100
AcDbLine
 10
-915.430054419
 20
989.883765296
 30
0.0
 11
-914.430054348
 21
988.883765367
 31
0.0
  0
LINE
  5
443
100
AcDbEntity
  8
GEKO
  6
SOLID
 62
        7
100
AcDbLine
 10
-914.430056163
 20
1014.883766084
 30
0.0
 11
-915.430056092
 21
1013.883766013
 31
0.0
  0
ARC
  5
444
100
AcDbEntity
  8
GEKO
  6
SOLID
 62
        7
100
AcDbCircle
 10
-771.429877665
 20
1111.204908411
 30
0.0
 40
5.0
100
AcDbArc
 50
180.0
 51
261.373073441
  0
ARC
  5
445
100
AcDbEntity
  8
GEKO
  6
SOLID
 62
        7
100
AcDbCircle
 10
-789.429877665
 20
1111.204908411
 30
0.0
 40
5.0
100
AcDbArc
 50
278.626926559
 51
0.0
  0
ARC
  5
446
100
AcDbEntity
  8
GEKO
  6
SOLID
 62
        7
100
AcDbCircle
 10
-827.303509034
 20
1089.338557145
 30
0.0
 40
5.0
100
AcDbArc
 50
240.0
 51
321.373073441
  0
ARC
  5
447
100
AcDbEntity
  8
GEKO
  6
SOLID
 62
        7
100
AcDbCircle
 10
-836.303509034
 20
1073.750099877
 30
0.0
 40
5.0
100
AcDbArc
 50
338.626926559
 51
60.0
  0
ARC
  5
448
100
AcDbEntity
  8
GEKO
  6
SOLID
 62
        7
100
AcDbCircle
 10
-836.303509034
 20
1030.017397345
 30
0.0
 40
5.0
100
AcDbArc
 50
300.0
 51
21.373073441
  0
ARC
  5
449
100
AcDbEntity
  8
GEKO
  6
SOLID
 62
        7
100
AcDbCircle
 10
-827.303509034
 20
1014.428940077
 30
0.0
 40
5.0
100
AcDbArc
 50
38.626926559
 51
120.0
  0
ARC
  5
44A
100
AcDbEntity
  8
GEKO
  6
SOLID
 62
        7
100
AcDbCircle
 10
-789.429877665
 20
992.562588811
 30
0.0
 40
5.0
100
AcDbArc
 50
0.0
 51
81.373073441
  0
ARC
  5
44B
100
AcDbEntity
  8
GEKO
  6
SOLID
 62
        7
100
AcDbCircle
 10
-771.429877665
 20
992.562588811
 30
0.0
 40
5.0
100
AcDbArc
 50
98.626926559
 51
180.0
  0
ARC
  5
44C
100
AcDbEntity
  8
GEKO
  6
SOLID
 62
        7
100
AcDbCircle
 10
-733.556246296
 20
1014.428940077
 30
0.0
 40
5.0
100
AcDbArc
 50
60.0
 51
141.373073441
  0
ARC
  5
44D
100
AcDbEntity
  8
GEKO
  6
SOLID
 62
        7
100
AcDbCircle
 10
-724.556246296
 20
1030.017397345
 30
0.0
 40
5.0
100
AcDbArc
 50
158.626926559
 51
240.0
  0
ARC
  5
44E
100
AcDbEntity
  8
GEKO
  6
SOLID
 62
        7
100
AcDbCircle
 10
-724.556246296
 20
1073.750099877
 30
0.0
 40
5.0
100
AcDbArc
 50
120.0
 51
201.373073441
  0
ARC
  5
44F
100
AcDbEntity
  8
GEKO
  6
SOLID
 62
        7
100
AcDbCircle
 10
-733.556246296
 20
1089.338557145
 30
0.0
 40
5.0
100
AcDbArc
 50
218.626926559
 51
300.0
  0
ARC
  5
450
100
AcDbEntity
  8
GEKO
  6
SOLID
 62
        7
100
AcDbCircle
 10
-771.429877665
 20
1148.967475363
 30
0.0
 40
5.0
100
AcDbArc
 50
84.703619088
 51
180.0
  0
ARC
  5
451
100
AcDbEntity
  8
GEKO
  6
SOLID
 62
        7
100
AcDbCircle
 10
-789.429877665
 20
1148.967475363
 30
0.0
 40
5.0
100
AcDbArc
 50
0.0
 51
95.296380912
  0
ARC
  5
452
100
AcDbEntity
  8
GEKO
  6
SOLID
 62
        7
100
AcDbCircle
 10
-860.006851326
 20
1108.219840621
 30
0.0
 40
5.0
100
AcDbArc
 50
144.703619088
 51
240.0
  0
ARC
  5
453
100
AcDbEntity
  8
GEKO
  6
SOLID
 62
        7
100
AcDbCircle
 10
-869.006851326
 20
1092.631383353
 30
0.0
 40
5.0
100
AcDbArc
 50
60.0
 51
155.296380912
  0
LINE
  5
454
100
AcDbEntity
  8
GEKO
  6
SOLID
 62
        7
100
AcDbLine
 10
-910.429877665
 20
999.922224384
 30
0.0
 11
-910.429877665
 21
1103.845272838
 31
0.0
  0
CIRCLE
  5
455
100
AcDbEntity
  8
GEKO
  6
SOLID
 62
        7
100
AcDbCircle
 10
-780.429877665
 20
1051.883748611
 30
0.0
 40
40.0
  0
ARC
  5
456
100
AcDbEntity
  8
GEKO
  6
SOLID
 62
        7
100
AcDbCircle
 10
-780.429877665
 20
1051.883748611
 30
0.0
 40
55.0
100
AcDbArc
 50
98.626926559
 51
141.373073441
  0
ARC
  5
457
100
AcDbEntity
  8
GEKO
  6
SOLID
 62
        7
100
AcDbCircle
 10
-780.429877665
 20
1051.883748611
 30
0.0
 40
102.5
100
AcDbArc
 50
95.296380912
 51
144.703619088
  0
ARC
  5
458
100
AcDbEntity
  8
GEKO
  6
CENTER
 62
        7
100
AcDbCircle
 10
-780.429877665
 20
1051.883748611
 30
0.0
 40
130.0
100
AcDbArc
 50
325.296871235
 51
335.006955124
  0
ARC
  5
459
100
AcDbEntity
  8
GEKO
  6
CENTER
 62
        7
100
AcDbCircle
 10
-780.429877665
 20
1051.883748611
 30
0.0
 40
130.0
100
AcDbArc
 50
265.296871235
 51
275.006955124
  0
ARC
  5
45A
100
AcDbEntity
  8
GEKO
  6
CENTER
 62
        7
100
AcDbCircle
 10
-780.429877665
 20
1051.883748611
 30
0.0
 40
130.0
100
AcDbArc
 50
205.296871235
 51
215.006955124
  0
ARC
  5
45B
100
AcDbEntity
  8
GEKO
  6
SOLID
 62
        7
100
AcDbCircle
 10
-780.429877665
 20
1051.883748611
 30
0.0
 40
130.0
100
AcDbArc
 50
145.296871235
 51
155.006955124
  0
ARC
  5
45C
100
AcDbEntity
  8
GEKO
  6
CENTER
 62
        7
100
AcDbCircle
 10
-780.429877665
 20
1051.883748611
 30
0.0
 40
130.0
100
AcDbArc
 50
85.296871235
 51
95.006955124
  0
ARC
  5
45D
100
AcDbEntity
  8
GEKO
  6
CENTER
 62
        7
100
AcDbCircle
 10
-780.429877665
 20
1051.883748611
 30
0.0
 40
130.0
100
AcDbArc
 50
25.296871235
 51
35.006955124
  0
ARC
  5
45E
100
AcDbEntity
  8
GEKO
  6
SOLID
 62
        7
100
AcDbCircle
 10
-780.429877665
 20
1051.883748611
 30
0.0
 40
55.0
100
AcDbArc
 50
158.626926559
 51
201.373073441
  0
ARC
  5
45F
100
AcDbEntity
  8
GEKO
  6
SOLID
 62
        7
100
AcDbCircle
 10
-780.429877665
 20
1051.883748611
 30
0.0
 40
102.5
100
AcDbArc
 50
155.296380912
 51
204.703619088
  0
ARC
  5
460
100
AcDbEntity
  8
GEKO
  6
SOLID
 62
        7
100
AcDbCircle
 10
-780.429877665
 20
1051.883748611
 30
0.0
 40
55.0
100
AcDbArc
 50
218.626926559
 51
261.373073441
  0
ARC
  5
461
100
AcDbEntity
  8
GEKO
  6
SOLID
 62
        7
100
AcDbCircle
 10
-780.429877665
 20
1051.883748611
 30
0.0
 40
102.5
100
AcDbArc
 50
215.296380912
 51
264.703619088
  0
ARC
  5
462
100
AcDbEntity
  8
GEKO
  6
SOLID
 62
        7
100
AcDbCircle
 10
-780.429877665
 20
1051.883748611
 30
0.0
 40
55.0
100
AcDbArc
 50
278.626926559
 51
321.373073441
  0
ARC
  5
463
100
AcDbEntity
  8
GEKO
  6
SOLID
 62
        7
100
AcDbCircle
 10
-780.429877665
 20
1051.883748611
 30
0.0
 40
102.5
100
AcDbArc
 50
275.296380912
 51
324.703619088
  0
ARC
  5
464
100
AcDbEntity
  8
GEKO
  6
SOLID
 62
        7
100
AcDbCircle
 10
-780.429877665
 20
1051.883748611
 30
0.0
 40
55.0
100
AcDbArc
 50
338.626926559
 51
21.373073441
  0
ARC
  5
465
100
AcDbEntity
  8
GEKO
  6
SOLID
 62
        7
100
AcDbCircle
 10
-780.429877665
 20
1051.883748611
 30
0.0
 40
102.5
100
AcDbArc
 50
335.296380912
 51
24.703619088
  0
ARC
  5
466
100
AcDbEntity
  8
GEKO
  6
SOLID
 62
        7
100
AcDbCircle
 10
-780.429877665
 20
1051.883748611
 30
0.0
 40
55.0
100
AcDbArc
 50
38.626926559
 51
81.373073441
  0
ARC
  5
467
100
AcDbEntity
  8
GEKO
  6
SOLID
 62
        7
100
AcDbCircle
 10
-780.429877665
 20
1051.883748611
 30
0.0
 40
102.5
100
AcDbArc
 50
35.296380912
 51
84.703619088
  0
LINE
  5
468
100
AcDbEntity
  8
GEKO
  6
CENTER
 62
        7
100
AcDbLine
 10
-663.201597547
 20
1119.565527694
 30
0.0
 11
-673.101038364
 21
1113.850082873
 31
0.0
  0
LINE
  5
469
100
AcDbEntity
  8
GEKO
  6
CENTER
 62
        7
100
AcDbLine
 10
-662.549172277
 20
983.825291623
 30
0.0
 11
-675.449758982
 21
991.27344883
 31
0.0
  0
ARC
  5
46A
100
AcDbEntity
  8
GEKO
  6
SOLID
 62
        7
100
AcDbCircle
 10
-780.429877665
 20
1051.883748611
 30
0.0
 40
140.0
100
AcDbArc
 50
201.786789298
 51
158.213210702
  0
LINE
  5
46B
100
AcDbEntity
  8
GEKO
  6
CENTER
 62
        7
100
AcDbLine
 10
-897.76532817
 20
984.140094676
 30
0.0
 11
-888.581101099
 21
989.442610648
 31
0.0
  0
LINE
  5
46C
100
AcDbEntity
  8
GEKO
  6
SOLID
 62
        7
100
AcDbLine
 10
-899.811763892
 20
1120.80891276
 30
0.0
 11
-887.102818132
 21
1113.471399505
 31
0.0
  0
LINE
  5
46D
100
AcDbEntity
  8
GEKO
  6
SOLID
 62
        7
100
AcDbLine
 10
-772.389847948
 20
1177.33488955
 30
0.0
 11
-772.470415782
 21
1186.572142339
 31
0.0
  0
LINE
  5
46E
100
AcDbEntity
  8
GEKO
  6
SOLID
 62
        7
100
AcDbLine
 10
-780.349259808
 20
1172.646489329
 30
0.0
 11
-772.389848185
 21
1177.334889577
 31
0.0
  0
LINE
  5
46F
100
AcDbEntity
  8
GEKO
  6
SOLID
 62
        7
100
AcDbLine
 10
-788.389239504
 20
1177.195341963
 30
0.0
 11
-780.349260045
 21
1172.646489298
 31
0.0
  0
LINE
  5
470
100
AcDbEntity
  8
GEKO
  6
SOLID
 62
        7
100
AcDbLine
 10
-788.469807339
 20
1186.432594819
 30
0.0
 11
-788.389239504
 21
1177.19534203
 31
0.0
  0
LINE
  5
471
100
AcDbEntity
  8
GEKO
  6
SOLID
 62
        7
100
AcDbLine
 10
-780.510395479
 20
1191.12099504
 30
0.0
 11
-788.469807102
 21
1186.432594792
 31
0.0
  0
LINE
  5
472
100
AcDbEntity
  8
GEKO
  6
SOLID
 62
        7
100
AcDbLine
 10
-772.470415783
 20
1186.572142405
 30
0.0
 11
-780.510395242
 21
1191.120995071
 31
0.0
  0
LINE
  5
473
100
AcDbEntity
  8
GEKO
  6
SOLID
 62
        7
100
AcDbLine
 10
-884.973170029
 20
1112.334936082
 30
0.0
 11
-885.053737935
 21
1121.57218887
 31
0.0
  0
LINE
  5
474
100
AcDbEntity
  8
GEKO
  6
SOLID
 62
        7
100
AcDbLine
 10
-892.932581816
 20
1107.646535737
 30
0.0
 11
-884.97317012
 21
1112.334935861
 31
0.0
  0
LINE
  5
475
100
AcDbEntity
  8
GEKO
  6
SOLID
 62
        7
100
AcDbLine
 10
-900.972561368
 20
1112.195388373
 30
0.0
 11
-892.932581874
 21
1107.64653577
 31
0.0
  0
LINE
  5
476
100
AcDbEntity
  8
GEKO
  6
SOLID
 62
        7
100
AcDbLine
 10
-901.053129132
 20
1121.432641354
 30
0.0
 11
-900.972561226
 21
1112.195388565
 31
0.0
  0
LINE
  5
477
100
AcDbEntity
  8
GEKO
  6
SOLID
 62
        7
100
AcDbLine
 10
-885.053737793
 20
1121.572189063
 30
0.0
 11
-893.093717287
 21
1126.121041666
 31
0.0
  0
LINE
  5
478
100
AcDbEntity
  8
GEKO
  6
SOLID
 62
        7
100
AcDbLine
 10
-893.093717345
 20
1126.121041698
 30
0.0
 11
-901.053129041
 21
1121.432641574
 31
0.0
  0
LINE
  5
479
100
AcDbEntity
  8
GEKO
  6
SOLID
 62
        7
100
AcDbLine
 10
-885.053787885
 20
991.572195364
 30
0.0
 11
-893.093767415
 21
996.121047905
 31
0.0
  0
LINE
  5
47A
100
AcDbEntity
  8
GEKO
  6
SOLID
 62
        7
100
AcDbLine
 10
-884.973219977
 20
982.334942385
 30
0.0
 11
-885.05378774
 21
991.572195175
 31
0.0
  0
LINE
  5
47B
100
AcDbEntity
  8
GEKO
  6
SOLID
 62
        7
100
AcDbLine
 10
-892.932631694
 20
977.646542165
 30
0.0
 11
-884.973220035
 21
982.334942351
 31
0.0
  0
LINE
  5
47C
100
AcDbEntity
  8
GEKO
  6
SOLID
 62
        7
100
AcDbLine
 10
-900.972611319
 20
982.195394924
 30
0.0
 11
-892.93263179
 21
977.646542384
 31
0.0
  0
LINE
  5
47D
100
AcDbEntity
  8
GEKO
  6
SOLID
 62
        7
100
AcDbLine
 10
-893.09376751
 20
996.121048124
 30
0.0
 11
-901.05317917
 21
991.432647938
 31
0.0
  0
LINE
  5
47E
100
AcDbEntity
  8
GEKO
  6
SOLID
 62
        7
100
AcDbLine
 10
-901.053179227
 20
991.432647904
 30
0.0
 11
-900.972611464
 21
982.195395114
 31
0.0
  0
LINE
  5
47F
100
AcDbEntity
  8
GEKO
  6
CENTER
 62
        7
100
AcDbLine
 10
-780.429829329
 20
1270.568566356
 30
0.0
 11
-780.429829329
 21
848.85669521
 31
0.0
  0
LINE
  5
480
100
AcDbEntity
  8
GEKO
  6
SOLID
 62
        7
100
AcDbLine
 10
-780.510495522
 20
931.121007893
 30
0.0
 11
-788.469907145
 21
926.432607645
 31
0.0
  0
LINE
  5
481
100
AcDbEntity
  8
GEKO
  6
SOLID
 62
        7
100
AcDbLine
 10
-772.470515826
 20
926.572155259
 30
0.0
 11
-780.510495285
 21
931.121007924
 31
0.0
  0
LINE
  5
482
100
AcDbEntity
  8
GEKO
  6
SOLID
 62
        7
100
AcDbLine
 10
-772.389947991
 20
917.334902403
 30
0.0
 11
-772.470515826
 21
926.572155192
 31
0.0
  0
LINE
  5
483
100
AcDbEntity
  8
GEKO
  6
SOLID
 62
        7
100
AcDbLine
 10
-780.349359852
 20
912.646502182
 30
0.0
 11
-772.389948229
 21
917.33490243
 31
0.0
  0
LINE
  5
484
100
AcDbEntity
  8
GEKO
  6
SOLID
 62
        7
100
AcDbLine
 10
-788.469907382
 20
926.432607672
 30
0.0
 11
-788.389339548
 21
917.195354883
 31
0.0
  0
LINE
  5
485
100
AcDbEntity
  8
GEKO
  6
SOLID
 62
        7
100
AcDbLine
 10
-788.389339547
 20
917.195354817
 30
0.0
 11
-780.349360088
 21
912.646502151
 31
0.0
  0
LINE
  5
486
100
AcDbEntity
  8
GEKO
  6
SOLID
 62
        7
100
AcDbLine
 10
-675.886585301
 20
991.43256114
 30
0.0
 11
-675.806017395
 21
982.195308352
 31
0.0
  0
LINE
  5
487
100
AcDbEntity
  8
GEKO
  6
SOLID
 62
        7
100
AcDbLine
 10
-667.927173514
 20
996.120961485
 30
0.0
 11
-675.88658521
 21
991.432561361
 31
0.0
  0
LINE
  5
488
100
AcDbEntity
  8
GEKO
  6
SOLID
 62
        7
100
AcDbLine
 10
-659.887193962
 20
991.572108849
 30
0.0
 11
-667.927173456
 21
996.120961452
 31
0.0
  0
LINE
  5
489
100
AcDbEntity
  8
GEKO
  6
SOLID
 62
        7
100
AcDbLine
 10
-659.806626198
 20
982.334855868
 30
0.0
 11
-659.887194104
 21
991.572108657
 31
0.0
  0
LINE
  5
48A
100
AcDbEntity
  8
GEKO
  6
SOLID
 62
        7
100
AcDbLine
 10
-675.806017537
 20
982.195308159
 30
0.0
 11
-667.766038043
 21
977.646455556
 31
0.0
  0
LINE
  5
48B
100
AcDbEntity
  8
GEKO
  6
SOLID
 62
        7
100
AcDbLine
 10
-667.766037985
 20
977.646455524
 30
0.0
 11
-659.806626289
 21
982.334855648
 31
0.0
  0
LINE
  5
48C
100
AcDbEntity
  8
GEKO
  6
SOLID
 62
        7
100
AcDbLine
 10
-675.805967445
 20
1112.195301858
 30
0.0
 11
-667.765987915
 21
1107.646449317
 31
0.0
  0
LINE
  5
48D
100
AcDbEntity
  8
GEKO
  6
SOLID
 62
        7
100
AcDbLine
 10
-675.886535353
 20
1121.432554837
 30
0.0
 11
-675.80596759
 21
1112.195302047
 31
0.0
  0
LINE
  5
48E
100
AcDbEntity
  8
GEKO
  6
SOLID
 62
        7
100
AcDbLine
 10
-667.927123636
 20
1126.120955057
 30
0.0
 11
-675.886535295
 21
1121.432554871
 31
0.0
  0
LINE
  5
48F
100
AcDbEntity
  8
GEKO
  6
SOLID
 62
        7
100
AcDbLine
 10
-659.887144011
 20
1121.572102298
 30
0.0
 11
-667.927123541
 21
1126.120954838
 31
0.0
  0
LINE
  5
490
100
AcDbEntity
  8
GEKO
  6
SOLID
 62
        7
100
AcDbLine
 10
-667.76598782
 20
1107.646449098
 30
0.0
 11
-659.80657616
 21
1112.334849284
 31
0.0
  0
LINE
  5
491
100
AcDbEntity
  8
GEKO
  6
SOLID
 62
        7
100
AcDbLine
 10
-659.806576103
 20
1112.334849318
 30
0.0
 11
-659.887143866
 21
1121.572102108
 31
0.0
  0
LINE
  5
492
100
AcDbEntity
  8
GEKO
  6
SOLID
 62
        7
100
AcDbLine
 10
-829.803509034
 20
1018.759067096
 30
0.0
 11
-862.506851326
 21
999.87778362
 31
0.0
  0
LINE
  5
493
100
AcDbEntity
  8
GEKO
  6
SOLID
 62
        7
100
AcDbLine
 10
-833.803509034
 20
1025.687270326
 30
0.0
 11
-866.506851326
 21
1006.80598685
 31
0.0
  0
LINE
  5
494
100
AcDbEntity
  8
GEKO
  6
SOLID
 62
        7
100
AcDbLine
 10
-776.429877665
 20
992.562588811
 30
0.0
 11
-776.429877665
 21
954.800021859
 31
0.0
  0
LINE
  5
495
100
AcDbEntity
  8
GEKO
  6
SOLID
 62
        7
100
AcDbLine
 10
-784.429877665
 20
992.562588811
 30
0.0
 11
-784.429877665
 21
954.800021859
 31
0.0
  0
LINE
  5
496
100
AcDbEntity
  8
GEKO
  6
SOLID
 62
        7
100
AcDbLine
 10
-727.056246296
 20
1025.687270326
 30
0.0
 11
-694.352904004
 21
1006.80598685
 31
0.0
  0
LINE
  5
497
100
AcDbEntity
  8
GEKO
  6
SOLID
 62
        7
100
AcDbLine
 10
-731.056246296
 20
1018.759067096
 30
0.0
 11
-698.352904004
 21
999.87778362
 31
0.0
  0
LINE
  5
498
100
AcDbEntity
  8
GEKO
  6
SOLID
 62
        7
100
AcDbLine
 10
-731.056246296
 20
1085.008430126
 30
0.0
 11
-698.352904004
 21
1103.889713602
 31
0.0
  0
LINE
  5
499
100
AcDbEntity
  8
GEKO
  6
SOLID
 62
        7
100
AcDbLine
 10
-727.056246296
 20
1078.080226896
 30
0.0
 11
-694.352904004
 21
1096.961510372
 31
0.0
  0
LINE
  5
49A
100
AcDbEntity
  8
GEKO
  6
SOLID
 62
        7
100
AcDbLine
 10
-784.429877665
 20
1111.204908411
 30
0.0
 11
-784.429877665
 21
1148.967475363
 31
0.0
  0
LINE
  5
49B
100
AcDbEntity
  8
GEKO
  6
SOLID
 62
        7
100
AcDbLine
 10
-776.429877665
 20
1111.204908411
 30
0.0
 11
-776.429877665
 21
1148.967475363
 31
0.0
  0
LINE
  5
49C
100
AcDbEntity
  8
GEKO
  6
SOLID
 62
        7
100
AcDbLine
 10
-833.803509034
 20
1078.080226895
 30
0.0
 11
-866.506851326
 21
1096.961510371
 31
0.0
  0
LINE
  5
49D
100
AcDbEntity
  8
GEKO
  6
SOLID
 62
        7
100
AcDbLine
 10
-829.803509034
 20
1085.008430126
 30
0.0
 11
-862.506851326
 21
1103.889713601
 31
0.0
  0
ARC
  5
49E
100
AcDbEntity
  8
GEKO
  6
SOLID
 62
        7
100
AcDbCircle
 10
-645.429829329
 20
894.987066147
 30
0.0
 40
5.0
100
AcDbArc
 50
105.0
 51
180.0
  0
LINE
  5
49F
100
AcDbEntity
  8
GEKO
  6
SOLID
 62
        7
100
AcDbLine
 10
-807.929752288
 20
777.167063363
 30
0.0
 11
-792.929752288
 21
777.167063363
 31
0.0
  0
LINE
  5
4A0
100
AcDbEntity
  8
GEKO
  6
SOLID
 62
        7
100
AcDbLine
 10
-807.929752288
 20
783.167063602
 30
0.0
 11
-792.929752288
 21
783.167063602
 31
0.0
  0
LINE
  5
4A1
100
AcDbEntity
  8
GEKO
  6
SOLID
 62
        7
100
AcDbLine
 10
-1053.788669616
 20
1051.883748948
 30
0.0
 11
-1073.209261356
 21
1051.883748948
 31
0.0
  0
LINE
  5
4A2
100
AcDbEntity
  8
GEKO
  6
SOLID
 62
        7
100
AcDbLine
 10
-752.929752288
 20
777.167063363
 30
0.0
 11
-767.929752288
 21
777.167063363
 31
0.0
  0
LINE
  5
4A3
100
AcDbEntity
  8
GEKO
  6
SOLID
 62
        7
100
AcDbLine
 10
-752.929752288
 20
783.167063602
 30
0.0
 11
-767.929752288
 21
783.167063602
 31
0.0
  0
LINE
  5
4A4
100
AcDbEntity
  8
GEKO
  6
SOLID
 62
        7
100
AcDbLine
 10
-1136.517887292
 20
1079.383860477
 30
0.0
 11
-1136.517887292
 21
1064.383860477
 31
0.0
  0
LINE
  5
4A5
100
AcDbEntity
  8
GEKO
  6
SOLID
 62
        7
100
AcDbLine
 10
-1130.517887054
 20
1079.383860477
 30
0.0
 11
-1130.517887054
 21
1064.383860477
 31
0.0
  0
LINE
  5
4A6
100
AcDbEntity
  8
GEKO
  6
SOLID
 62
        7
100
AcDbLine
 10
-1056.517887292
 20
1079.383860477
 30
0.0
 11
-1056.517887292
 21
1064.383860477
 31
0.0
  0
LINE
  5
4A7
100
AcDbEntity
  8
GEKO
  6
SOLID
 62
        7
100
AcDbLine
 10
-1050.517887054
 20
1079.383860477
 30
0.0
 11
-1050.517887054
 21
1064.383860477
 31
0.0
  0
LINE
  5
4A8
100
AcDbEntity
  8
GEKO
  6
SOLID
 62
        7
100
AcDbLine
 10
-1195.66067367
 20
1051.883748948
 30
0.0
 11
-1234.530868683
 21
1051.883748948
 31
0.0
  0
LINE
  5
4A9
100
AcDbEntity
  8
GEKO
  6
SOLID
 62
        7
100
AcDbLine
 10
-1056.517887292
 20
1024.383860477
 30
0.0
 11
-1056.517887292
 21
1039.383860477
 31
0.0
  0
LINE
  5
4AA
100
AcDbEntity
  8
GEKO
  6
SOLID
 62
        7
100
AcDbLine
 10
-1050.517887054
 20
1024.383860477
 30
0.0
 11
-1050.517887054
 21
1039.383860477
 31
0.0
  0
LINE
  5
4AB
100
AcDbEntity
  8
GEKO
  6
CENTER
 62
        7
100
AcDbLine
 10
-432.866645474
 20
1051.883748948
 30
0.0
 11
-1054.709407697
 21
1051.883748948
 31
0.0
  0
CIRCLE
  5
4AC
100
AcDbEntity
  8
GEKO
  6
SOLID
 62
        7
100
AcDbCircle
 10
-1063.017887054
 20
1051.883860477
 30
0.0
 40
3.49999994
  0
CIRCLE
  5
4AD
100
AcDbEntity
  8
GEKO
  6
SOLID
 62
        7
100
AcDbCircle
 10
-1143.017887054
 20
1051.883860477
 30
0.0
 40
3.49999994
  0
LINE
  5
4AE
100
AcDbEntity
  8
GEKO
  6
SOLID
 62
        7
100
AcDbLine
 10
-1130.517887054
 20
1024.383860477
 30
0.0
 11
-1130.517887054
 21
1039.383860477
 31
0.0
  0
LINE
  5
4AF
100
AcDbEntity
  8
GEKO
  6
SOLID
 62
        7
100
AcDbLine
 10
-1136.517887292
 20
1024.383860477
 30
0.0
 11
-1136.517887292
 21
1039.383860477
 31
0.0
  0
CIRCLE
  5
4B0
100
AcDbEntity
  8
GEKO
  6
SOLID
 62
        7
100
AcDbCircle
 10
-780.429752288
 20
790.667063602
 30
0.0
 40
3.49999994
  0
ARC
  5
4B1
100
AcDbEntity
  8
GEKO
  6
SOLID
 62
        7
100
AcDbCircle
 10
-869.006851326
 20
1011.136113869
 30
0.0
 40
5.0
100
AcDbArc
 50
204.703619088
 51
300.0
  0
LINE
  5
4B2
100
AcDbEntity
  8
GEKO
  6
SOLID
 62
        7
100
AcDbLine
 10
-650.429829329
 20
891.884013361
 30
0.0
 11
-650.429829329
 21
894.987066147
 31
0.0
  0
ARC
  5
4B3
100
AcDbEntity
  8
GEKO
  6
SOLID
 62
        7
100
AcDbCircle
 10
-860.006851326
 20
995.547656601
 30
0.0
 40
5.0
100
AcDbArc
 50
120.0
 51
215.296380912
  0
ARC
  5
4B4
100
AcDbEntity
  8
GEKO
  6
SOLID
 62
        7
100
AcDbCircle
 10
-789.429877665
 20
954.800021859
 30
0.0
 40
5.0
100
AcDbArc
 50
264.703619088
 51
0.0
  0
ARC
  5
4B5
100
AcDbEntity
  8
GEKO
  6
SOLID
 62
        7
100
AcDbCircle
 10
-771.429877665
 20
954.800021859
 30
0.0
 40
5.0
100
AcDbArc
 50
180.0
 51
275.296380912
  0
ARC
  5
4B6
100
AcDbEntity
  8
GEKO
  6
SOLID
 62
        7
100
AcDbCircle
 10
-700.852904004
 20
995.547656601
 30
0.0
 40
5.0
100
AcDbArc
 50
324.703619088
 51
60.0
  0
ARC
  5
4B7
100
AcDbEntity
  8
GEKO
  6
SOLID
 62
        7
100
AcDbCircle
 10
-691.852904004
 20
1011.136113869
 30
0.0
 40
5.0
100
AcDbArc
 50
240.0
 51
335.296380912
  0
ARC
  5
4B8
100
AcDbEntity
  8
GEKO
  6
SOLID
 62
        7
100
AcDbCircle
 10
-691.852904004
 20
1092.631383353
 30
0.0
 40
5.0
100
AcDbArc
 50
24.703619088
 51
120.0
  0
ARC
  5
4B9
100
AcDbEntity
  8
GEKO
  6
SOLID
 62
        7
100
AcDbCircle
 10
-700.852904004
 20
1108.219840621
 30
0.0
 40
5.0
100
AcDbArc
 50
300.0
 51
35.296380912
  0
LINE
  5
4BA
100
AcDbEntity
  8
GEKO
  6
SOLID
 62
        7
100
AcDbLine
 10
-564.368559085
 20
921.883748948
 30
0.0
 11
-646.723924554
 21
899.816695278
 31
0.0
  0
LINE
  5
4BB
100
AcDbEntity
  8
GEKO
  6
SOLID
 62
        7
100
AcDbLine
 10
-759.131807801
 20
1378.08860701
 30
0.0
 11
-721.194785335
 21
1236.505745469
 31
0.0
  0
LINE
  5
4BC
100
AcDbEntity
  8
GEKO
  6
SOLID
 62
        7
100
AcDbLine
 10
-700.210332397
 20
1393.876568761
 30
0.0
 11
-662.273311815
 21
1252.293714251
 31
0.0
  0
LINE
  5
4BD
100
AcDbEntity
  8
GEKO
  6
SOLID
 62
        7
100
AcDbLine
 10
-769.75699189
 20
1375.241597514
 30
0.0
 11
-731.819969084
 21
1233.658734705
 31
0.0
  0
ARC
  5
4BE
100
AcDbEntity
  8
GEKO
  6
SOLID
 62
        7
100
AcDbCircle
 10
-869.753940264
 20
1362.064996391
 30
0.0
 40
2.0
100
AcDbArc
 50
15.0
 51
105.000006837
  0
ARC
  5
4BF
100
AcDbEntity
  8
GEKO
  6
SOLID
 62
        7
100
AcDbCircle
 10
-917.153555696
 20
1353.505406506
 30
0.0
 40
2.0
100
AcDbArc
 50
195.0
 51
285.000006837
  0
LINE
  5
4C0
100
AcDbEntity
  8
GEKO
  6
SOLID
 62
        7
100
AcDbLine
 10
-883.149215058
 20
1198.007676503
 30
0.0
 11
-827.705074307
 21
1212.863896334
 31
0.0
  0
LINE
  5
4C1
100
AcDbEntity
  8
GEKO
  6
SOLID
 62
        7
100
AcDbLine
 10
-852.583896101
 20
1278.66696789
 30
0.0
 11
-848.720192919
 21
1279.702244531
 31
0.0
  0
LINE
  5
4C2
100
AcDbEntity
  8
GEKO
  6
SOLID
 62
        7
100
AcDbLine
 10
-855.172087705
 20
1288.326225844
 30
0.0
 11
-851.308384523
 21
1289.361502485
 31
0.0
  0
LINE
  5
4C3
100
AcDbEntity
  8
GEKO
  6
SOLID
 62
        7
100
AcDbLine
 10
-852.583896101
 20
1278.666967889
 30
0.0
 11
-855.172087705
 21
1288.326225843
 31
0.0
  0
LINE
  5
4C4
100
AcDbEntity
  8
GEKO
  6
SOLID
 62
        7
100
AcDbLine
 10
-897.960745926
 20
1275.30806625
 30
0.0
 11
-900.436886145
 21
1274.50351919
 31
0.0
  0
LINE
  5
4C5
100
AcDbEntity
  8
GEKO
  6
SOLID
 62
        7
100
AcDbLine
 10
-900.436886145
 20
1274.50351919
 30
0.0
 11
-899.695695421
 21
1271.737359071
 31
0.0
  0
LINE
  5
4C6
100
AcDbEntity
  8
GEKO
  6
SOLID
 62
        7
100
AcDbLine
 10
-899.695695421
 20
1271.737359071
 30
0.0
 11
-898.536584421
 21
1272.047942076
 31
0.0
  0
LINE
  5
4C7
100
AcDbEntity
  8
GEKO
  6
SOLID
 62
        7
100
AcDbLine
 10
-898.536584421
 20
1272.047942076
 30
0.0
 11
-898.27776526
 21
1271.082016281
 31
0.0
  0
LINE
  5
4C8
100
AcDbEntity
  8
GEKO
  6
SOLID
 62
        7
100
AcDbLine
 10
-898.27776526
 20
1271.082016281
 30
0.0
 11
-899.436876261
 21
1270.771433276
 31
0.0
  0
LINE
  5
4C9
100
AcDbEntity
  8
GEKO
  6
SOLID
 62
        7
100
AcDbLine
 10
-899.436876261
 20
1270.771433276
 30
0.0
 11
-898.695685537
 21
1268.005273157
 31
0.0
  0
LINE
  5
4CA
100
AcDbEntity
  8
GEKO
  6
SOLID
 62
        7
100
AcDbLine
 10
-898.695685537
 20
1268.005273157
 30
0.0
 11
-896.149011804
 21
1268.546585682
 31
0.0
  0
LINE
  5
4CB
100
AcDbEntity
  8
GEKO
  6
SOLID
 62
        7
100
AcDbLine
 10
-896.149011804
 20
1268.546585682
 30
0.0
 11
-897.960745926
 21
1275.30806625
 31
0.0
  0
LINE
  5
4CC
100
AcDbEntity
  8
GEKO
  6
SOLID
 62
        7
100
AcDbLine
 10
-897.572517186
 20
1273.859177557
 30
0.0
 11
-893.998574489
 21
1274.816813073
 31
0.0
  0
LINE
  5
4CD
100
AcDbEntity
  8
GEKO
  6
SOLID
 62
        7
100
AcDbLine
 10
-853.360340236
 20
1281.564695467
 30
0.0
 11
-889.099594666
 21
1271.988386533
 31
0.0
  0
LINE
  5
4CE
100
AcDbEntity
  8
GEKO
  6
SOLID
 62
        7
100
AcDbLine
 10
-903.854747887
 20
1275.281740136
 30
0.0
 11
-883.149215058
 21
1198.007676503
 31
0.0
  0
LINE
  5
4CF
100
AcDbEntity
  8
GEKO
  6
SOLID
 62
        7
100
AcDbLine
 10
-892.963297848
 20
1270.953109892
 30
0.0
 11
-896.537240544
 21
1269.995474375
 31
0.0
  0
LINE
  5
4D0
100
AcDbEntity
  8
GEKO
  6
SOLID
 62
        7
100
AcDbLine
 10
-888.323150531
 20
1269.090658956
 30
0.0
 11
-892.186853713
 21
1268.055382314
 31
0.0
  0
LINE
  5
4D1
100
AcDbEntity
  8
GEKO
  6
SOLID
 62
        7
100
AcDbLine
 10
-888.323150531
 20
1269.090658956
 30
0.0
 11
-890.911342135
 21
1278.74991691
 31
0.0
  0
LINE
  5
4D2
100
AcDbEntity
  8
GEKO
  6
SOLID
 62
        7
100
AcDbLine
 10
-890.911342135
 20
1278.74991691
 30
0.0
 11
-894.775045316
 21
1277.714640268
 31
0.0
  0
LINE
  5
4D3
100
AcDbEntity
  8
GEKO
  6
SOLID
 62
        7
100
AcDbLine
 10
-921.972089111
 20
1342.896545814
 30
0.0
 11
-917.915200724
 21
1343.9835863
 31
0.0
  0
LINE
  5
4D4
100
AcDbEntity
  8
GEKO
  6
SOLID
 62
        7
100
AcDbLine
 10
-901.266556282
 20
1265.622482182
 30
0.0
 11
-921.972089111
 21
1342.896545814
 31
0.0
  0
LINE
  5
4D5
100
AcDbEntity
  8
GEKO
  6
SOLID
 62
        7
100
AcDbLine
 10
-896.149011804
 20
1268.546585682
 30
0.0
 11
-897.960745926
 21
1275.30806625
 31
0.0
  0
LINE
  5
4D6
100
AcDbEntity
  8
GEKO
  6
SOLID
 62
        7
100
AcDbLine
 10
-867.308031919
 20
1202.252310759
 30
0.0
 11
-906.130905974
 21
1347.141180069
 31
0.0
  0
LINE
  5
4D7
100
AcDbEntity
  8
GEKO
  6
SOLID
 62
        7
100
AcDbLine
 10
-874.069512487
 20
1200.440576636
 30
0.0
 11
-912.892386543
 21
1345.329445947
 31
0.0
  0
LINE
  5
4D8
100
AcDbEntity
  8
GEKO
  6
SOLID
 62
        7
100
AcDbLine
 10
-917.915200724
 20
1343.9835863
 30
0.0
 11
-866.527948363
 21
1357.752765644
 31
0.0
  0
LINE
  5
4D9
100
AcDbEntity
  8
GEKO
  6
SOLID
 62
        7
100
AcDbLine
 10
-830.602851693
 20
1212.087438853
 30
0.0
 11
-869.425725748
 21
1356.976308163
 31
0.0
  0
LINE
  5
4DA
100
AcDbEntity
  8
GEKO
  6
SOLID
 62
        7
100
AcDbLine
 10
-578.251882219
 20
1417.82021026
 30
0.0
 11
-541.240742286
 21
1279.692821518
 31
0.0
  0
ARC
  5
4DB
100
AcDbEntity
  8
GEKO
  6
SOLID
 62
        7
100
AcDbCircle
 10
-924.789340515
 20
1362.196299663
 30
0.0
 40
3.32257028
100
AcDbArc
 50
340.615766548
 51
49.384247127
  0
LINE
  5
4DC
100
AcDbEntity
  8
GEKO
  6
SOLID
 62
        7
100
AcDbLine
 10
-557.969253553
 20
1344.056296492
 30
0.0
 11
-558.45221645
 21
1343.926886912
 31
0.0
  0
ARC
  5
4DD
100
AcDbEntity
  8
GEKO
  6
SOLID
 62
        7
100
AcDbCircle
 10
-935.033183662
 20
1365.279209782
 30
0.0
 40
12.419446412
100
AcDbArc
 50
357.412056905
 51
32.58795677
  0
LINE
  5
4DE
100
AcDbEntity
  8
GEKO
  6
SOLID
 62
        7
100
AcDbLine
 10
-921.579984168
 20
1363.056244512
 30
0.0
 11
-924.493855837
 21
1373.930956436
 31
0.0
  0
ARC
  5
4DF
100
AcDbEntity
  8
GEKO
  6
SOLID
 62
        7
100
AcDbCircle
 10
-927.703212183
 20
1373.071011587
 30
0.0
 40
3.32257028
100
AcDbArc
 50
340.615766548
 51
49.384247127
  0
LINE
  5
4E0
100
AcDbEntity
  8
GEKO
  6
SOLID
 62
        7
100
AcDbLine
 10
-927.101860011
 20
1359.634081324
 30
0.0
 11
-921.655113362
 21
1361.093533387
 31
0.0
  0
LINE
  5
4E1
100
AcDbEntity
  8
GEKO
  6
SOLID
 62
        7
100
AcDbLine
 10
-925.540275587
 20
1375.593149285
 30
0.0
 11
-930.987022236
 21
1374.133697222
 31
0.0
  0
ARC
  5
4E2
100
AcDbEntity
  8
GEKO
  6
SOLID
 62
        7
100
AcDbCircle
 10
-927.852795095
 20
1373.030930947
 30
0.0
 40
3.32257028
100
AcDbArc
 50
160.615766548
 51
229.384247127
  0
ARC
  5
4E3
100
AcDbEntity
  8
GEKO
  6
SOLID
 62
        7
100
AcDbCircle
 10
-917.608951948
 20
1369.948020828
 30
0.0
 40
12.419446412
100
AcDbArc
 50
177.412056905
 51
212.58795677
  0
ARC
  5
4E4
100
AcDbEntity
  8
GEKO
  6
SOLID
 62
        7
100
AcDbCircle
 10
-924.938923427
 20
1362.156219023
 30
0.0
 40
3.32257028
100
AcDbArc
 50
160.615766548
 51
229.384247127
  0
LINE
  5
4E5
100
AcDbEntity
  8
GEKO
  6
SOLID
 62
        7
100
AcDbLine
 10
-922.626403918
 20
1364.718437361
 30
0.0
 11
-928.073150567
 21
1363.258985299
 31
0.0
  0
LINE
  5
4E6
100
AcDbEntity
  8
GEKO
  6
SOLID
 62
        7
100
AcDbLine
 10
-924.568985031
 20
1371.96824531
 30
0.0
 11
-930.01573168
 21
1370.508793248
 31
0.0
  0
LINE
  5
4E7
100
AcDbEntity
  8
GEKO
  6
SOLID
 62
        7
100
AcDbLine
 10
-931.06215143
 20
1372.170986096
 30
0.0
 11
-928.148279761
 21
1361.296274173
 31
0.0
  0
LINE
  5
4E8
100
AcDbEntity
  8
GEKO
  6
SOLID
 62
        7
100
AcDbLine
 10
-936.197565168
 20
1360.826216463
 30
0.0
 11
-928.569965647
 21
1362.870026571
 31
0.0
  0
LINE
  5
4E9
100
AcDbEntity
  8
GEKO
  6
SOLID
 62
        7
100
AcDbLine
 10
-944.217018094
 20
1370.588835594
 30
0.0
 11
-939.948163569
 21
1371.732672263
 31
0.0
  0
LINE
  5
4EA
100
AcDbEntity
  8
GEKO
  6
SOLID
 62
        7
100
AcDbLine
 10
-939.948163569
 20
1371.732672263
 30
0.0
 11
-936.063001344
 21
1357.233056364
 31
0.0
  0
LINE
  5
4EB
100
AcDbEntity
  8
GEKO
  6
SOLID
 62
        7
100
AcDbLine
 10
-936.063001344
 20
1357.233056364
 30
0.0
 11
-940.331855868
 21
1356.089219696
 31
0.0
  0
ARC
  5
4EC
100
AcDbEntity
  8
GEKO
  6
SOLID
 62
        7
100
AcDbCircle
 10
-938.168920176
 20
1358.611357161
 30
0.0
 40
3.322569529
100
AcDbArc
 50
160.615757684
 51
229.384255991
  0
LINE
  5
4ED
100
AcDbEntity
  8
GEKO
  6
SOLID
 62
        7
100
AcDbLine
 10
-941.303146425
 20
1359.71412367
 30
0.0
 11
-937.034291901
 21
1360.857960339
 31
0.0
  0
ARC
  5
4EE
100
AcDbEntity
  8
GEKO
  6
SOLID
 62
        7
100
AcDbCircle
 10
-930.838951104
 20
1366.40315832
 30
0.0
 40
12.419443168
100
AcDbArc
 50
177.412052162
 51
212.587961514
  0
LINE
  5
4EF
100
AcDbEntity
  8
GEKO
  6
SOLID
 62
        7
100
AcDbLine
 10
-943.245727537
 20
1366.96393162
 30
0.0
 11
-938.976873013
 21
1368.107768288
 31
0.0
  0
ARC
  5
4F0
100
AcDbEntity
  8
GEKO
  6
SOLID
 62
        7
100
AcDbCircle
 10
-941.082791844
 20
1369.486069085
 30
0.0
 40
3.322569529
100
AcDbArc
 50
160.615757684
 51
229.384255991
  0
LINE
  5
4F1
100
AcDbEntity
  8
GEKO
  6
SOLID
 62
        7
100
AcDbLine
 10
-944.292147441
 20
1368.626124427
 30
0.0
 11
-941.378275772
 21
1357.751412503
 31
0.0
  0
LINE
  5
4F2
100
AcDbEntity
  8
GEKO
  6
SOLID
 62
        7
100
AcDbLine
 10
-936.227594535
 20
1359.006436741
 30
0.0
 11
-936.517372285
 21
1358.92879099
 31
0.0
  0
LINE
  5
4F3
100
AcDbEntity
  8
GEKO
  6
SOLID
 62
        7
100
AcDbLine
 10
-939.204014879
 20
1370.114583388
 30
0.0
 11
-939.493792629
 21
1370.036937637
 31
0.0
  0
LINE
  5
4F4
100
AcDbEntity
  8
GEKO
  6
SOLID
 62
        7
100
AcDbLine
 10
-936.227594535
 20
1359.006436741
 30
0.0
 11
-939.204014879
 21
1370.114583388
 31
0.0
  0
ARC
  5
4F5
100
AcDbEntity
  8
GEKO
  6
SOLID
 62
        7
100
AcDbCircle
 10
-938.397528049
 20
1369.036585726
 30
0.0
 40
0.5
100
AcDbArc
 50
195.000006838
 51
285.000006838
  0
ARC
  5
4F6
100
AcDbEntity
  8
GEKO
  6
SOLID
 62
        7
100
AcDbCircle
 10
-936.068155606
 20
1360.343253567
 30
0.0
 40
0.5
100
AcDbArc
 50
105.000006838
 51
195.000006838
  0
LINE
  5
4F7
100
AcDbEntity
  8
GEKO
  6
SOLID
 62
        7
100
AcDbLine
 10
-930.64051893
 20
1370.597432934
 30
0.0
 11
-938.268118451
 21
1368.553622826
 31
0.0
  0
ARC
  5
4F8
100
AcDbEntity
  8
GEKO
  6
SOLID
 62
        7
100
AcDbCircle
 10
-559.908492442
 20
1347.554775087
 30
0.0
 40
4.0
100
AcDbArc
 50
299.000006837
 51
22.287617311
  0
LINE
  5
4F9
100
AcDbEntity
  8
GEKO
  6
SOLID
 62
        7
100
AcDbLine
 10
-916.63591737
 20
1351.573554914
 30
0.0
 11
-870.271578579
 21
1363.996847981
 31
0.0
  0
LINE
  5
4FA
100
AcDbEntity
  8
GEKO
  6
SOLID
 62
        7
100
AcDbLine
 10
-556.365571968
 20
1349.66238295
 30
0.0
 11
-556.207325634
 21
1349.071799872
 31
0.0
  0
LINE
  5
4FB
100
AcDbEntity
  8
GEKO
  6
SOLID
 62
        7
100
AcDbLine
 10
-885.697811332
 20
1386.78041325
 30
0.0
 11
-887.768420879
 21
1394.508029594
 31
0.0
  0
LINE
  5
4FC
100
AcDbEntity
  8
GEKO
  6
SOLID
 62
        7
100
AcDbLine
 10
-556.365551908
 20
1349.662308082
 30
0.0
 11
-556.523789088
 21
1350.252893614
 31
0.0
  0
LINE
  5
4FD
100
AcDbEntity
  8
GEKO
  6
SOLID
 62
        7
100
AcDbLine
 10
-560.557362264
 20
1353.715544559
 30
0.0
 11
-561.040327168
 21
1353.586142466
 31
0.0
  0
LINE
  5
4FE
100
AcDbEntity
  8
GEKO
  6
SOLID
 62
        7
100
AcDbLine
 10
-912.740117761
 20
1379.534445622
 30
0.0
 11
-898.734388562
 21
1383.287271242
 31
0.0
  0
LINE
  5
4FF
100
AcDbEntity
  8
GEKO
  6
SOLID
 62
        7
100
AcDbLine
 10
-885.694205635
 20
1386.781712851
 30
0.0
 11
-899.699848491
 21
1383.028565007
 31
0.0
  0
LINE
  5
500
100
AcDbEntity
  8
GEKO
  6
SOLID
 62
        7
100
AcDbLine
 10
-885.694122264
 20
1386.781401734
 30
0.0
 11
-890.482687851
 21
1404.650918789
 31
0.0
  0
LINE
  5
501
100
AcDbEntity
  8
GEKO
  6
SOLID
 62
        7
100
AcDbLine
 10
-912.740117761
 20
1379.534445622
 30
0.0
 11
-917.528272228
 21
1397.404072837
 31
0.0
  0
ARC
  5
502
100
AcDbEntity
  8
GEKO
  6
SOLID
 62
        7
100
AcDbCircle
 10
-560.487614159
 20
1349.716152705
 30
0.0
 40
4.0
100
AcDbArc
 50
7.711508176
 51
90.99911865
  0
LINE
  5
503
100
AcDbEntity
  8
GEKO
  6
SOLID
 62
        7
100
AcDbLine
 10
-568.758522305
 20
1343.753509797
 30
0.0
 11
-568.146149828
 21
1343.399956479
 31
0.0
  0
LINE
  5
504
100
AcDbEntity
  8
GEKO
  6
SOLID
 62
        7
100
AcDbLine
 10
-567.019746174
 20
1344.219413679
 30
0.0
 11
-568.758522305
 21
1343.753509797
 31
0.0
  0
LINE
  5
505
100
AcDbEntity
  8
GEKO
  6
SOLID
 62
        7
100
AcDbLine
 10
-562.32820096
 20
1345.07612516
 30
0.0
 11
-566.488284919
 21
1343.961433491
 31
0.0
  0
ARC
  5
506
100
AcDbEntity
  8
GEKO
  6
SOLID
 62
        7
100
AcDbCircle
 10
-564.077341093
 20
1343.113151714
 30
0.0
 40
2.555823176
100
AcDbArc
 50
160.615765014
 51
229.384248661
  0
LINE
  5
507
100
AcDbEntity
  8
GEKO
  6
SOLID
 62
        7
100
AcDbLine
 10
-566.890336594
 20
1343.736450782
 30
0.0
 11
-568.146149828
 21
1343.399956479
 31
0.0
  0
LINE
  5
508
100
AcDbEntity
  8
GEKO
  6
SOLID
 62
        7
100
AcDbLine
 10
-561.581054383
 20
1342.287737505
 30
0.0
 11
-565.741138342
 21
1341.173045836
 31
0.0
  0
ARC
  5
509
100
AcDbEntity
  8
GEKO
  6
SOLID
 62
        7
100
AcDbCircle
 10
-563.991998209
 20
1343.136019282
 30
0.0
 40
2.555823176
100
AcDbArc
 50
-19.384234986
 51
49.384248661
  0
LINE
  5
50A
100
AcDbEntity
  8
GEKO
  6
SOLID
 62
        7
100
AcDbLine
 10
-563.764702406
 20
1352.162678256
 30
0.0
 11
-561.523262675
 21
1343.79751529
 31
0.0
  0
ARC
  5
50B
100
AcDbEntity
  8
GEKO
  6
SOLID
 62
        7
100
AcDbCircle
 10
-571.871877183
 20
1345.507488676
 30
0.0
 40
9.553419824
100
AcDbArc
 50
-2.587943917
 51
32.587957591
  0
ARC
  5
50C
100
AcDbEntity
  8
GEKO
  6
SOLID
 62
        7
100
AcDbCircle
 10
-566.23343794
 20
1351.501182247
 30
0.0
 40
2.555823176
100
AcDbArc
 50
-19.384234986
 51
49.384248661
  0
LINE
  5
50D
100
AcDbEntity
  8
GEKO
  6
SOLID
 62
        7
100
AcDbLine
 10
-928.27875433
 20
1445.252022927
 30
0.0
 11
-928.985860965
 21
1444.027277971
 31
0.0
  0
LINE
  5
50E
100
AcDbEntity
  8
GEKO
  6
SOLID
 62
        7
100
AcDbLine
 10
-928.727041804
 20
1443.061352176
 30
0.0
 11
-929.244680125
 21
1444.993203767
 31
0.0
  0
LINE
  5
50F
100
AcDbEntity
  8
GEKO
  6
SOLID
 62
        7
100
AcDbLine
 10
-936.45434565
 20
1440.990826363
 30
0.0
 11
-928.727041804
 21
1443.061352176
 31
0.0
  0
LINE
  5
510
100
AcDbEntity
  8
GEKO
  6
SOLID
 62
        7
100
AcDbLine
 10
-568.72972465
 20
1352.326596456
 30
0.0
 11
-564.569640691
 21
1353.441288126
 31
0.0
  0
LINE
  5
511
100
AcDbEntity
  8
GEKO
  6
SOLID
 62
        7
100
AcDbLine
 10
-936.97198397
 20
1442.922677953
 30
0.0
 11
-937.748441452
 21
1445.82045534
 31
0.0
  0
LINE
  5
512
100
AcDbEntity
  8
GEKO
  6
SOLID
 62
        7
100
AcDbLine
 10
-936.45434565
 20
1440.990826363
 30
0.0
 11
-936.97198397
 21
1442.922677953
 31
0.0
  0
LINE
  5
513
100
AcDbEntity
  8
GEKO
  6
SOLID
 62
        7
100
AcDbLine
 10
-928.27875433
 20
1445.252022927
 30
0.0
 11
-936.97198397
 21
1442.922677953
 31
0.0
  0
LINE
  5
514
100
AcDbEntity
  8
GEKO
  6
SOLID
 62
        7
100
AcDbLine
 10
-898.334952154
 20
1453.275444368
 30
0.0
 11
-899.111409635
 21
1456.173221754
 31
0.0
  0
LINE
  5
515
100
AcDbEntity
  8
GEKO
  6
SOLID
 62
        7
100
AcDbLine
 10
-897.817313834
 20
1451.343592777
 30
0.0
 11
-898.334952154
 21
1453.275444368
 31
0.0
  0
LINE
  5
516
100
AcDbEntity
  8
GEKO
  6
SOLID
 62
        7
100
AcDbLine
 10
-928.985758447
 20
1444.027305441
 30
0.0
 11
-905.803641875
 21
1450.23893782
 31
0.0
  0
LINE
  5
517
100
AcDbEntity
  8
GEKO
  6
SOLID
 62
        7
100
AcDbLine
 10
-914.566327807
 20
1452.032086935
 30
0.0
 11
-914.825145319
 21
1452.998006579
 31
0.0
  0
ARC
  5
518
100
AcDbEntity
  8
GEKO
  6
SOLID
 62
        7
100
AcDbCircle
 10
-558.43890185
 20
1349.106845286
 30
0.0
 40
9.553419824
100
AcDbArc
 50
177.412056084
 51
212.587957591
  0
ARC
  5
519
100
AcDbEntity
  8
GEKO
  6
SOLID
 62
        7
100
AcDbCircle
 10
-566.318780824
 20
1351.47831468
 30
0.0
 40
2.555823176
100
AcDbArc
 50
160.615765014
 51
229.384248661
  0
LINE
  5
51A
100
AcDbEntity
  8
GEKO
  6
SOLID
 62
        7
100
AcDbLine
 10
-563.822494114
 20
1350.652900471
 30
0.0
 11
-567.982578073
 21
1349.538208801
 31
0.0
  0
LINE
  5
51B
100
AcDbEntity
  8
GEKO
  6
SOLID
 62
        7
100
AcDbLine
 10
-566.546076627
 20
1342.451655706
 30
0.0
 11
-568.787516358
 21
1350.816818671
 31
0.0
  0
LINE
  5
51C
100
AcDbEntity
  8
GEKO
  6
SOLID
 62
        7
100
AcDbLine
 10
-922.552536944
 20
1450.927457245
 30
0.0
 11
-922.293719432
 21
1449.961537601
 31
0.0
  0
LINE
  5
51D
100
AcDbEntity
  8
GEKO
  6
SOLID
 62
        7
100
AcDbLine
 10
-907.028386831
 20
1450.946044455
 30
0.0
 11
-905.803641875
 21
1450.23893782
 31
0.0
  0
LINE
  5
51E
100
AcDbEntity
  8
GEKO
  6
SOLID
 62
        7
100
AcDbLine
 10
-570.052618107
 20
1348.583138774
 30
0.0
 11
-569.69906479
 21
1349.195511252
 31
0.0
  0
LINE
  5
51F
100
AcDbEntity
  8
GEKO
  6
SOLID
 62
        7
100
AcDbLine
 10
-569.69906479
 20
1349.195511252
 30
0.0
 11
-568.146149828
 21
1343.399956479
 31
0.0
  0
LINE
  5
520
100
AcDbEntity
  8
GEKO
  6
SOLID
 62
        7
100
AcDbLine
 10
-568.313841976
 20
1349.049042656
 30
0.0
 11
-570.052618107
 21
1348.583138774
 31
0.0
  0
LINE
  5
521
100
AcDbEntity
  8
GEKO
  6
SOLID
 62
        7
100
AcDbLine
 10
-912.660429254
 20
1458.463968436
 30
0.0
 11
-911.5424745
 21
1454.291706485
 31
0.0
  0
LINE
  5
522
100
AcDbEntity
  8
GEKO
  6
SOLID
 62
        7
100
AcDbLine
 10
-911.5424745
 20
1454.291706485
 30
0.0
 11
-926.042090398
 21
1450.40654426
 31
0.0
  0
LINE
  5
523
100
AcDbEntity
  8
GEKO
  6
SOLID
 62
        7
100
AcDbLine
 10
-926.042090398
 20
1450.40654426
 30
0.0
 11
-927.160045152
 21
1454.57880621
 31
0.0
  0
ARC
  5
524
100
AcDbEntity
  8
GEKO
  6
SOLID
 62
        7
100
AcDbCircle
 10
-924.637907689
 20
1452.415870499
 30
0.0
 40
3.322569529
100
AcDbArc
 50
70.615757684
 51
139.384255991
  0
LINE
  5
525
100
AcDbEntity
  8
GEKO
  6
SOLID
 62
        7
100
AcDbLine
 10
-923.535141178
 20
1455.550096767
 30
0.0
 11
-922.417186424
 21
1451.377834816
 31
0.0
  0
ARC
  5
526
100
AcDbEntity
  8
GEKO
  6
SOLID
 62
        7
100
AcDbCircle
 10
-916.84610653
 20
1445.085901428
 30
0.0
 40
12.419443168
100
AcDbArc
 50
87.412052161
 51
122.587961513
  0
INSERT
  5
535
100
AcDbEntity
  8
GEKO
100
AcDbBlockReference
  2
*D33
 10
0.0
 20
0.0
 30
0.0
  0
INSERT
  5
546
100
AcDbEntity
  8
GEKO
100
AcDbBlockReference
  2
*D34
 10
0.0
 20
0.0
 30
0.0
  0
LINE
  5
547
100
AcDbEntity
  8
GEKO
  6
SOLID
 62
        7
100
AcDbLine
 10
-916.285333228
 20
1457.492677879
 30
0.0
 11
-915.167378475
 21
1453.320415929
 31
0.0
  0
ARC
  5
548
100
AcDbEntity
  8
GEKO
  6
SOLID
 62
        7
100
AcDbCircle
 10
-913.763195765
 20
1455.329742168
 30
0.0
 40
3.322569529
100
AcDbArc
 50
70.615757684
 51
139.384255991
  0
LINE
  5
549
100
AcDbEntity
  8
GEKO
  6
SOLID
 62
        7
100
AcDbLine
 10
-914.623140421
 20
1458.539097783
 30
0.0
 11
-925.497852345
 21
1455.625226114
 31
0.0
  0
LINE
  5
54A
100
AcDbEntity
  8
GEKO
  6
SOLID
 62
        7
100
AcDbLine
 10
-913.175423894
 20
1453.854158805
 30
0.0
 11
-913.071896228
 21
1453.467788481
 31
0.0
  0
LINE
  5
54B
100
AcDbEntity
  8
GEKO
  6
SOLID
 62
        7
100
AcDbLine
 10
-913.071896228
 20
1453.467788481
 30
0.0
 11
-924.305613339
 21
1450.457721616
 31
0.0
  0
LINE
  5
54C
100
AcDbEntity
  8
GEKO
  6
SOLID
 62
        7
100
AcDbLine
 10
-924.305613339
 20
1450.457721616
 30
0.0
 11
-924.409141005
 21
1450.84409194
 31
0.0
  0
ARC
  5
54D
100
AcDbEntity
  8
GEKO
  6
SOLID
 62
        7
100
AcDbCircle
 10
-914.335153526
 20
1452.715189055
 30
0.0
 40
0.400000006
100
AcDbArc
 50
105.000006837
 51
195.000006837
  0
ARC
  5
54E
100
AcDbEntity
  8
GEKO
  6
SOLID
 62
        7
100
AcDbCircle
 10
-922.83530071
 20
1450.437580395
 30
0.0
 40
0.400000006
100
AcDbArc
 50
15.000006837
 51
105.000006837
  0
LINE
  5
54F
100
AcDbEntity
  8
GEKO
  6
SOLID
 62
        7
100
AcDbLine
 10
-568.443251556
 20
1349.532005554
 30
0.0
 11
-569.69906479
 21
1349.195511252
 31
0.0
  0
LINE
  5
550
100
AcDbEntity
  8
GEKO
  6
SOLID
 62
        7
100
AcDbLine
 10
-924.305613339
 20
1450.457721616
 30
0.0
 11
-924.046795827
 21
1449.491801972
 31
0.0
  0
LINE
  5
551
100
AcDbEntity
  8
GEKO
  6
SOLID
 62
        7
100
AcDbLine
 10
-913.071896228
 20
1453.467788481
 30
0.0
 11
-912.813078716
 21
1452.501868837
 31
0.0
  0
LINE
  5
552
100
AcDbEntity
  8
GEKO
  6
SOLID
 62
        7
100
AcDbLine
 10
-570.052618107
 20
1348.583138774
 30
0.0
 11
-568.758522306
 21
1343.753509797
 31
0.0
  0
LINE
  5
553
100
AcDbEntity
  8
GEKO
  6
SOLID
 62
        7
100
AcDbLine
 10
-496.632963537
 20
1360.491305683
 30
0.0
 11
-497.115926435
 21
1360.361896103
 31
0.0
  0
LINE
  5
554
100
AcDbEntity
  8
GEKO
  6
SOLID
 62
        7
100
AcDbLine
 10
-905.544822715
 20
1449.273012025
 30
0.0
 11
-906.062461035
 21
1451.204863616
 31
0.0
  0
LINE
  5
555
100
AcDbEntity
  8
GEKO
  6
SOLID
 62
        7
100
AcDbLine
 10
-495.029281953
 20
1366.097392141
 30
0.0
 11
-494.871035618
 21
1365.506809063
 31
0.0
  0
LINE
  5
556
100
AcDbEntity
  8
GEKO
  6
SOLID
 62
        7
100
AcDbLine
 10
-928.27875433
 20
1445.252022927
 30
0.0
 11
-898.334952154
 21
1453.275444368
 31
0.0
  0
LINE
  5
557
100
AcDbEntity
  8
GEKO
  6
SOLID
 62
        7
100
AcDbLine
 10
-499.221072249
 20
1370.15055375
 30
0.0
 11
-499.704037152
 21
1370.021151657
 31
0.0
  0
LINE
  5
558
100
AcDbEntity
  8
GEKO
  6
SOLID
 62
        7
100
AcDbLine
 10
-495.029261893
 20
1366.097317273
 30
0.0
 11
-495.187499072
 21
1366.687902805
 31
0.0
  0
LINE
  5
559
100
AcDbEntity
  8
GEKO
  6
SOLID
 62
        7
100
AcDbLine
 10
-585.854865052
 20
1473.240826028
 30
0.0
 11
-597.97444697
 21
1466.243580216
 31
0.0
  0
LINE
  5
55A
100
AcDbEntity
  8
GEKO
  6
SOLID
 62
        7
100
AcDbLine
 10
-791.071428932
 20
1469.694657999
 30
0.0
 11
-711.310294142
 21
1465.514563596
 31
0.0
  0
ARC
  5
55B
100
AcDbEntity
  8
GEKO
  6
SOLID
 62
        7
100
AcDbCircle
 10
-710.263577407
 20
1485.487154417
 30
0.0
 40
20.0
100
AcDbArc
 50
267.000006837
 51
303.000006837
  0
LINE
  5
55C
100
AcDbEntity
  8
GEKO
  6
SOLID
 62
        7
100
AcDbLine
 10
-632.38568332
 20
1512.214395682
 30
0.0
 11
-699.370794699
 21
1468.713744357
 31
0.0
  0
LINE
  5
55D
100
AcDbEntity
  8
GEKO
  6
SOLID
 62
        7
100
AcDbLine
 10
-938.869160138
 20
1440.343778462
 30
0.0
 11
-580.873590557
 21
1536.268448013
 31
0.0
  0
LINE
  5
55E
100
AcDbEntity
  8
GEKO
  6
SOLID
 62
        7
100
AcDbLine
 10
-926.704659601
 20
1394.945266078
 30
0.0
 11
-568.70909002
 21
1490.869935629
 31
0.0
  0
LINE
  5
55F
100
AcDbEntity
  8
GEKO
  6
SOLID
 62
        7
100
AcDbLine
 10
-938.869160138
 20
1440.343778462
 30
0.0
 11
-926.704659601
 21
1394.945266078
 31
0.0
  0
LINE
  5
560
100
AcDbEntity
  8
GEKO
  6
SOLID
 62
        7
100
AcDbLine
 10
-900.273425775
 20
1442.403269544
 30
0.0
 11
-892.250031804
 21
1412.459569886
 31
0.0
  0
LINE
  5
561
100
AcDbEntity
  8
GEKO
  6
SOLID
 62
        7
100
AcDbLine
 10
-889.800541892
 20
1411.045356616
 30
0.0
 11
-603.531141193
 21
1487.751047966
 31
0.0
  0
LINE
  5
562
100
AcDbEntity
  8
GEKO
  6
SOLID
 62
        7
100
AcDbLine
 10
-898.859212505
 20
1444.852759455
 30
0.0
 11
-612.589811806
 21
1521.558450805
 31
0.0
  0
LINE
  5
563
100
AcDbEntity
  8
GEKO
  6
SOLID
 62
        7
100
AcDbLine
 10
-813.640109718
 20
1461.044293718
 30
0.0
 11
-880.625221097
 21
1417.543642392
 31
0.0
  0
LINE
  5
564
100
AcDbEntity
  8
GEKO
  6
SOLID
 62
        7
100
AcDbLine
 10
-801.700610275
 20
1464.243474479
 30
0.0
 11
-721.939475485
 21
1460.063380076
 31
0.0
  0
LINE
  5
565
100
AcDbEntity
  8
GEKO
  6
SOLID
 62
        7
100
AcDbLine
 10
-825.570842401
 20
1460.450563608
 30
0.0
 11
-891.011564365
 21
1417.952850758
 31
0.0
  0
ARC
  5
566
100
AcDbEntity
  8
GEKO
  6
SOLID
 62
        7
100
AcDbCircle
 10
-890.318180219
 20
1412.977208208
 30
0.0
 40
2.0
100
AcDbArc
 50
195.000006837
 51
285.000006837
  0
ARC
  5
567
100
AcDbEntity
  8
GEKO
  6
SOLID
 62
        7
100
AcDbCircle
 10
-879.535942832
 20
1415.866301387
 30
0.0
 40
2.0
100
AcDbArc
 50
123.000006837
 51
285.000006837
  0
ARC
  5
568
100
AcDbEntity
  8
GEKO
  6
SOLID
 62
        7
100
AcDbCircle
 10
-892.100842641
 20
1419.630191764
 30
0.0
 40
2.0
100
AcDbArc
 50
195.000006837
 51
303.000006837
  0
ARC
  5
569
100
AcDbEntity
  8
GEKO
  6
SOLID
 62
        7
100
AcDbCircle
 10
-898.34157419
 20
1442.920907865
 30
0.0
 40
2.0
100
AcDbArc
 50
105.000006837
 51
195.000006837
  0
ARC
  5
56A
100
AcDbEntity
  8
GEKO
  6
SOLID
 62
        7
100
AcDbCircle
 10
-826.660120677
 20
1462.127904615
 30
0.0
 40
2.0
100
AcDbArc
 50
303.000006837
 51
105.000006837
  0
ARC
  5
56B
100
AcDbEntity
  8
GEKO
  6
SOLID
 62
        7
100
AcDbCircle
 10
-790.966757263
 20
1471.691917082
 30
0.0
 40
2.0
100
AcDbArc
 50
105.000006837
 51
267.000006837
  0
ARC
  5
56C
100
AcDbEntity
  8
GEKO
  6
SOLID
 62
        7
100
AcDbCircle
 10
-802.747327022
 20
1444.270883659
 30
0.0
 40
20.0
100
AcDbArc
 50
87.000006837
 51
123.000006837
  0
ARC
  5
56D
100
AcDbEntity
  8
GEKO
  6
SOLID
 62
        7
100
AcDbCircle
 10
-612.072173491
 20
1519.626599215
 30
0.0
 40
2.0
100
AcDbArc
 50
341.387632239
 51
105.000006837
  0
LINE
  5
56E
100
AcDbEntity
  8
GEKO
  6
SOLID
 62
        7
100
AcDbLine
 10
-899.111409635
 20
1456.173221754
 30
0.0
 11
-937.748441452
 21
1445.82045534
 31
0.0
  0
CIRCLE
  5
56F
100
AcDbEntity
  8
GEKO
  6
SOLID
 62
        7
100
AcDbCircle
 10
-585.536586428
 20
1510.690010424
 30
0.0
 40
12.0
  0
CIRCLE
  5
570
100
AcDbEntity
  8
GEKO
  6
SOLID
 62
        7
100
AcDbCircle
 10
-585.536586428
 20
1510.690010424
 30
0.0
 40
19.0
  0
ARC
  5
571
100
AcDbEntity
  8
GEKO
  6
SOLID
 62
        7
100
AcDbCircle
 10
-585.536586428
 20
1510.690010424
 30
0.0
 40
26.0
100
AcDbArc
 50
130.331681854
 51
259.668331821
  0
LINE
  5
572
100
AcDbEntity
  8
GEKO
  6
SOLID
 62
        7
100
AcDbLine
 10
-602.651814629
 20
1420.017294812
 30
0.0
 11
-864.417713554
 21
1349.877333589
 31
0.0
  0
LINE
  5
573
100
AcDbEntity
  8
GEKO
  6
SOLID
 62
        7
100
AcDbLine
 10
-806.343737369
 20
1220.196419405
 30
0.0
 11
-804.717508538
 21
1214.125676556
 31
0.0
  0
ARC
  5
574
100
AcDbEntity
  8
GEKO
  6
SOLID
 62
        7
100
AcDbCircle
 10
-815.969153479
 20
1199.722979593
 30
0.0
 40
4.0
100
AcDbArc
 50
205.358271577
 51
285.000006837
  0
LINE
  5
575
100
AcDbEntity
  8
GEKO
  6
SOLID
 62
        7
100
AcDbLine
 10
-814.933876832
 20
1195.859276411
 30
0.0
 11
-693.164311791
 21
1228.487348601
 31
0.0
  0
LINE
  5
576
100
AcDbEntity
  8
GEKO
  6
SOLID
 62
        7
100
AcDbLine
 10
-822.616899501
 20
1209.329758911
 30
0.0
 11
-819.70692079
 21
1198.469575694
 31
0.0
  0
LINE
  5
577
100
AcDbEntity
  8
GEKO
  6
SOLID
 62
        7
100
AcDbLine
 10
-822.143869154
 20
1216.703609051
 30
0.0
 11
-808.759376065
 21
1220.289043174
 31
0.0
  0
ARC
  5
578
100
AcDbEntity
  8
GEKO
  6
SOLID
 62
        7
100
AcDbCircle
 10
-811.496362776
 20
1203.731501695
 30
0.0
 40
15.285466596
100
AcDbArc
 50
87.408329459
 51
122.584241639
  0
LINE
  5
579
100
AcDbEntity
  8
GEKO
  6
SOLID
 62
        7
100
AcDbLine
 10
-818.101769433
 20
1210.539374658
 30
0.0
 11
-819.728230673
 21
1216.61098509
 31
0.0
  0
ARC
  5
57A
100
AcDbEntity
  8
GEKO
  6
SOLID
 62
        7
100
AcDbCircle
 10
-821.085685246
 20
1212.753623612
 30
0.0
 40
4.089315873
100
AcDbArc
 50
70.612033752
 51
139.380537346
  0
INSERT
  5
58C
100
AcDbEntity
  8
GEKO
100
AcDbBlockReference
  2
*D35
 10
0.0
 20
0.0
 30
0.0
  0
ARC
  5
58D
100
AcDbEntity
  8
GEKO
  6
SOLID
 62
        7
100
AcDbCircle
 10
-807.701192157
 20
1216.339057735
 30
0.0
 40
4.089315873
100
AcDbArc
 50
70.612033752
 51
139.380537346
  0
LINE
  5
58E
100
AcDbEntity
  8
GEKO
  6
SOLID
 62
        7
100
AcDbLine
 10
-809.178928836
 20
1212.93024259
 30
0.0
 11
-810.805235115
 21
1219.00127455
 31
0.0
  0
LINE
  5
58F
100
AcDbEntity
  8
GEKO
  6
SOLID
 62
        7
100
AcDbLine
 10
-822.563142566
 20
1209.34399982
 30
0.0
 11
-824.189681287
 21
1215.415899489
 31
0.0
  0
LINE
  5
590
100
AcDbEntity
  8
GEKO
  6
SOLID
 62
        7
100
AcDbLine
 10
-569.525863077
 20
1261.616186901
 30
0.0
 11
-693.164311791
 21
1228.487348601
 31
0.0
  0
ARC
  5
591
100
AcDbEntity
  8
GEKO
  6
SOLID
 62
        7
100
AcDbCircle
 10
-570.043501403
 20
1263.548038492
 30
0.0
 40
2.0
100
AcDbArc
 50
-74.999993163
 51
15.000006837
  0
LINE
  5
592
100
AcDbEntity
  8
GEKO
  6
SOLID
 62
        7
100
AcDbLine
 10
-571.476298892
 20
1276.622712152
 30
0.0
 11
-568.111649807
 21
1264.065676812
 31
0.0
  0
ARC
  5
593
100
AcDbEntity
  8
GEKO
  6
SOLID
 62
        7
100
AcDbCircle
 10
-587.898836492
 20
1275.234934868
 30
0.0
 40
4.089315873
100
AcDbArc
 50
70.619469491
 51
139.387973086
  0
LINE
  5
594
100
AcDbEntity
  8
GEKO
  6
SOLID
 62
        7
100
AcDbLine
 10
-575.573387861
 20
1282.771985541
 30
0.0
 11
-588.957415526
 21
1279.184814434
 31
0.0
  0
ARC
  5
595
100
AcDbEntity
  8
GEKO
  6
SOLID
 62
        7
100
AcDbCircle
 10
-578.308343228
 20
1266.214057513
 30
0.0
 40
15.285466596
100
AcDbArc
 50
87.415765198
 51
122.591677379
  0
ARC
  5
596
100
AcDbEntity
  8
GEKO
  6
SOLID
 62
        7
100
AcDbCircle
 10
-574.514808826
 20
1278.822105976
 30
0.0
 40
4.089315873
100
AcDbArc
 50
70.619469491
 51
139.387973086
  0
LINE
  5
597
100
AcDbEntity
  8
GEKO
  6
SOLID
 62
        7
100
AcDbLine
 10
-571.530410673
 20
1276.60798655
 30
0.0
 11
-573.15773738
 21
1282.679675079
 31
0.0
  0
LINE
  5
598
100
AcDbEntity
  8
GEKO
  6
SOLID
 62
        7
100
AcDbLine
 10
-575.991830829
 20
1275.412552052
 30
0.0
 11
-577.619080018
 21
1281.483951354
 31
0.0
  0
LINE
  5
599
100
AcDbEntity
  8
GEKO
  6
SOLID
 62
        7
100
AcDbLine
 10
-584.914671141
 20
1273.021683055
 30
0.0
 11
-586.541765293
 21
1279.092503905
 31
0.0
  0
LINE
  5
59A
100
AcDbEntity
  8
GEKO
  6
SOLID
 62
        7
100
AcDbLine
 10
-591.003107964
 20
1277.896780305
 30
0.0
 11
-589.376091297
 21
1271.826248556
 31
0.0
  0
LINE
  5
59B
100
AcDbEntity
  8
GEKO
  6
SOLID
 62
        7
100
AcDbLine
 10
-891.058978143
 20
1182.708572914
 30
0.0
 11
-891.835435278
 21
1185.606350392
 31
0.0
  0
ARC
  5
59C
100
AcDbEntity
  8
GEKO
  6
SOLID
 62
        7
100
AcDbCircle
 10
-890.869509452
 20
1185.865169437
 30
0.0
 40
1.0
100
AcDbArc
 50
105.0
 51
195.0
  0
LINE
  5
59D
100
AcDbEntity
  8
GEKO
  6
SOLID
 62
        7
100
AcDbLine
 10
-891.128328497
 20
1186.831095264
 30
0.0
 11
-867.946108666
 21
1193.042752346
 31
0.0
  0
ARC
  5
59E
100
AcDbEntity
  8
GEKO
  6
SOLID
 62
        7
100
AcDbCircle
 10
-867.687289621
 20
1192.07682652
 30
0.0
 40
1.0
100
AcDbArc
 50
15.0
 51
105.0
  0
LINE
  5
59F
100
AcDbEntity
  8
GEKO
  6
SOLID
 62
        7
100
AcDbLine
 10
-865.944906659
 20
1189.437868086
 30
0.0
 11
-866.721363794
 21
1192.335645565
 31
0.0
  0
LINE
  5
5A0
100
AcDbEntity
  8
GEKO
  6
SOLID
 62
        7
100
AcDbLine
 10
-915.429829329
 20
1176.178415934
 30
0.0
 11
-825.376062792
 21
1200.308249953
 31
0.0
  0
ARC
  5
5A1
100
AcDbEntity
  8
GEKO
  6
SOLID
 62
        7
100
AcDbCircle
 10
-585.536586428
 20
1510.690010424
 30
0.0
 40
26.0
100
AcDbArc
 50
310.331681854
 51
79.668331821
  0
LINE
  5
5A2
100
AcDbEntity
  8
GEKO
  6
SOLID
 62
        7
100
AcDbLine
 10
-510.867247218
 20
1546.167659237
 30
0.0
 11
-580.873590557
 21
1536.268448013
 31
0.0
  0
LINE
  5
5A3
100
AcDbEntity
  8
GEKO
  6
SOLID
 62
        7
100
AcDbLine
 10
-503.132218958
 20
1517.300154553
 30
0.0
 11
-568.70909002
 21
1490.86993563
 31
0.0
  0
LINE
  5
5A4
100
AcDbEntity
  8
GEKO
  6
SOLID
 62
        7
100
AcDbLine
 10
-614.268666557
 20
1516.825546696
 30
0.0
 11
-687.440062016
 21
1469.307474467
 31
0.0
  0
ARC
  5
5A5
100
AcDbEntity
  8
GEKO
  6
SOLID
 62
        7
100
AcDbCircle
 10
-522.66286351
 20
1522.360600679
 30
0.0
 40
2.0
100
AcDbArc
 50
32.104642014
 51
105.000006837
  0
CIRCLE
  5
5A6
100
AcDbEntity
  8
GEKO
  6
SOLID
 62
        7
100
AcDbCircle
 10
-508.262522796
 20
1531.395543254
 30
0.0
 40
5.0
  0
ARC
  5
5A7
100
AcDbEntity
  8
GEKO
  6
SOLID
 62
        7
100
AcDbCircle
 10
-525.251055113
 20
1532.019858633
 30
0.0
 40
2.0
100
AcDbArc
 50
285.000006837
 51
357.895371661
  0
ARC
  5
5A8
100
AcDbEntity
  8
GEKO
  6
SOLID
 62
        7
100
AcDbCircle
 10
-508.262522796
 20
1531.395543254
 30
0.0
 40
6.0
100
AcDbArc
 50
27.000006837
 51
337.000006837
  0
ARC
  5
5A9
100
AcDbEntity
  8
GEKO
  6
SOLID
 62
        7
100
AcDbCircle
 10
-633.474961597
 20
1513.891736689
 30
0.0
 40
2.0
100
AcDbArc
 50
303.000006837
 51
105.000006837
  0
ARC
  5
5AA
100
AcDbEntity
  8
GEKO
  6
SOLID
 62
        7
100
AcDbCircle
 10
-613.179388293
 20
1515.148205692
 30
0.0
 40
2.0
100
AcDbArc
 50
350.838301756
 51
123.000006837
  0
ARC
  5
5AB
100
AcDbEntity
  8
GEKO
  6
SOLID
 62
        7
100
AcDbCircle
 10
-557.631278789
 20
1512.990837572
 30
0.0
 40
2.0
100
AcDbArc
 50
105.000006837
 51
184.713446226
  0
ARC
  5
5AC
100
AcDbEntity
  8
GEKO
  6
SOLID
 62
        7
100
AcDbCircle
 10
-686.350783752
 20
1467.630133462
 30
0.0
 40
2.0
100
AcDbArc
 50
123.000006837
 51
285.000006837
  0
LINE
  5
5AD
100
AcDbEntity
  8
GEKO
  6
SOLID
 62
        7
100
AcDbLine
 10
-558.148917104
 20
1514.922689162
 30
0.0
 11
-523.180501825
 21
1524.292452269
 31
0.0
  0
LINE
  5
5AE
100
AcDbEntity
  8
GEKO
  6
SOLID
 62
        7
100
AcDbLine
 10
-559.701832066
 20
1520.718243934
 30
0.0
 11
-524.733416787
 21
1530.088007042
 31
0.0
  0
ARC
  5
5AF
100
AcDbEntity
  8
GEKO
  6
SOLID
 62
        7
100
AcDbCircle
 10
-722.044147165
 20
1458.066120994
 30
0.0
 40
2.0
100
AcDbArc
 50
285.000006837
 51
87.000006837
  0
ARC
  5
5B0
100
AcDbEntity
  8
GEKO
  6
SOLID
 62
        7
100
AcDbCircle
 10
-508.262522796
 20
1531.395543254
 30
0.0
 40
15.0
100
AcDbArc
 50
212.104642014
 51
177.895371661
  0
ARC
  5
5B1
100
AcDbEntity
  8
GEKO
  6
SOLID
 62
        7
100
AcDbCircle
 10
-560.219470393
 20
1522.650095526
 30
0.0
 40
2.0
100
AcDbArc
 50
205.286567449
 51
285.000006837
  0
ARC
  5
5B2
100
AcDbEntity
  8
GEKO
  6
SOLID
 62
        7
100
AcDbCircle
 10
-604.048779519
 20
1489.682899558
 30
0.0
 40
2.0
100
AcDbArc
 50
285.000006837
 51
48.612381436
  0
ARC
  5
5B3
100
AcDbEntity
  8
GEKO
  6
SOLID
 62
        7
100
AcDbCircle
 10
-499.151324143
 20
1366.151161896
 30
0.0
 40
4.0
100
AcDbArc
 50
7.711508176
 51
90.99911865
  0
ARC
  5
5B4
100
AcDbEntity
  8
GEKO
  6
SOLID
 62
        7
100
AcDbCircle
 10
-498.572202426
 20
1363.989784279
 30
0.0
 40
4.0
100
AcDbArc
 50
299.000006837
 51
22.287617311
  0
LINE
  5
5B5
100
AcDbEntity
  8
GEKO
  6
SOLID
 62
        7
100
AcDbLine
 10
-593.083674743
 20
1461.582082353
 30
0.0
 11
-572.415712444
 21
1384.448233781
 31
0.0
  0
LINE
  5
5B6
100
AcDbEntity
  8
GEKO
  6
SOLID
 62
        7
100
AcDbLine
 10
-584.757062629
 20
1448.355387779
 30
0.0
 11
-578.24323271
 21
1450.718415143
 31
0.0
  0
LINE
  5
5B7
100
AcDbEntity
  8
GEKO
  6
SOLID
 62
        7
100
AcDbLine
 10
-578.24323271
 20
1450.718415143
 30
0.0
 11
-579.032109612
 21
1452.565291891
 31
0.0
  0
LINE
  5
5B8
100
AcDbEntity
  8
GEKO
  6
SOLID
 62
        7
100
AcDbLine
 10
-516.52736547
 20
1432.806338251
 30
0.0
 11
-580.761430864
 21
1415.594864086
 31
0.0
  0
ARC
  5
5B9
100
AcDbEntity
  8
GEKO
  6
SOLID
 62
        7
100
AcDbCircle
 10
-567.138795319
 20
1475.75469511
 30
0.0
 40
32.574919576
100
AcDbArc
 50
167.568993378
 51
197.264863796
  0
LINE
  5
5BA
100
AcDbEntity
  8
GEKO
  6
SOLID
 62
        7
100
AcDbLine
 10
-479.904454278
 20
1296.127838201
 30
0.0
 11
-541.240742286
 21
1279.692821518
 31
0.0
  0
LINE
  5
5BB
100
AcDbEntity
  8
GEKO
  6
SOLID
 62
        7
100
AcDbLine
 10
-579.312542171
 20
1415.983092827
 30
0.0
 11
-543.077859719
 21
1280.75348147
 31
0.0
  0
CIRCLE
  5
5BC
100
AcDbEntity
  8
GEKO
  6
SOLID
 62
        7
100
AcDbCircle
 10
-372.734430806
 20
1506.628906791
 30
0.0
 40
15.0
  0
LINE
  5
5BD
100
AcDbEntity
  8
GEKO
  6
SOLID
 62
        7
100
AcDbLine
 10
-388.388003953
 20
1507.093285464
 30
0.0
 11
-386.05863151
 21
1498.399953305
 31
0.0
  0
LINE
  5
5BE
100
AcDbEntity
  8
GEKO
  6
SOLID
 62
        7
100
AcDbLine
 10
-386.412184827
 20
1497.787580827
 30
0.0
 11
-386.05863151
 21
1498.399953305
 31
0.0
  0
LINE
  5
5BF
100
AcDbEntity
  8
GEKO
  6
SOLID
 62
        7
100
AcDbLine
 10
-388.388003953
 20
1507.093285464
 30
0.0
 11
-389.000376431
 21
1507.446838781
 31
0.0
  0
LINE
  5
5C0
100
AcDbEntity
  8
GEKO
  6
SOLID
 62
        7
100
AcDbLine
 10
-576.613622871
 20
1513.08041939
 30
0.0
 11
-579.004489732
 21
1504.157578531
 31
0.0
  0
LINE
  5
5C1
100
AcDbEntity
  8
GEKO
  6
SOLID
 62
        7
100
AcDbLine
 10
-583.145596298
 20
1519.612391258
 30
0.0
 11
-576.613622871
 21
1513.08041939
 31
0.0
  0
LINE
  5
5C2
100
AcDbEntity
  8
GEKO
  6
SOLID
 62
        7
100
AcDbLine
 10
-592.068436586
 20
1517.221522267
 30
0.0
 11
-583.145596298
 21
1519.612391258
 31
0.0
  0
LINE
  5
5C3
100
AcDbEntity
  8
GEKO
  6
SOLID
 62
        7
100
AcDbLine
 10
-549.547205679
 20
1492.286924601
 30
0.0
 11
-551.072196458
 21
1497.978264953
 31
0.0
  0
LINE
  5
5C4
100
AcDbEntity
  8
GEKO
  6
SOLID
 62
        7
100
AcDbLine
 10
-588.752642438
 20
1472.464368547
 30
0.0
 11
-592.011371494
 21
1484.626105146
 31
0.0
  0
LINE
  5
5C5
100
AcDbEntity
  8
GEKO
  6
SOLID
 62
        7
100
AcDbLine
 10
-553.41090886
 20
1491.25164796
 30
0.0
 11
-554.809673349
 21
1496.471905609
 31
0.0
  0
LINE
  5
5C6
100
AcDbEntity
  8
GEKO
  6
SOLID
 62
        7
100
AcDbLine
 10
-555.98051624
 20
1485.386742341
 30
0.0
 11
-554.945239599
 21
1481.52303916
 31
0.0
  0
LINE
  5
5C7
100
AcDbEntity
  8
GEKO
  6
SOLID
 62
        7
100
AcDbLine
 10
-564.673848399
 20
1483.057369898
 30
0.0
 11
-563.638571757
 21
1479.193666716
 31
0.0
  0
LINE
  5
5C8
100
AcDbEntity
  8
GEKO
  6
SOLID
 62
        7
100
AcDbLine
 10
-598.906298354
 20
1463.993891207
 30
0.0
 11
-574.657149971
 21
1373.494880601
 31
0.0
  0
LINE
  5
5C9
100
AcDbEntity
  8
GEKO
  6
SOLID
 62
        7
100
AcDbLine
 10
-541.770569296
 20
1489.106483603
 30
0.0
 11
-538.942142508
 21
1491.934911066
 31
0.0
  0
LINE
  5
5CA
100
AcDbEntity
  8
GEKO
  6
SOLID
 62
        7
100
AcDbLine
 10
-555.014590445
 20
1485.645561502
 30
0.0
 11
-556.394832905
 21
1485.275726472
 31
0.0
  0
LINE
  5
5CB
100
AcDbEntity
  8
GEKO
  6
SOLID
 62
        7
100
AcDbLine
 10
-549.547205679
 20
1492.286924601
 30
0.0
 11
-553.854529172
 21
1491.132780199
 31
0.0
  0
LINE
  5
5CC
100
AcDbEntity
  8
GEKO
  6
SOLID
 62
        7
100
AcDbLine
 10
-548.253109877
 20
1487.457295624
 30
0.0
 11
-555.014590445
 21
1485.645561502
 31
0.0
  0
LINE
  5
5CD
100
AcDbEntity
  8
GEKO
  6
SOLID
 62
        7
100
AcDbLine
 10
-547.217833235
 20
1483.593592443
 30
0.0
 11
-555.359556264
 21
1481.412023291
 31
0.0
  0
LINE
  5
5CE
100
AcDbEntity
  8
GEKO
  6
SOLID
 62
        7
100
AcDbLine
 10
-566.536349143
 20
1478.417209235
 30
0.0
 11
-588.752642438
 21
1472.464368547
 31
0.0
  0
LINE
  5
5CF
100
AcDbEntity
  8
GEKO
  6
SOLID
 62
        7
100
AcDbLine
 10
-540.709908997
 20
1488.045823558
 30
0.0
 11
-537.88148221
 21
1490.87425102
 31
0.0
  0
LINE
  5
5D0
100
AcDbEntity
  8
GEKO
  6
SOLID
 62
        7
100
AcDbLine
 10
-540.709908997
 20
1488.045823558
 30
0.0
 11
-550.765830909
 21
1498.101743069
 31
0.0
  0
LINE
  5
5D1
100
AcDbEntity
  8
GEKO
  6
SOLID
 62
        7
100
AcDbLine
 10
-537.88148221
 20
1490.87425102
 30
0.0
 11
-546.73398053
 21
1499.726747228
 31
0.0
  0
LINE
  5
5D2
100
AcDbEntity
  8
GEKO
  6
SOLID
 62
        7
100
AcDbLine
 10
-547.217833235
 20
1483.593592443
 30
0.0
 11
-548.253109877
 21
1487.457295624
 31
0.0
  0
LINE
  5
5D3
100
AcDbEntity
  8
GEKO
  6
SOLID
 62
        7
100
AcDbLine
 10
-558.378897759
 20
1551.089579672
 30
0.0
 11
-554.515194331
 21
1550.054303952
 31
0.0
  0
LINE
  5
5D4
100
AcDbEntity
  8
GEKO
  6
SOLID
 62
        7
100
AcDbLine
 10
-590.051724289
 20
1535.268129472
 30
0.0
 11
-591.048209636
 21
1533.542165746
 31
0.0
  0
LINE
  5
5D5
100
AcDbEntity
  8
GEKO
  6
SOLID
 62
        7
100
AcDbLine
 10
-554.126965936
 20
1551.503192738
 30
0.0
 11
-557.316543865
 21
1539.599520169
 31
0.0
  0
LINE
  5
5D6
100
AcDbEntity
  8
GEKO
  6
SOLID
 62
        7
100
AcDbLine
 10
-557.990669365
 20
1552.538468458
 30
0.0
 11
-554.126965936
 21
1551.503192738
 31
0.0
  0
LINE
  5
5D7
100
AcDbEntity
  8
GEKO
  6
SOLID
 62
        7
100
AcDbLine
 10
-557.990669365
 20
1552.538468458
 30
0.0
 11
-561.620730651
 21
1538.990888835
 31
0.0
  0
LINE
  5
5D8
100
AcDbEntity
  8
GEKO
  6
SOLID
 62
        7
100
AcDbLine
 10
-563.005802018
 20
1542.515065962
 30
0.0
 11
-590.051724289
 21
1535.268129472
 31
0.0
  0
LINE
  5
5D9
100
AcDbEntity
  8
GEKO
  6
SOLID
 62
        7
100
AcDbLine
 10
-386.412184827
 20
1497.787580827
 30
0.0
 11
-479.624024084
 21
1472.811531851
 31
0.0
  0
LINE
  5
5DA
100
AcDbEntity
  8
GEKO
  6
SOLID
 62
        7
100
AcDbLine
 10
-389.000376431
 20
1507.446838781
 30
0.0
 11
-482.212215687
 21
1482.470789805
 31
0.0
  0
LINE
  5
5DB
100
AcDbEntity
  8
GEKO
  6
SOLID
 62
        7
100
AcDbLine
 10
-483.658421625
 20
1487.868101266
 30
0.0
 11
-479.365204923
 21
1471.845606056
 31
0.0
  0
LINE
  5
5DC
100
AcDbEntity
  8
GEKO
  6
SOLID
 62
        7
100
AcDbLine
 10
-479.365204923
 20
1471.845606056
 30
0.0
 11
-480.072311558
 21
1470.6208611
 31
0.0
  0
ARC
  5
5DD
100
AcDbEntity
  8
GEKO
  6
SOLID
 62
        7
100
AcDbCircle
 10
-508.262522796
 20
1531.395543254
 30
0.0
 40
46.5
100
AcDbArc
 50
-139.240675652
 51
169.240780688
  0
ARC
  5
5DE
100
AcDbEntity
  8
GEKO
  6
SOLID
 62
        7
100
AcDbCircle
 10
-508.262522796
 20
1531.395543254
 30
0.0
 40
50.0
100
AcDbArc
 50
-140.601268617
 51
170.6013666
  0
LINE
  5
5DF
100
AcDbEntity
  8
GEKO
  6
SOLID
 62
        7
100
AcDbLine
 10
-480.072311558
 20
1470.6208611
 30
0.0
 11
-502.288604853
 21
1464.668020412
 31
0.0
  0
LINE
  5
5E0
100
AcDbEntity
  8
GEKO
  6
SOLID
 62
        7
100
AcDbLine
 10
-536.302384077
 20
1458.504588595
 30
0.0
 11
-537.629546182
 21
1466.741768983
 31
0.0
  0
LINE
  5
5E1
100
AcDbEntity
  8
GEKO
  6
SOLID
 62
        7
100
AcDbLine
 10
-537.972006958
 20
1458.2355815
 30
0.0
 11
-539.271620034
 21
1466.301776411
 31
0.0
  0
LINE
  5
5E2
100
AcDbEntity
  8
GEKO
  6
SOLID
 62
        7
100
AcDbLine
 10
-509.424512956
 20
1474.299288466
 30
0.0
 11
-508.097350851
 21
1466.062108078
 31
0.0
  0
LINE
  5
5E3
100
AcDbEntity
  8
GEKO
  6
SOLID
 62
        7
100
AcDbLine
 10
-540.913693887
 20
1465.861783838
 30
0.0
 11
-539.586531782
 21
1457.62460345
 31
0.0
  0
LINE
  5
5E4
100
AcDbEntity
  8
GEKO
  6
SOLID
 62
        7
100
AcDbLine
 10
-504.813202664
 20
1466.942093353
 30
0.0
 11
-506.140364769
 21
1475.179273741
 31
0.0
  0
LINE
  5
5E5
100
AcDbEntity
  8
GEKO
  6
SOLID
 62
        7
100
AcDbLine
 10
-506.482825545
 20
1466.673086257
 30
0.0
 11
-507.782438621
 21
1474.739281168
 31
0.0
  0
LINE
  5
5E6
100
AcDbEntity
  8
GEKO
  6
SOLID
 62
        7
100
AcDbLine
 10
-505.066264771
 20
1471.170681819
 30
0.0
 11
-506.140364286
 21
1475.17927387
 31
0.0
  0
LINE
  5
5E7
100
AcDbEntity
  8
GEKO
  6
SOLID
 62
        7
100
AcDbLine
 10
-515.372570626
 20
1470.997304704
 30
0.0
 11
-514.078474824
 21
1466.167675727
 31
0.0
  0
LINE
  5
5E8
100
AcDbEntity
  8
GEKO
  6
SOLID
 62
        7
100
AcDbLine
 10
-507.80656651
 20
1481.397622257
 30
0.0
 11
-503.513349808
 21
1465.375127047
 31
0.0
  0
LINE
  5
5E9
100
AcDbEntity
  8
GEKO
  6
SOLID
 62
        7
100
AcDbLine
 10
-508.281234758
 20
1467.203404156
 30
0.0
 11
-513.466102346
 21
1465.814122409
 31
0.0
  0
ARC
  5
5EA
100
AcDbEntity
  8
GEKO
  6
SOLID
 62
        7
100
AcDbCircle
 10
-540.493654084
 20
1457.174485405
 30
0.0
 40
1.0
100
AcDbArc
 50
23.874475837
 51
105.000006837
  0
ARC
  5
5EB
100
AcDbEntity
  8
GEKO
  6
SOLID
 62
        7
100
AcDbCircle
 10
-541.198628747
 20
1456.985587924
 30
0.0
 40
2.7
100
AcDbArc
 50
60.314968837
 51
97.068823837
  0
ARC
  5
5EC
100
AcDbEntity
  8
GEKO
  6
SOLID
 62
        7
100
AcDbCircle
 10
-537.123421009
 20
1458.28459231
 30
0.0
 40
0.85
100
AcDbArc
 50
-176.694504163
 51
15.000006837
  0
ARC
  5
5ED
100
AcDbEntity
  8
GEKO
  6
SOLID
 62
        7
100
AcDbCircle
 10
-538.765494861
 20
1457.844599737
 30
0.0
 40
0.85
100
AcDbArc
 50
-176.694504163
 51
15.000006837
  0
ARC
  5
5EE
100
AcDbEntity
  8
GEKO
  6
SOLID
 62
        7
100
AcDbCircle
 10
-505.887301703
 20
1470.950685534
 30
0.0
 40
0.85
100
AcDbArc
 50
-51.019268163
 51
15.000006837
  0
ARC
  5
5EF
100
AcDbEntity
  8
GEKO
  6
SOLID
 62
        7
100
AcDbCircle
 10
-505.634239596
 20
1466.722097067
 30
0.0
 40
0.85
100
AcDbArc
 50
-176.694504163
 51
15.000006837
  0
ARC
  5
5F0
100
AcDbEntity
  8
GEKO
  6
SOLID
 62
        7
100
AcDbCircle
 10
-507.276313931
 20
1466.282104365
 30
0.0
 40
0.85
100
AcDbArc
 50
-176.694504163
 51
15.000006837
  0
LINE
  5
5F1
100
AcDbEntity
  8
GEKO
  6
SOLID
 62
        7
100
AcDbLine
 10
-541.097586451
 20
1458.047938349
 30
0.0
 11
-541.537579023
 21
1459.690012201
 31
0.0
  0
LINE
  5
5F2
100
AcDbEntity
  8
GEKO
  6
SOLID
 62
        7
100
AcDbLine
 10
-536.438298455
 20
1459.348155211
 30
0.0
 11
-508.233264746
 21
1466.905674824
 31
0.0
  0
LINE
  5
5F3
100
AcDbEntity
  8
GEKO
  6
SOLID
 62
        7
100
AcDbLine
 10
-541.537579023
 20
1459.690012201
 30
0.0
 11
-569.211349681
 21
1452.274844162
 31
0.0
  0
LINE
  5
5F4
100
AcDbEntity
  8
GEKO
  6
SOLID
 62
        7
100
AcDbLine
 10
-540.752473238
 20
1458.1404112
 30
0.0
 11
-568.771357108
 21
1450.63277031
 31
0.0
  0
LINE
  5
5F5
100
AcDbEntity
  8
GEKO
  6
SOLID
 62
        7
100
AcDbLine
 10
-536.903424717
 20
1457.463555383
 30
0.0
 11
-507.056317639
 21
1465.461067438
 31
0.0
  0
LINE
  5
5F6
100
AcDbEntity
  8
GEKO
  6
SOLID
 62
        7
100
AcDbLine
 10
-513.466102346
 20
1465.814122409
 30
0.0
 11
-514.078474824
 21
1466.167675727
 31
0.0
  0
LINE
  5
5F7
100
AcDbEntity
  8
GEKO
  6
SOLID
 62
        7
100
AcDbLine
 10
-504.289807289
 20
1468.272904433
 30
0.0
 11
-504.99708657
 21
1468.08338943
 31
0.0
  0
LINE
  5
5F8
100
AcDbEntity
  8
GEKO
  6
SOLID
 62
        7
100
AcDbLine
 10
-503.513349808
 20
1465.375127047
 30
0.0
 11
-502.288604853
 21
1464.668020412
 31
0.0
  0
LINE
  5
5F9
100
AcDbEntity
  8
GEKO
  6
SOLID
 62
        7
100
AcDbLine
 10
-509.24062905
 20
1473.157992388
 30
0.0
 11
-515.019017308
 21
1471.609677182
 31
0.0
  0
ARC
  5
5FA
100
AcDbEntity
  8
GEKO
  6
SOLID
 62
        7
100
AcDbCircle
 10
-538.450583114
 20
1466.521772698
 30
0.0
 40
0.85
100
AcDbArc
 50
3.305495837
 51
195.000006837
  0
ARC
  5
5FB
100
AcDbEntity
  8
GEKO
  6
SOLID
 62
        7
100
AcDbCircle
 10
-540.092656966
 20
1466.081780125
 30
0.0
 40
0.85
100
AcDbArc
 50
3.305495837
 51
195.000006837
  0
ARC
  5
5FC
100
AcDbEntity
  8
GEKO
  6
SOLID
 62
        7
100
AcDbCircle
 10
-506.961401701
 20
1474.959277456
 30
0.0
 40
0.85
100
AcDbArc
 50
3.305495837
 51
195.000006837
  0
ARC
  5
5FD
100
AcDbEntity
  8
GEKO
  6
SOLID
 62
        7
100
AcDbCircle
 10
-508.603475553
 20
1474.519284883
 30
0.0
 40
0.85
100
AcDbArc
 50
3.305495837
 51
195.000006837
  0
LINE
  5
5FE
100
AcDbEntity
  8
GEKO
  6
SOLID
 62
        7
100
AcDbLine
 10
-509.288598579
 20
1473.45572185
 30
0.0
 11
-537.493632287
 21
1465.898202237
 31
0.0
  0
ARC
  5
5FF
100
AcDbEntity
  8
GEKO
  6
SOLID
 62
        7
100
AcDbCircle
 10
-506.961401218
 20
1474.959277585
 30
0.0
 40
0.85
100
AcDbArc
 50
15.000014837
 51
194.999998837
  0
LINE
  5
600
100
AcDbEntity
  8
GEKO
  6
SOLID
 62
        7
100
AcDbLine
 10
-508.823471834
 20
1475.340321808
 30
0.0
 11
-538.670579395
 21
1467.342809623
 31
0.0
  0
LINE
  5
601
100
AcDbEntity
  8
GEKO
  6
SOLID
 62
        7
100
AcDbLine
 10
-515.372570626
 20
1470.997304704
 30
0.0
 11
-515.019017308
 21
1471.609677182
 31
0.0
  0
LINE
  5
602
100
AcDbEntity
  8
GEKO
  6
SOLID
 62
        7
100
AcDbLine
 10
-505.842722252
 20
1474.068459205
 30
0.0
 11
-505.956480863
 21
1474.037977663
 31
0.0
  0
LINE
  5
603
100
AcDbEntity
  8
GEKO
  6
SOLID
 62
        7
100
AcDbLine
 10
-564.276327546
 20
1473.846399419
 30
0.0
 11
-564.12103605
 21
1473.266843941
 31
0.0
  0
LINE
  5
604
100
AcDbEntity
  8
GEKO
  6
SOLID
 62
        7
100
AcDbLine
 10
-558.774028024
 20
1453.311547844
 30
0.0
 11
-556.700106896
 21
1445.571572519
 31
0.0
  0
LINE
  5
605
100
AcDbEntity
  8
GEKO
  6
SOLID
 62
        7
100
AcDbLine
 10
-552.978473251
 20
1454.864462806
 30
0.0
 11
-550.904552124
 21
1447.124487481
 31
0.0
  0
LINE
  5
606
100
AcDbEntity
  8
GEKO
  6
SOLID
 62
        7
100
AcDbLine
 10
-556.087734418
 20
1445.218019202
 30
0.0
 11
-556.700106896
 21
1445.571572519
 31
0.0
  0
LINE
  5
607
100
AcDbEntity
  8
GEKO
  6
SOLID
 62
        7
100
AcDbLine
 10
-550.904552124
 20
1447.124487481
 30
0.0
 11
-551.258105441
 21
1446.512115003
 31
0.0
  0
LINE
  5
608
100
AcDbEntity
  8
GEKO
  6
SOLID
 62
        7
100
AcDbLine
 10
-551.258105441
 20
1446.512115003
 30
0.0
 11
-556.087734418
 21
1445.218019202
 31
0.0
  0
ARC
  5
609
100
AcDbEntity
  8
GEKO
  6
SOLID
 62
        7
100
AcDbCircle
 10
-568.9913534
 20
1451.453807237
 30
0.0
 40
0.85
100
AcDbArc
 50
-254.999993163
 51
-74.999993163
  0
LINE
  5
60A
100
AcDbEntity
  8
GEKO
  6
SOLID
 62
        7
100
AcDbLine
 10
-574.902472959
 20
1469.483004065
 30
0.0
 11
-579.358405548
 21
1461.765100299
 31
0.0
  0
LINE
  5
60B
100
AcDbEntity
  8
GEKO
  6
SOLID
 62
        7
100
AcDbLine
 10
-579.232600277
 20
1471.983003548
 30
0.0
 11
-582.811234501
 21
1465.784625542
 31
0.0
  0
LINE
  5
60C
100
AcDbEntity
  8
GEKO
  6
SOLID
 62
        7
100
AcDbLine
 10
-545.285981645
 20
1484.111230763
 30
0.0
 11
-543.991885843
 21
1479.281601786
 31
0.0
  0
LINE
  5
60D
100
AcDbEntity
  8
GEKO
  6
SOLID
 62
        7
100
AcDbLine
 10
-545.285981645
 20
1484.111230763
 30
0.0
 11
-555.359556264
 21
1481.412023291
 31
0.0
  0
ARC
  5
60E
100
AcDbEntity
  8
GEKO
  6
SOLID
 62
        7
100
AcDbCircle
 10
-570.572345648
 20
1466.983004582
 30
0.0
 40
10.0
100
AcDbArc
 50
105.000006837
 51
150.000006837
  0
ARC
  5
60F
100
AcDbEntity
  8
GEKO
  6
SOLID
 62
        7
100
AcDbCircle
 10
-570.572345648
 20
1466.983004582
 30
0.0
 40
5.0
100
AcDbArc
 50
105.000006837
 51
150.000006837
  0
LINE
  5
610
100
AcDbEntity
  8
GEKO
  6
SOLID
 62
        7
100
AcDbLine
 10
-567.502274939
 20
1478.158390075
 30
0.0
 11
-566.208179137
 21
1473.328761098
 31
0.0
  0
LINE
  5
611
100
AcDbEntity
  8
GEKO
  6
SOLID
 62
        7
100
AcDbLine
 10
-567.019312041
 20
1478.287799655
 30
0.0
 11
-573.160537246
 21
1476.642262535
 31
0.0
  0
LINE
  5
612
100
AcDbEntity
  8
GEKO
  6
SOLID
 62
        7
100
AcDbLine
 10
-552.047462212
 20
1482.299496641
 30
0.0
 11
-550.753366411
 21
1477.469867664
 31
0.0
  0
LINE
  5
613
100
AcDbEntity
  8
GEKO
  6
SOLID
 62
        7
100
AcDbLine
 10
-543.991885843
 20
1479.281601786
 30
0.0
 11
-563.434940677
 21
1474.071848458
 31
0.0
  0
LINE
  5
614
100
AcDbEntity
  8
GEKO
  6
SOLID
 62
        7
100
AcDbLine
 10
-563.434940677
 20
1474.071848458
 30
0.0
 11
-571.866441444
 21
1471.812633558
 31
0.0
  0
LINE
  5
615
100
AcDbEntity
  8
GEKO
  6
SOLID
 62
        7
100
AcDbLine
 10
-563.086962627
 20
1479.341470008
 30
0.0
 11
-567.019312041
 21
1478.287799655
 31
0.0
  0
LINE
  5
616
100
AcDbEntity
  8
GEKO
  6
SOLID
 62
        7
100
AcDbLine
 10
-564.122239268
 20
1483.205173189
 30
0.0
 11
-589.787919079
 21
1476.328071728
 31
0.0
  0
LINE
  5
617
100
AcDbEntity
  8
GEKO
  6
SOLID
 62
        7
100
AcDbLine
 10
-563.086962627
 20
1479.341470008
 30
0.0
 11
-566.536349143
 21
1478.417209235
 31
0.0
  0
LINE
  5
618
100
AcDbEntity
  8
GEKO
  6
SOLID
 62
        7
100
AcDbLine
 10
-562.915205611
 20
1468.766625624
 30
0.0
 11
-559.214020596
 21
1454.953621696
 31
0.0
  0
LINE
  5
619
100
AcDbEntity
  8
GEKO
  6
SOLID
 62
        7
100
AcDbLine
 10
-557.109031224
 20
1470.279907665
 30
0.0
 11
-553.418465824
 21
1456.506536658
 31
0.0
  0
LINE
  5
61A
100
AcDbEntity
  8
GEKO
  6
SOLID
 62
        7
100
AcDbLine
 10
-594.459303447
 20
1508.298681409
 30
0.0
 11
-592.068436586
 21
1517.221522267
 31
0.0
  0
LINE
  5
61B
100
AcDbEntity
  8
GEKO
  6
SOLID
 62
        7
100
AcDbLine
 10
-549.547205679
 20
1492.286924601
 30
0.0
 11
-553.854529172
 21
1491.132780199
 31
0.0
  0
LINE
  5
61C
100
AcDbEntity
  8
GEKO
  6
SOLID
 62
        7
100
AcDbLine
 10
-552.921007042
 20
1486.206535751
 30
0.0
 11
-554.215102844
 21
1491.036164728
 31
0.0
  0
LINE
  5
61D
100
AcDbEntity
  8
GEKO
  6
SOLID
 62
        7
100
AcDbLine
 10
-567.733357597
 20
1482.237576488
 30
0.0
 11
-569.027453399
 21
1487.067205465
 31
0.0
  0
LINE
  5
61E
100
AcDbEntity
  8
GEKO
  6
SOLID
 62
        7
100
AcDbLine
 10
-569.027453399
 20
1487.067205465
 30
0.0
 11
-565.553627536
 21
1487.998014744
 31
0.0
  0
LINE
  5
61F
100
AcDbEntity
  8
GEKO
  6
SOLID
 62
        7
100
AcDbLine
 10
-552.560433371
 20
1486.303151222
 30
0.0
 11
-553.854529172
 21
1491.132780199
 31
0.0
  0
LINE
  5
620
100
AcDbEntity
  8
GEKO
  6
SOLID
 62
        7
100
AcDbLine
 10
-554.215102844
 20
1491.036164728
 30
0.0
 11
-557.688928707
 21
1490.105355449
 31
0.0
  0
LINE
  5
621
100
AcDbEntity
  8
GEKO
  6
SOLID
 62
        7
100
AcDbLine
 10
-554.215102844
 20
1491.036164728
 30
0.0
 11
-556.308686247
 21
1490.475190479
 31
0.0
  0
LINE
  5
622
100
AcDbEntity
  8
GEKO
  6
SOLID
 62
        7
100
AcDbLine
 10
-576.742213679
 20
1466.296478788
 30
0.0
 11
-580.990419249
 21
1468.938370938
 31
0.0
  0
ARC
  5
623
100
AcDbEntity
  8
GEKO
  6
SOLID
 62
        7
100
AcDbCircle
 10
-567.138795319
 20
1475.75469511
 30
0.0
 40
32.574919576
100
AcDbArc
 50
-136.876701258
 51
-122.741776044
  0
ARC
  5
624
100
AcDbEntity
  8
GEKO
  6
SOLID
 62
        7
100
AcDbCircle
 10
-567.138795319
 20
1475.75469511
 30
0.0
 40
18.574919576
100
AcDbArc
 50
187.52690869
 51
237.600925331
  0
LINE
  5
625
100
AcDbEntity
  8
GEKO
  6
SOLID
 62
        7
100
AcDbLine
 10
-579.004489732
 20
1504.157578531
 30
0.0
 11
-587.92733002
 21
1501.766709541
 31
0.0
  0
LINE
  5
626
100
AcDbEntity
  8
GEKO
  6
SOLID
 62
        7
100
AcDbLine
 10
-579.032109612
 20
1452.565291891
 30
0.0
 11
-577.806418887
 21
1457.50026686
 31
0.0
  0
LINE
  5
627
100
AcDbEntity
  8
GEKO
  6
SOLID
 62
        7
100
AcDbLine
 10
-577.806418887
 20
1457.50026686
 30
0.0
 11
-578.599241175
 21
1458.873474965
 31
0.0
  0
LINE
  5
628
100
AcDbEntity
  8
GEKO
  6
SOLID
 62
        7
100
AcDbLine
 10
-578.599241175
 20
1458.873474965
 30
0.0
 11
-577.185110169
 21
1460.131020923
 31
0.0
  0
LINE
  5
629
100
AcDbEntity
  8
GEKO
  6
SOLID
 62
        7
100
AcDbLine
 10
-594.45942671
 20
1508.299141432
 30
0.0
 11
-595.663971399
 21
1507.976384502
 31
0.0
  0
LINE
  5
62A
100
AcDbEntity
  8
GEKO
  6
SOLID
 62
        7
100
AcDbLine
 10
-566.035339833
 20
1538.366643278
 30
0.0
 11
-566.8695052
 21
1541.479789321
 31
0.0
  0
LINE
  5
62B
100
AcDbEntity
  8
GEKO
  6
SOLID
 62
        7
100
AcDbLine
 10
-562.045410362
 20
1538.930837217
 30
0.0
 11
-563.005802018
 21
1542.515065962
 31
0.0
  0
LINE
  5
62C
100
AcDbEntity
  8
GEKO
  6
SOLID
 62
        7
100
AcDbLine
 10
-565.735370021
 20
1489.225456244
 30
0.0
 11
-565.193151814
 21
1490.164605985
 31
0.0
  0
LINE
  5
62D
100
AcDbEntity
  8
GEKO
  6
SOLID
 62
        7
100
AcDbLine
 10
-558.007963658
 20
1491.296009527
 30
0.0
 11
-565.735370021
 21
1489.225456244
 31
0.0
  0
LINE
  5
62E
100
AcDbEntity
  8
GEKO
  6
SOLID
 62
        7
100
AcDbLine
 10
-558.947113399
 20
1491.838227733
 30
0.0
 11
-558.007963658
 21
1491.296009527
 31
0.0
  0
LINE
  5
62F
100
AcDbEntity
  8
GEKO
  6
SOLID
 62
        7
100
AcDbLine
 10
-558.947113399
 20
1491.838227733
 30
0.0
 11
-565.193151814
 21
1490.164605985
 31
0.0
  0
LINE
  5
630
100
AcDbEntity
  8
GEKO
  6
SOLID
 62
        7
100
AcDbLine
 10
-555.035894711
 20
1480.204102507
 30
0.0
 11
-558.007963658
 21
1491.296009527
 31
0.0
  0
LINE
  5
631
100
AcDbEntity
  8
GEKO
  6
SOLID
 62
        7
100
AcDbLine
 10
-555.776578685
 20
1480.00563674
 30
0.0
 11
-558.947113399
 21
1491.838227733
 31
0.0
  0
LINE
  5
632
100
AcDbEntity
  8
GEKO
  6
SOLID
 62
        7
100
AcDbLine
 10
-554.392087104
 20
1476.494324517
 30
0.0
 11
-555.362658955
 21
1480.11654625
 31
0.0
  0
LINE
  5
633
100
AcDbEntity
  8
GEKO
  6
SOLID
 62
        7
100
AcDbLine
 10
-555.035894711
 20
1480.204102507
 30
0.0
 11
-562.763301074
 21
1478.133549224
 31
0.0
  0
LINE
  5
634
100
AcDbEntity
  8
GEKO
  6
SOLID
 62
        7
100
AcDbLine
 10
-562.0226171
 20
1478.332014992
 30
0.0
 11
-565.193151814
 21
1490.164605985
 31
0.0
  0
LINE
  5
635
100
AcDbEntity
  8
GEKO
  6
SOLID
 62
        7
100
AcDbLine
 10
-562.763301074
 20
1478.133549224
 30
0.0
 11
-565.735370021
 21
1489.225456244
 31
0.0
  0
LINE
  5
636
100
AcDbEntity
  8
GEKO
  6
SOLID
 62
        7
100
AcDbLine
 10
-561.465964978
 20
1474.598883749
 30
0.0
 11
-562.436536829
 21
1478.221105482
 31
0.0
  0
LINE
  5
637
100
AcDbEntity
  8
GEKO
  6
SOLID
 62
        7
100
AcDbLine
 10
-549.456146614
 20
1472.932142363
 30
0.0
 11
-550.677475734
 21
1477.490202519
 31
0.0
  0
LINE
  5
638
100
AcDbEntity
  8
GEKO
  6
SOLID
 62
        7
100
AcDbLine
 10
-549.456146614
 20
1472.932142363
 30
0.0
 11
-550.278766821
 21
1472.10952196
 31
0.0
  0
ARC
  5
639
100
AcDbEntity
  8
GEKO
  6
SOLID
 62
        7
100
AcDbCircle
 10
-551.976622344
 20
1475.08887662
 30
0.0
 40
3.317273061
100
AcDbArc
 50
250.553134455
 51
310.553134455
  0
LINE
  5
63A
100
AcDbEntity
  8
GEKO
  6
SOLID
 62
        7
100
AcDbLine
 10
-553.081050481
 20
1471.960851836
 30
0.0
 11
-554.146950503
 21
1475.938842975
 31
0.0
  0
LINE
  5
63B
100
AcDbEntity
  8
GEKO
  6
SOLID
 62
        7
100
AcDbLine
 10
-563.279511578
 20
1473.491779442
 30
0.0
 11
-563.434803075
 21
1474.071334919
 31
0.0
  0
LINE
  5
63C
100
AcDbEntity
  8
GEKO
  6
SOLID
 62
        7
100
AcDbLine
 10
-550.522046636
 20
1476.910133502
 30
0.0
 11
-563.279511578
 21
1473.491779442
 31
0.0
  0
LINE
  5
63D
100
AcDbEntity
  8
GEKO
  6
SOLID
 62
        7
100
AcDbLine
 10
-563.279511578
 20
1473.491779442
 30
0.0
 11
-565.025422454
 21
1473.023963809
 31
0.0
  0
LINE
  5
63E
100
AcDbEntity
  8
GEKO
  6
SOLID
 62
        7
100
AcDbLine
 10
-563.959522432
 20
1469.04597267
 30
0.0
 11
-562.835802161
 21
1468.744872875
 31
0.0
  0
LINE
  5
63F
100
AcDbEntity
  8
GEKO
  6
SOLID
 62
        7
100
AcDbLine
 10
-563.959522432
 20
1469.04597267
 30
0.0
 11
-565.025422454
 21
1473.023963809
 31
0.0
  0
ARC
  5
640
100
AcDbEntity
  8
GEKO
  6
SOLID
 62
        7
100
AcDbCircle
 10
-562.855094295
 20
1472.173997454
 30
0.0
 40
3.317273061
100
AcDbArc
 50
259.44687922
 51
319.44687922
  0
ARC
  5
641
100
AcDbEntity
  8
GEKO
  6
SOLID
 62
        7
100
AcDbCircle
 10
-559.769005868
 20
1482.413499055
 30
0.0
 40
12.409132974
100
AcDbArc
 50
267.387532852
 51
302.612480823
  0
LINE
  5
642
100
AcDbEntity
  8
GEKO
  6
SOLID
 62
        7
100
AcDbLine
 10
-562.835802161
 20
1468.744872875
 30
0.0
 11
-550.278766821
 21
1472.10952196
 31
0.0
  0
LINE
  5
643
100
AcDbEntity
  8
GEKO
  6
SOLID
 62
        7
100
AcDbLine
 10
-560.334618565
 20
1470.017263198
 30
0.0
 11
-561.400518587
 21
1473.995254337
 31
0.0
  0
LINE
  5
644
100
AcDbEntity
  8
GEKO
  6
SOLID
 62
        7
100
AcDbLine
 10
-892.987573469
 20
1452.637718426
 30
0.0
 11
-898.034496263
 21
1471.473081727
 31
0.0
  0
LINE
  5
645
100
AcDbEntity
  8
GEKO
  6
SOLID
 62
        7
100
AcDbLine
 10
-587.92733002
 20
1501.766709541
 30
0.0
 11
-594.459303447
 21
1508.298681409
 31
0.0
  0
LINE
  5
646
100
AcDbEntity
  8
GEKO
  6
SOLID
 62
        7
100
AcDbLine
 10
-480.292683018
 20
1297.576726894
 30
0.0
 11
-544.526748413
 21
1280.36525273
 31
0.0
  0
LINE
  5
647
100
AcDbEntity
  8
GEKO
  6
SOLID
 62
        7
100
AcDbLine
 10
-516.915594211
 20
1434.255226944
 30
0.0
 11
-479.904454278
 21
1296.127838201
 31
0.0
  0
LINE
  5
648
100
AcDbEntity
  8
GEKO
  6
SOLID
 62
        7
100
AcDbLine
 10
-544.526748413
 20
1280.36525273
 30
0.0
 11
-580.761430865
 21
1415.594864086
 31
0.0
  0
LINE
  5
649
100
AcDbEntity
  8
GEKO
  6
SOLID
 62
        7
100
AcDbLine
 10
-620.023090688
 20
1477.120326669
 30
0.0
 11
-568.708954437
 21
1490.869914601
 31
0.0
  0
LINE
  5
64A
100
AcDbEntity
  8
GEKO
  6
SOLID
 62
        7
100
AcDbLine
 10
-601.41443306
 20
1425.471882488
 30
0.0
 11
-865.698471625
 21
1354.657187782
 31
0.0
  0
LINE
  5
64B
100
AcDbEntity
  8
GEKO
  6
SOLID
 62
        7
100
AcDbLine
 10
-956.785192772
 20
1474.365830007
 30
0.0
 11
-954.33570286
 21
1472.951616737
 31
0.0
  0
LINE
  5
64C
100
AcDbEntity
  8
GEKO
  6
SOLID
 62
        7
100
AcDbLine
 10
-632.187591225
 20
1522.518839051
 30
0.0
 11
-580.873454974
 21
1536.268426983
 31
0.0
  0
CIRCLE
  5
64D
100
AcDbEntity
  8
GEKO
  6
SOLID
 62
        7
100
AcDbCircle
 10
-585.53645083
 20
1510.689989393
 30
0.0
 40
12.0
  0
LINE
  5
64E
100
AcDbEntity
  8
GEKO
  6
SOLID
 62
        7
100
AcDbLine
 10
-632.18760871
 20
1522.518891726
 30
0.0
 11
-637.234531505
 21
1541.354255027
 31
0.0
  0
ARC
  5
64F
100
AcDbEntity
  8
GEKO
  6
SOLID
 62
        7
100
AcDbCircle
 10
-585.53645083
 20
1510.689989393
 30
0.0
 40
26.0
100
AcDbArc
 50
130.331681854
 51
259.668331821
  0
ARC
  5
650
100
AcDbEntity
  8
GEKO
  6
SOLID
 62
        7
100
AcDbCircle
 10
-585.53645083
 20
1510.689989393
 30
0.0
 40
26.0
100
AcDbArc
 50
310.331681854
 51
79.668331821
  0
LINE
  5
651
100
AcDbEntity
  8
GEKO
  6
SOLID
 62
        7
100
AcDbLine
 10
-503.132083375
 20
1517.300133524
 30
0.0
 11
-568.708954437
 21
1490.869914601
 31
0.0
  0
LINE
  5
652
100
AcDbEntity
  8
GEKO
  6
SOLID
 62
        7
100
AcDbLine
 10
-510.867111635
 20
1546.167638208
 30
0.0
 11
-580.873454975
 21
1536.268426985
 31
0.0
  0
ARC
  5
653
100
AcDbEntity
  8
GEKO
  6
SOLID
 62
        7
100
AcDbCircle
 10
-525.250919515
 20
1532.019837602
 30
0.0
 40
2.0
100
AcDbArc
 50
285.000006837
 51
357.895371661
  0
CIRCLE
  5
654
100
AcDbEntity
  8
GEKO
  6
SOLID
 62
        7
100
AcDbCircle
 10
-508.262387197
 20
1531.395522222
 30
0.0
 40
5.0
  0
ARC
  5
655
100
AcDbEntity
  8
GEKO
  6
SOLID
 62
        7
100
AcDbCircle
 10
-522.662727911
 20
1522.360579648
 30
0.0
 40
2.0
100
AcDbArc
 50
32.104642014
 51
105.000006837
  0
ARC
  5
656
100
AcDbEntity
  8
GEKO
  6
SOLID
 62
        7
100
AcDbCircle
 10
-560.219334794
 20
1522.650074495
 30
0.0
 40
2.0
100
AcDbArc
 50
205.286567449
 51
285.000006837
  0
LINE
  5
657
100
AcDbEntity
  8
GEKO
  6
SOLID
 62
        7
100
AcDbLine
 10
-559.701696483
 20
1520.718222905
 30
0.0
 11
-524.733281204
 21
1530.087986012
 31
0.0
  0
LINE
  5
658
100
AcDbEntity
  8
GEKO
  6
SOLID
 62
        7
100
AcDbLine
 10
-954.33570286
 20
1472.951616737
 30
0.0
 11
-771.775619589
 21
1521.868466969
 31
0.0
  0
LINE
  5
659
100
AcDbEntity
  8
GEKO
  6
SOLID
 62
        7
100
AcDbLine
 10
-962.4792143
 20
1495.616197506
 30
0.0
 11
-956.785192772
 21
1474.365830007
 31
0.0
  0
LINE
  5
65A
100
AcDbEntity
  8
GEKO
  6
SOLID
 62
        7
100
AcDbLine
 10
-962.4792143
 20
1495.616197506
 30
0.0
 11
-961.06500103
 21
1498.065687417
 31
0.0
  0
ARC
  5
65B
100
AcDbEntity
  8
GEKO
  6
SOLID
 62
        7
100
AcDbCircle
 10
-570.557408663
 20
1284.784527865
 30
0.0
 40
4.0
100
AcDbArc
 50
275.370324652
 51
15.0
  0
LINE
  5
65C
100
AcDbEntity
  8
GEKO
  6
SOLID
 62
        7
100
AcDbLine
 10
-898.034496263
 20
1471.473081727
 30
0.0
 11
-637.234531505
 21
1541.354255027
 31
0.0
  0
LINE
  5
65D
100
AcDbEntity
  8
GEKO
  6
SOLID
 62
        7
100
AcDbLine
 10
-961.06500103
 20
1498.065687417
 30
0.0
 11
-778.505025699
 21
1546.982508727
 31
0.0
  0
ARC
  5
65E
100
AcDbEntity
  8
GEKO
  6
L_DASH
 62
        7
100
AcDbCircle
 10
-946.506756323
 20
1497.825732232
 30
0.0
 40
25.0
100
AcDbArc
 50
154.458404964
 51
231.869904483
  0
ARC
  5
65F
100
AcDbEntity
  8
GEKO
  6
L_DASH
 62
        7
100
AcDbCircle
 10
-964.552206496
 20
1506.449056894
 30
0.0
 40
5.0
100
AcDbArc
 50
105.00000563
 51
154.458403757
  0
LINE
  5
660
100
AcDbEntity
  8
GEKO
  6
L_DASH
 62
        7
100
AcDbLine
 10
-782.128487017
 20
1560.505749612
 30
0.0
 11
-965.846302292
 21
1511.278685875
 31
0.0
  0
LINE
  5
661
100
AcDbEntity
  8
GEKO
  6
L_DASH
 62
        7
100
AcDbLine
 10
-957.561643326
 20
1477.263887142
 30
0.0
 11
-773.069816404
 21
1526.698346773
 31
0.0
  0
ARC
  5
662
100
AcDbEntity
  8
GEKO
  6
L_DASH
 62
        7
100
AcDbCircle
 10
-958.855739133
 20
1482.093516114
 30
0.0
 40
5.0
100
AcDbArc
 50
231.869903276
 51
285.00000563
  0
LINE
  5
663
100
AcDbEntity
  8
GEKO
  6
SOLID
 62
        7
100
AcDbLine
 10
-558.148781521
 20
1514.922668133
 30
0.0
 11
-523.180366242
 21
1524.29243124
 31
0.0
  0
ARC
  5
664
100
AcDbEntity
  8
GEKO
  6
SOLID
 62
        7
100
AcDbCircle
 10
-508.262387197
 20
1531.395522222
 30
0.0
 40
15.0
100
AcDbArc
 50
212.104642014
 51
177.895371661
  0
ARC
  5
665
100
AcDbEntity
  8
GEKO
  6
SOLID
 62
        7
100
AcDbCircle
 10
-557.631143191
 20
1512.99081654
 30
0.0
 40
2.0
100
AcDbArc
 50
105.000006837
 51
184.713446226
  0
LINE
  5
666
100
AcDbEntity
  8
GEKO
  6
SOLID
 62
        7
100
AcDbLine
 10
-571.406540001
 20
1276.362303224
 30
0.0
 11
-570.70572066
 21
1273.746809836
 31
0.0
  0
ARC
  5
667
100
AcDbEntity
  8
GEKO
  6
SOLID
 62
        7
100
AcDbCircle
 10
-826.670091813
 20
1205.137896824
 30
0.0
 40
5.0
100
AcDbArc
 50
285.0
 51
15.259566314
  0
LINE
  5
668
100
AcDbEntity
  8
GEKO
  6
SOLID
 62
        7
100
AcDbLine
 10
-571.406593889
 20
1276.362304846
 30
0.0
 11
-570.630136407
 21
1273.46452746
 31
0.0
  0
LINE
  5
669
100
AcDbEntity
  8
GEKO
  6
SOLID
 62
        7
100
AcDbLine
 10
-571.927704247
 20
1278.293226106
 30
0.0
 11
-571.410065927
 21
1276.361374516
 31
0.0
  0
ARC
  5
66A
100
AcDbEntity
  8
GEKO
  6
SOLID
 62
        7
100
AcDbCircle
 10
-569.995852647
 20
1278.810864425
 30
0.0
 40
2.0
100
AcDbArc
 50
95.370324651
 51
195.000006837
  0
LINE
  5
66B
100
AcDbEntity
  8
GEKO
  6
SOLID
 62
        7
100
AcDbLine
 10
-822.547194498
 20
1209.069351604
 30
0.0
 11
-819.570756443
 21
1197.96113886
 31
0.0
  0
LINE
  5
66C
100
AcDbEntity
  8
GEKO
  6
SOLID
 62
        7
100
AcDbLine
 10
-571.476365096
 20
1276.622694413
 30
0.0
 11
-826.480696169
 21
1208.29445722
 31
0.0
  0
LINE
  5
66D
100
AcDbEntity
  8
GEKO
  6
SOLID
 62
        7
100
AcDbLine
 10
-516.915594211
 20
1434.255226944
 30
0.0
 11
-578.251882219
 21
1417.82021026
 31
0.0
  0
INSERT
  5
67E
100
AcDbEntity
  8
GEKO
100
AcDbBlockReference
  2
*D36
 10
0.0
 20
0.0
 30
0.0
  0
LINE
  5
67F
100
AcDbEntity
  8
GEKO
  6
SOLID
 62
        7
100
AcDbLine
 10
-761.607372659
 20
1595.967405983
 30
0.0
 11
-764.754861487
 21
1595.967405983
 31
0.0
  0
LINE
  5
680
100
AcDbEntity
  8
GEKO
  6
SOLID
 62
        7
100
AcDbLine
 10
-936.592809979
 20
1449.235483462
 30
0.0
 11
-943.710398853
 21
1475.798674089
 31
0.0
  0
LINE
  5
681
100
AcDbEntity
  8
GEKO
  6
SOLID
 62
        7
100
AcDbLine
 10
-965.570583621
 20
1441.47090871
 30
0.0
 11
-926.456089905
 21
1451.951610716
 31
0.0
  0
LINE
  5
682
100
AcDbEntity
  8
GEKO
  6
SOLID
 62
        7
100
AcDbLine
 10
-964.794126156
 20
1438.573131361
 30
0.0
 11
-937.748328666
 21
1445.820034417
 31
0.0
  0
LINE
  5
683
100
AcDbEntity
  8
GEKO
  6
SOLID
 62
        7
100
AcDbLine
 10
-964.794125979
 20
1438.573131409
 30
0.0
 11
-991.531029418
 21
1538.35656585
 31
0.0
  0
LINE
  5
684
100
AcDbEntity
  8
GEKO
  6
L_DASH
 62
        7
100
AcDbLine
 10
-880.930767881
 20
1547.700414068
 30
0.0
 11
-889.141137142
 21
1545.500451205
 31
0.0
  0
LINE
  5
685
100
AcDbEntity
  8
GEKO
  6
L_DASH
 62
        7
100
AcDbLine
 10
-878.27271224
 20
1549.033797792
 30
0.0
 11
-892.066996014
 21
1545.337628831
 31
0.0
  0
ARC
  5
686
100
AcDbEntity
  8
GEKO
  6
L_DASH
 62
        7
100
AcDbCircle
 10
-885.191272548
 20
1547.180012861
 30
0.0
 40
2.25
100
AcDbArc
 50
-74.999993163
 51
195.000006837
  0
CIRCLE
  5
687
100
AcDbEntity
  8
GEKO
  6
L_DASH
 62
        7
100
AcDbCircle
 10
-885.191272548
 20
1547.180012861
 30
0.0
 40
2.5
  0
CIRCLE
  5
688
100
AcDbEntity
  8
GEKO
  6
L_DASH
 62
        7
100
AcDbCircle
 10
-885.191272548
 20
1547.180012861
 30
0.0
 40
4.25
  0
LINE
  5
689
100
AcDbEntity
  8
GEKO
  6
L_DASH
 62
        7
100
AcDbLine
 10
-881.241350879
 20
1548.859525053
 30
0.0
 11
-889.45172014
 21
1546.65956219
 31
0.0
  0
LINE
  5
68A
100
AcDbEntity
  8
GEKO
  6
L_DASH
 62
        7
100
AcDbLine
 10
-880.740567736
 20
1542.160881046
 30
0.0
 11
-881.514344115
 21
1545.048652427
 31
0.0
  0
LINE
  5
68B
100
AcDbEntity
  8
GEKO
  6
L_DASH
 62
        7
100
AcDbLine
 10
-886.536122433
 20
1540.607966117
 30
0.0
 11
-887.309897188
 21
1543.495731435
 31
0.0
  0
ARC
  5
68C
100
AcDbEntity
  8
GEKO
  6
SOLID
 62
        7
100
AcDbCircle
 10
-883.638373445
 20
1541.384447768
 30
0.0
 40
3.0
100
AcDbArc
 50
195.000006837
 51
15.000006837
  0
LINE
  5
68D
100
AcDbEntity
  8
GEKO
  6
SOLID
 62
        7
100
AcDbLine
 10
-948.507845456
 20
1501.430383084
 30
0.0
 11
-958.473205279
 21
1538.621594506
 31
0.0
  0
LINE
  5
68E
100
AcDbEntity
  8
GEKO
  6
SOLID
 62
        7
100
AcDbLine
 10
-946.823740807
 20
1533.782237297
 30
0.0
 11
-949.202176189
 21
1542.658674748
 31
0.0
  0
LINE
  5
68F
100
AcDbEntity
  8
GEKO
  6
SOLID
 62
        7
100
AcDbLine
 10
-941.028181982
 20
1535.335136818
 30
0.0
 11
-943.406621493
 21
1544.211589677
 31
0.0
  0
LINE
  5
690
100
AcDbEntity
  8
GEKO
  6
L_DASH
 62
        7
100
AcDbLine
 10
-940.16419225
 20
1520.519580184
 30
0.0
 11
-947.177028846
 21
1546.691830171
 31
0.0
  0
ARC
  5
691
100
AcDbEntity
  8
GEKO
  6
L_DASH
 62
        7
100
AcDbCircle
 10
-943.146820272
 20
1531.650863238
 30
0.0
 40
2.25
100
AcDbArc
 50
-74.999993163
 51
195.000006837
  0
CIRCLE
  5
692
100
AcDbEntity
  8
GEKO
  6
L_DASH
 62
        7
100
AcDbCircle
 10
-943.146820272
 20
1531.650863238
 30
0.0
 40
2.5
  0
LINE
  5
693
100
AcDbEntity
  8
GEKO
  6
L_DASH
 62
        7
100
AcDbLine
 10
-938.696112823
 20
1526.631740385
 30
0.0
 11
-939.469888394
 21
1529.519508749
 31
0.0
  0
LINE
  5
694
100
AcDbEntity
  8
GEKO
  6
SOLID
 62
        7
100
AcDbLine
 10
-944.491667519
 20
1525.078825456
 30
0.0
 11
-945.265438955
 21
1527.966578388
 31
0.0
  0
LINE
  5
695
100
AcDbEntity
  8
GEKO
  6
L_DASH
 62
        7
100
AcDbLine
 10
-937.852278328
 20
1533.069493553
 30
0.0
 11
-947.977869609
 21
1530.356348252
 31
0.0
  0
CIRCLE
  5
696
100
AcDbEntity
  8
GEKO
  6
L_DASH
 62
        7
100
AcDbCircle
 10
-943.146820272
 20
1531.650863238
 30
0.0
 40
4.25
  0
LINE
  5
697
100
AcDbEntity
  8
GEKO
  6
L_DASH
 62
        7
100
AcDbLine
 10
-938.886314856
 20
1532.171264776
 30
0.0
 11
-947.096684117
 21
1529.971301913
 31
0.0
  0
LINE
  5
698
100
AcDbEntity
  8
GEKO
  6
L_DASH
 62
        7
100
AcDbLine
 10
-939.196897854
 20
1533.330375762
 30
0.0
 11
-947.407267115
 21
1531.130412899
 31
0.0
  0
ARC
  5
699
100
AcDbEntity
  8
GEKO
  6
SOLID
 62
        7
100
AcDbCircle
 10
-941.593916072
 20
1525.855299511
 30
0.0
 40
3.0
100
AcDbArc
 50
195.000006837
 51
15.000006837
  0
LINE
  5
69A
100
AcDbEntity
  8
GEKO
  6
SOLID
 62
        7
100
AcDbLine
 10
-958.47320178
 20
1538.621586586
 30
0.0
 11
-957.412541824
 21
1540.458704018
 31
0.0
  0
LINE
  5
69B
100
AcDbEntity
  8
GEKO
  6
SOLID
 62
        7
100
AcDbLine
 10
-949.202174393
 20
1542.658666054
 30
0.0
 11
-957.412543654
 21
1540.458703191
 31
0.0
  0
LINE
  5
69C
100
AcDbEntity
  8
GEKO
  6
SOLID
 62
        7
100
AcDbLine
 10
-891.246631766
 20
1558.18781431
 30
0.0
 11
-943.406619621
 21
1544.211581016
 31
0.0
  0
LINE
  5
69D
100
AcDbEntity
  8
GEKO
  6
SOLID
 62
        7
100
AcDbLine
 10
-888.868196529
 20
1549.311380974
 30
0.0
 11
-891.246631103
 21
1558.187815409
 31
0.0
  0
LINE
  5
69E
100
AcDbEntity
  8
GEKO
  6
L_DASH
 62
        7
100
AcDbLine
 10
-882.208647163
 20
1536.048720845
 30
0.0
 11
-888.87517084
 21
1560.928514042
 31
0.0
  0
LINE
  5
69F
100
AcDbEntity
  8
GEKO
  6
SOLID
 62
        7
100
AcDbLine
 10
-883.072640214
 20
1550.864289865
 30
0.0
 11
-885.451076405
 21
1559.740730338
 31
0.0
  0
LINE
  5
6A0
100
AcDbEntity
  8
GEKO
  6
SOLID
 62
        7
100
AcDbLine
 10
-865.43823209
 20
1523.688829525
 30
0.0
 11
-875.403589835
 21
1560.880033194
 31
0.0
  0
LINE
  5
6A1
100
AcDbEntity
  8
GEKO
  6
SOLID
 62
        7
100
AcDbLine
 10
-875.403589546
 20
1560.880032538
 30
0.0
 11
-877.240706977
 21
1561.940692495
 31
0.0
  0
LINE
  5
6A2
100
AcDbEntity
  8
GEKO
  6
SOLID
 62
        7
100
AcDbLine
 10
-877.240707733
 20
1561.940692136
 30
0.0
 11
-885.451076994
 21
1559.740729273
 31
0.0
  0
ARC
  5
6A3
100
AcDbEntity
  8
GEKO
  6
SOLID
 62
        7
100
AcDbCircle
 10
-770.373126019
 20
1549.475374414
 30
0.0
 40
2.5
100
AcDbArc
 50
15.000006837
 51
105.000006837
  0
ARC
  5
6A4
100
AcDbEntity
  8
GEKO
  6
SOLID
 62
        7
100
AcDbCircle
 10
-771.063791283
 20
1553.212081793
 30
0.0
 40
1.300000072
100
AcDbArc
 50
195.000006837
 51
280.471942827
  0
ARC
  5
6A5
100
AcDbEntity
  8
GEKO
  6
SOLID
 62
        7
100
AcDbCircle
 10
-770.360185058
 20
1549.427078113
 30
0.0
 40
1.899999976
100
AcDbArc
 50
15.000006837
 51
105.000006837
  0
LINE
  5
6A6
100
AcDbEntity
  8
GEKO
  6
SOLID
 62
        7
100
AcDbLine
 10
-779.062283554
 20
1549.062349282
 30
0.0
 11
-770.851914293
 21
1551.262312145
 31
0.0
  0
LINE
  5
6A7
100
AcDbEntity
  8
GEKO
  6
SOLID
 62
        7
100
AcDbLine
 10
-779.062298293
 20
1549.062345333
 30
0.0
 11
-787.272667554
 21
1546.86238247
 31
0.0
  0
ARC
  5
6A8
100
AcDbEntity
  8
GEKO
  6
SOLID
 62
        7
100
AcDbCircle
 10
-786.780938318
 20
1545.027148437
 30
0.0
 40
1.899999976
100
AcDbArc
 50
105.000006837
 51
195.000006837
  0
ARC
  5
6A9
100
AcDbEntity
  8
GEKO
  6
L_DASH
 62
        7
100
AcDbCircle
 10
-786.79387928
 20
1545.075444739
 30
0.0
 40
2.5
100
AcDbArc
 50
105.000006837
 51
195.000006837
  0
ARC
  5
6AA
100
AcDbEntity
  8
GEKO
  6
L_DASH
 62
        7
100
AcDbCircle
 10
-788.064100159
 20
1548.656860584
 30
0.0
 40
1.300000072
100
AcDbArc
 50
289.528070848
 51
15.000006837
  0
LINE
  5
6AB
100
AcDbEntity
  8
GEKO
  6
SOLID
 62
        7
100
AcDbLine
 10
-790.123825615
 20
1555.571193887
 30
0.0
 11
-789.865006455
 21
1554.605268092
 31
0.0
  0
LINE
  5
6AC
100
AcDbEntity
  8
GEKO
  6
SOLID
 62
        7
100
AcDbLine
 10
-788.310237425
 20
1554.598345928
 30
0.0
 11
-789.865006537
 21
1554.605268105
 31
0.0
  0
LINE
  5
6AD
100
AcDbEntity
  8
GEKO
  6
SOLID
 62
        7
100
AcDbLine
 10
-788.804346518
 20
1556.442385511
 30
0.0
 11
-786.808369246
 21
1548.993300476
 31
0.0
  0
LINE
  5
6AE
100
AcDbEntity
  8
GEKO
  6
SOLID
 62
        7
100
AcDbLine
 10
-790.123825615
 20
1555.571193887
 30
0.0
 11
-788.674936922
 21
1555.959422628
 31
0.0
  0
LINE
  5
6AF
100
AcDbEntity
  8
GEKO
  6
SOLID
 62
        7
100
AcDbLine
 10
-773.821335839
 20
1558.480637228
 30
0.0
 11
-772.478327563
 21
1559.26401688
 31
0.0
  0
LINE
  5
6B0
100
AcDbEntity
  8
GEKO
  6
SOLID
 62
        7
100
AcDbLine
 10
-772.737146784
 20
1560.229942624
 30
0.0
 11
-772.478327624
 21
1559.264016829
 31
0.0
  0
LINE
  5
6B1
100
AcDbEntity
  8
GEKO
  6
SOLID
 62
        7
100
AcDbLine
 10
-772.737146784
 20
1560.229942624
 30
0.0
 11
-774.186035477
 21
1559.841713883
 31
0.0
  0
LINE
  5
6B2
100
AcDbEntity
  8
GEKO
  6
SOLID
 62
        7
100
AcDbLine
 10
-774.315445036
 20
1560.324676783
 30
0.0
 11
-772.319467764
 21
1552.875591748
 31
0.0
  0
LINE
  5
6B3
100
AcDbEntity
  8
GEKO
  6
SOLID
 62
        7
100
AcDbLine
 10
-773.901832975
 20
1564.576608635
 30
0.0
 11
-772.866556334
 21
1560.712905453
 31
0.0
  0
ARC
  5
6B4
100
AcDbEntity
  8
GEKO
  6
SOLID
 62
        7
100
AcDbCircle
 10
-774.867785902
 20
1564.317814663
 30
0.0
 40
1.0
100
AcDbArc
 50
15.000006837
 51
105.000006837
  0
LINE
  5
6B5
100
AcDbEntity
  8
GEKO
  6
SOLID
 62
        7
100
AcDbLine
 10
-775.126577931
 20
1565.28371527
 30
0.0
 11
-782.853991664
 21
1563.213160012
 31
0.0
  0
LINE
  5
6B6
100
AcDbEntity
  8
GEKO
  6
SOLID
 62
        7
100
AcDbLine
 10
-772.866556361
 20
1560.712905515
 30
0.0
 11
-781.559895889
 21
1558.383531097
 31
0.0
  0
LINE
  5
6B7
100
AcDbEntity
  8
GEKO
  6
SOLID
 62
        7
100
AcDbLine
 10
-790.253235193
 20
1556.054156779
 30
0.0
 11
-781.559895665
 21
1558.383531197
 31
0.0
  0
LINE
  5
6B8
100
AcDbEntity
  8
GEKO
  6
SOLID
 62
        7
100
AcDbLine
 10
-791.288511807
 20
1559.917859898
 30
0.0
 11
-790.253235165
 21
1556.054156716
 31
0.0
  0
ARC
  5
6B9
100
AcDbEntity
  8
GEKO
  6
SOLID
 62
        7
100
AcDbCircle
 10
-790.322613368
 20
1560.176704148
 30
0.0
 40
1.0
100
AcDbArc
 50
105.000006837
 51
195.000006837
  0
LINE
  5
6BA
100
AcDbEntity
  8
GEKO
  6
L_DASH
 62
        7
100
AcDbLine
 10
-790.581405172
 20
1561.142604854
 30
0.0
 11
-782.853991439
 21
1563.213160111
 31
0.0
  0
LINE
  5
6BB
100
AcDbEntity
  8
GEKO
  6
L_DASH
 62
        7
100
AcDbLine
 10
-786.717613582
 20
1562.177905184
 30
0.0
 11
-787.235247113
 21
1564.109738902
 31
0.0
  0
LINE
  5
6BC
100
AcDbEntity
  8
GEKO
  6
L_DASH
 62
        7
100
AcDbLine
 10
-778.990210037
 20
1564.248457673
 30
0.0
 11
-779.507843578
 21
1566.180291427
 31
0.0
  0
LINE
  5
6BD
100
AcDbEntity
  8
GEKO
  6
SOLID
 62
        7
100
AcDbLine
 10
-799.550806514
 20
1560.809793192
 30
0.0
 11
-798.863755981
 21
1557.57747646
 31
0.0
  0
LINE
  5
6BE
100
AcDbEntity
  8
GEKO
  6
SOLID
 62
        7
100
AcDbLine
 10
-801.759982229
 20
1552.633835993
 30
0.0
 11
-805.415165953
 21
1566.275160847
 31
0.0
  0
LINE
  5
6BF
100
AcDbEntity
  8
GEKO
  6
SOLID
 62
        7
100
AcDbLine
 10
-803.655988278
 20
1559.709824592
 30
0.0
 11
-808.376950419
 21
1558.444845995
 31
0.0
  0
LINE
  5
6C0
100
AcDbEntity
  8
GEKO
  6
SOLID
 62
        7
100
AcDbLine
 10
-807.761175669
 20
1558.609830375
 30
0.0
 11
-799.550806408
 21
1560.809793239
 31
0.0
  0
LINE
  5
6C1
100
AcDbEntity
  8
GEKO
  6
SOLID
 62
        7
100
AcDbLine
 10
-806.740019795
 20
1555.467036988
 30
0.0
 11
-807.761175683
 21
1558.609830418
 31
0.0
  0
LINE
  5
6C2
100
AcDbEntity
  8
GEKO
  6
SOLID
 62
        7
100
AcDbLine
 10
-803.655988278
 20
1559.709824592
 30
0.0
 11
-808.582209789
 21
1558.389846886
 31
0.0
  0
LINE
  5
6C3
100
AcDbEntity
  8
GEKO
  6
SOLID
 62
        7
100
AcDbLine
 10
-803.655988278
 20
1559.709824592
 30
0.0
 11
-798.935025953
 21
1560.974803238
 31
0.0
  0
LINE
  5
6C4
100
AcDbEntity
  8
GEKO
  6
SOLID
 62
        7
100
AcDbLine
 10
-803.381443386
 20
1556.366965247
 30
0.0
 11
-806.740019838
 21
1555.467036969
 31
0.0
  0
LINE
  5
6C5
100
AcDbEntity
  8
GEKO
  6
SOLID
 62
        7
100
AcDbLine
 10
-803.769672118
 20
1557.815853921
 30
0.0
 11
-803.381443377
 21
1556.366965228
 31
0.0
  0
LINE
  5
6C6
100
AcDbEntity
  8
GEKO
  6
SOLID
 62
        7
100
AcDbLine
 10
-802.610561132
 20
1558.126436919
 30
0.0
 11
-803.769672133
 21
1557.815853915
 31
0.0
  0
LINE
  5
6C7
100
AcDbEntity
  8
GEKO
  6
SOLID
 62
        7
100
AcDbLine
 10
-802.2223324
 20
1556.677548245
 30
0.0
 11
-802.610561141
 21
1558.126436938
 31
0.0
  0
LINE
  5
6C8
100
AcDbEntity
  8
GEKO
  6
SOLID
 62
        7
100
AcDbLine
 10
-798.863755991
 20
1557.577476504
 30
0.0
 11
-802.222332443
 21
1556.677548226
 31
0.0
  0
LINE
  5
6C9
100
AcDbEntity
  8
GEKO
  6
SOLID
 62
        7
100
AcDbLine
 10
-754.393770763
 20
1572.909590767
 30
0.0
 11
-755.170228244
 21
1575.807368153
 31
0.0
  0
LINE
  5
6CA
100
AcDbEntity
  8
GEKO
  6
SOLID
 62
        7
100
AcDbLine
 10
-812.159849133
 20
1560.53703733
 30
0.0
 11
-755.170227205
 21
1575.807367792
 31
0.0
  0
LINE
  5
6CB
100
AcDbEntity
  8
GEKO
  6
SOLID
 62
        7
100
AcDbLine
 10
-841.327091226
 20
1549.61586683
 30
0.0
 11
-842.103548707
 21
1552.513644216
 31
0.0
  0
LINE
  5
6CC
100
AcDbEntity
  8
GEKO
  6
SOLID
 62
        7
100
AcDbLine
 10
-754.39376974
 20
1572.909590443
 30
0.0
 11
-841.327091326
 21
1549.61586601
 31
0.0
  0
LINE
  5
6CD
100
AcDbEntity
  8
GEKO
  6
SOLID
 62
        7
100
AcDbLine
 10
-812.159849133
 20
1560.53703733
 30
0.0
 11
-871.081310471
 21
1544.749071811
 31
0.0
  0
LINE
  5
6CE
100
AcDbEntity
  8
GEKO
  6
SOLID
 62
        7
100
AcDbLine
 10
-822.785033049
 20
1557.690027313
 30
0.0
 11
-830.54960786
 21
1586.667801175
 31
0.0
  0
LINE
  5
6CF
100
AcDbEntity
  8
GEKO
  6
SOLID
 62
        7
100
AcDbLine
 10
-830.549607529
 20
1586.667800053
 30
0.0
 11
-987.9954949
 21
1544.480281543
 31
0.0
  0
LINE
  5
6D0
100
AcDbEntity
  8
GEKO
  6
SOLID
 62
        7
100
AcDbLine
 10
-824.065530257
 20
1604.969623344
 30
0.0
 11
-812.15984888
 21
1560.537036756
 31
0.0
  0
LINE
  5
6D1
100
AcDbEntity
  8
GEKO
  6
SOLID
 62
        7
100
AcDbLine
 10
-768.041834847
 20
1619.981134326
 30
0.0
 11
-756.13615347
 21
1575.548547737
 31
0.0
  0
LINE
  5
6D2
100
AcDbEntity
  8
GEKO
  6
SOLID
 62
        7
100
AcDbLine
 10
-796.053682552
 20
1612.475378835
 30
0.0
 11
-768.041834485
 21
1619.981134486
 31
0.0
  0
LINE
  5
6D3
100
AcDbEntity
  8
GEKO
  6
SOLID
 62
        7
100
AcDbLine
 10
-796.053682552
 20
1612.475378835
 30
0.0
 11
-824.065530619
 21
1604.969623184
 31
0.0
  0
LINE
  5
6D4
100
AcDbEntity
  8
GEKO
  6
L_DASH
 62
        7
100
AcDbLine
 10
-801.095832755
 20
1631.29300397
 30
0.0
 11
-762.136601455
 21
1485.895208039
 31
0.0
  0
LINE
  5
6D5
100
AcDbEntity
  8
GEKO
  6
CENTER
 62
        7
100
AcDbLine
 10
-920.060496383
 20
1457.082161949
 30
0.0
 11
-907.119538364
 21
1408.785872179
 31
0.0
  0
LINE
  5
6D6
100
AcDbEntity
  8
GEKO
  6
SOLID
 62
        7
100
AcDbLine
 10
-987.995492728
 20
1544.480282502
 30
0.0
 11
-991.531025916
 21
1538.356557731
 31
0.0
  0
ENDBLK
  5
6D7
100
AcDbEntity
  8
0
100
AcDbBlockEnd
  0
BLOCK
  5
58
100
AcDbEntity
  8
0
100
AcDbBlockBegin
  2
*D1
 70
        0
 10
0.0
 20
0.0
 30
0.0
  3
*D1
  1

  0
LINE
  5
5A
100
AcDbEntity
  8
GEKO
  6
SOLID
 62
        7
100
AcDbLine
 10
-765.754821777
 20
1595.967285156
 30
0.0
 11
-1224.282958984
 21
1595.967285156
 31
0.0
  0
LINE
  5
5B
100
AcDbEntity
  8
GEKO
  6
SOLID
 62
        7
100
AcDbLine
 10
-769.041809082
 20
1619.980957031
 30
0.0
 11
-1224.282958984
 21
1619.980957031
 31
0.0
  0
LINE
  5
5C
100
AcDbEntity
  8
GEKO
  6
SOLID
 62
        7
100
AcDbLine
 10
-1223.282958984
 20
1595.967285156
 30
0.0
 11
-1223.282958984
 21
1710.162719727
 31
0.0
  0
LINE
  5
5D
100
AcDbEntity
  8
GEKO
  6
SOLID
 62
        7
100
AcDbLine
 10
-1223.282958984
 20
1619.980957031
 30
0.0
 11
-1223.282958984
 21
1595.967285156
 31
0.0
  0
LINE
  5
5E
100
AcDbEntity
  8
GEKO
  6
SOLID
 62
        7
100
AcDbLine
 10
-1223.282958984
 20
1595.967285156
 30
0.0
 11
-1223.282958984
 21
1710.162719727
 31
0.0
  0
LINE
  5
5F
100
AcDbEntity
  8
GEKO
  6
SOLID
 62
        7
100
AcDbLine
 10
-1218.283447266
 20
1589.980957031
 30
0.0
 11
-1223.282958984
 21
1619.980957031
 31
0.0
  0
LINE
  5
60
100
AcDbEntity
  8
GEKO
  6
SOLID
 62
        7
100
AcDbLine
 10
-1223.282958984
 20
1619.980957031
 30
0.0
 11
-1228.282470703
 21
1589.980957031
 31
0.0
  0
LINE
  5
61
100
AcDbEntity
  8
GEKO
  6
SOLID
 62
        7
100
AcDbLine
 10
-1228.282470703
 20
1589.980957031
 30
0.0
 11
-1218.283447266
 21
1589.980957031
 31
0.0
  0
TEXT
  5
62
100
AcDbEntity
  8
GEKO
  6
SOLID
 62
        7
100
AcDbText
 10
-1238.282958984
 20
1652.918823242
 30
0.0
 40
30.0
  1
25
 50
90.000002504
 72
        5
 11
-1238.282960907
 21
1696.912670135
 31
0.0
100
AcDbText
  0
ENDBLK
  5
63
100
AcDbEntity
  8
0
100
AcDbBlockEnd
  0
BLOCK
  5
67
100
AcDbEntity
  8
0
100
AcDbBlockBegin
  2
*H2
 70
        0
 10
0.0
 20
0.0
 30
0.0
  3
*H2
  1

  0
LINE
  5
68
100
AcDbEntity
  8
GEKO
  6
SOLID
 62
        7
100
AcDbLine
 10
-1686.543457031
 20
1696.447387695
 30
0.0
 11
-1686.343505859
 21
1696.647460938
 31
0.0
  0
LINE
  5
69
100
AcDbEntity
  8
GEKO
  6
SOLID
 62
        7
100
AcDbLine
 10
-1686.37890625
 20
1696.682861328
 30
0.0
 11
-1686.578857422
 21
1696.482788086
 31
0.0
  0
LINE
  5
6A
100
AcDbEntity
  8
GEKO
  6
SOLID
 62
        7
100
AcDbLine
 10
-1686.614257813
 20
1696.518188477
 30
0.0
 11
-1686.414306641
 21
1696.718139648
 31
0.0
  0
LINE
  5
6B
100
AcDbEntity
  8
GEKO
  6
SOLID
 62
        7
100
AcDbLine
 10
-1686.449707031
 20
1696.753540039
 30
0.0
 11
-1686.649658203
 21
1696.553588867
 31
0.0
  0
LINE
  5
6C
100
AcDbEntity
  8
GEKO
  6
SOLID
 62
        7
100
AcDbLine
 10
-1686.685058594
 20
1696.588867188
 30
0.0
 11
-1686.485107422
 21
1696.78894043
 31
0.0
  0
LINE
  5
6D
100
AcDbEntity
  8
GEKO
  6
SOLID
 62
        7
100
AcDbLine
 10
-1686.520507813
 20
1696.82434082
 30
0.0
 11
-1686.720458984
 21
1696.624267578
 31
0.0
  0
ENDBLK
  5
6E
100
AcDbEntity
  8
0
100
AcDbBlockEnd
  0
BLOCK
  5
73
100
AcDbEntity
  8
0
100
AcDbBlockBegin
  2
*H3
 70
        0
 10
0.0
 20
0.0
 30
0.0
  3
*H3
  1

  0
LINE
  5
74
100
AcDbEntity
  8
GEKO
  6
SOLID
 62
        7
100
AcDbLine
 10
-1686.543457031
 20
1683.812011719
 30
0.0
 11
-1686.343505859
 21
1683.612060547
 31
0.0
  0
LINE
  5
75
100
AcDbEntity
  8
GEKO
  6
SOLID
 62
        7
100
AcDbLine
 10
-1686.37890625
 20
1683.576660156
 30
0.0
 11
-1686.578857422
 21
1683.776611328
 31
0.0
  0
LINE
  5
76
100
AcDbEntity
  8
GEKO
  6
SOLID
 62
        7
100
AcDbLine
 10
-1686.614257813
 20
1683.741210938
 30
0.0
 11
-1686.414306641
 21
1683.541259766
 31
0.0
  0
LINE
  5
77
100
AcDbEntity
  8
GEKO
  6
SOLID
 62
        7
100
AcDbLine
 10
-1686.449707031
 20
1683.505859375
 30
0.0
 11
-1686.649658203
 21
1683.705810547
 31
0.0
  0
LINE
  5
78
100
AcDbEntity
  8
GEKO
  6
SOLID
 62
        7
100
AcDbLine
 10
-1686.685058594
 20
1683.670410156
 30
0.0
 11
-1686.485107422
 21
1683.470458984
 31
0.0
  0
LINE
  5
79
100
AcDbEntity
  8
GEKO
  6
SOLID
 62
        7
100
AcDbLine
 10
-1686.520507813
 20
1683.435058594
 30
0.0
 11
-1686.720458984
 21
1683.635009766
 31
0.0
  0
ENDBLK
  5
7A
100
AcDbEntity
  8
0
100
AcDbBlockEnd
  0
BLOCK
  5
7D
100
AcDbEntity
  8
0
100
AcDbBlockBegin
  2
*D4
 70
        0
 10
0.0
 20
0.0
 30
0.0
  3
*D4
  1

  0
LINE
  5
7E
100
AcDbEntity
  8
GEKO
  6
SOLID
 62
        7
100
AcDbLine
 10
-1860.084472656
 20
1424.274414063
 30
0.0
 11
-1860.084472656
 21
544.138305664
 31
0.0
  0
LINE
  5
7F
100
AcDbEntity
  8
GEKO
  6
SOLID
 62
        7
100
AcDbLine
 10
-1454.484619141
 20
850.119018555
 30
0.0
 11
-1454.484619141
 21
544.138305664
 31
0.0
  0
LINE
  5
80
100
AcDbEntity
  8
GEKO
  6
SOLID
 62
        7
100
AcDbLine
 10
-1860.084472656
 20
549.138305664
 30
0.0
 11
-1454.484619141
 21
549.138305664
 31
0.0
  0
LINE
  5
81
100
AcDbEntity
  8
GEKO
  6
SOLID
 62
        7
100
AcDbLine
 10
-1830.084472656
 20
554.137817383
 30
0.0
 11
-1860.084472656
 21
549.138305664
 31
0.0
  0
LINE
  5
82
100
AcDbEntity
  8
GEKO
  6
SOLID
 62
        7
100
AcDbLine
 10
-1860.084472656
 20
549.138305664
 30
0.0
 11
-1830.084472656
 21
544.138793945
 31
0.0
  0
LINE
  5
83
100
AcDbEntity
  8
GEKO
  6
SOLID
 62
        7
100
AcDbLine
 10
-1830.084472656
 20
544.138793945
 30
0.0
 11
-1830.084472656
 21
554.137817383
 31
0.0
  0
LINE
  5
84
100
AcDbEntity
  8
GEKO
  6
SOLID
 62
        7
100
AcDbLine
 10
-1454.484619141
 20
549.138305664
 30
0.0
 11
-1860.084472656
 21
549.138305664
 31
0.0
  0
LINE
  5
85
100
AcDbEntity
  8
GEKO
  6
SOLID
 62
        7
100
AcDbLine
 10
-1484.484619141
 20
544.138793945
 30
0.0
 11
-1454.484619141
 21
549.138305664
 31
0.0
  0
LINE
  5
86
100
AcDbEntity
  8
GEKO
  6
SOLID
 62
        7
100
AcDbLine
 10
-1454.484619141
 20
549.138305664
 30
0.0
 11
-1484.484619141
 21
554.137817383
 31
0.0
  0
LINE
  5
87
100
AcDbEntity
  8
GEKO
  6
SOLID
 62
        7
100
AcDbLine
 10
-1484.484619141
 20
554.137817383
 30
0.0
 11
-1484.484619141
 21
544.138793945
 31
0.0
  0
TEXT
  5
88
100
AcDbEntity
  8
GEKO
  6
SOLID
 62
        7
100
AcDbText
 10
-1692.529907227
 20
564.138305664
 30
0.0
 40
30.0
  1
410
 72
        5
 11
-1622.039138794
 21
564.138305664
 31
0.0
100
AcDbText
  0
ENDBLK
  5
89
100
AcDbEntity
  8
0
100
AcDbBlockEnd
  0
BLOCK
  5
95
100
AcDbEntity
  8
0
100
AcDbBlockBegin
  2
*D5
 70
        0
 10
0.0
 20
0.0
 30
0.0
  3
*D5
  1

  0
LINE
  5
96
100
AcDbEntity
  8
GEKO
  6
SOLID
 62
        7
100
AcDbLine
 10
-1899.484375
 20
1532.464111328
 30
0.0
 11
-1899.484375
 21
1662.470336914
 31
0.0
  0
LINE
  5
97
100
AcDbEntity
  8
GEKO
  6
SOLID
 62
        7
100
AcDbLine
 10
-1499.484375
 20
1532.516845703
 30
0.0
 11
-1499.484375
 21
1662.470336914
 31
0.0
  0
LINE
  5
98
100
AcDbEntity
  8
GEKO
  6
SOLID
 62
        7
100
AcDbLine
 10
-1899.484375
 20
1661.470336914
 30
0.0
 11
-1499.484375
 21
1661.470336914
 31
0.0
  0
LINE
  5
99
100
AcDbEntity
  8
GEKO
  6
SOLID
 62
        7
100
AcDbLine
 10
-1869.484375
 20
1666.469848633
 30
0.0
 11
-1899.484375
 21
1661.470336914
 31
0.0
  0
LINE
  5
9A
100
AcDbEntity
  8
GEKO
  6
SOLID
 62
        7
100
AcDbLine
 10
-1899.484375
 20
1661.470336914
 30
0.0
 11
-1869.484375
 21
1656.470825195
 31
0.0
  0
LINE
  5
9B
100
AcDbEntity
  8
GEKO
  6
SOLID
 62
        7
100
AcDbLine
 10
-1869.484375
 20
1656.470825195
 30
0.0
 11
-1869.484375
 21
1666.469848633
 31
0.0
  0
LINE
  5
9C
100
AcDbEntity
  8
GEKO
  6
SOLID
 62
        7
100
AcDbLine
 10
-1499.484375
 20
1661.470336914
 30
0.0
 11
-1899.484375
 21
1661.470336914
 31
0.0
  0
LINE
  5
9D
100
AcDbEntity
  8
GEKO
  6
SOLID
 62
        7
100
AcDbLine
 10
-1529.484375
 20
1656.470825195
 30
0.0
 11
-1499.484375
 21
1661.470336914
 31
0.0
  0
LINE
  5
9E
100
AcDbEntity
  8
GEKO
  6
SOLID
 62
        7
100
AcDbLine
 10
-1499.484375
 20
1661.470336914
 30
0.0
 11
-1529.484375
 21
1666.469848633
 31
0.0
  0
LINE
  5
9F
100
AcDbEntity
  8
GEKO
  6
SOLID
 62
        7
100
AcDbLine
 10
-1529.484375
 20
1666.469848633
 30
0.0
 11
-1529.484375
 21
1656.470825195
 31
0.0
  0
TEXT
  5
A0
100
AcDbEntity
  8
GEKO
  6
SOLID
 62
        7
100
AcDbText
 10
-1814.222045898
 20
1676.470336914
 30
0.0
 40
30.0
  1
%%c
 72
        5
 11
-1794.223585129
 21
1676.470336914
 31
0.0
100
AcDbText
  0
TEXT
  5
A1
100
AcDbEntity
  8
GEKO
  6
SOLID
 62
        7
100
AcDbText
 10
-1778.722045898
 20
1676.470336914
 30
0.0
 40
30.0
  1
382  400
 72
        5
 11
-1575.746673584
 21
1676.470336914
 31
0.0
100
AcDbText
  0
ENDBLK
  5
A2
100
AcDbEntity
  8
0
100
AcDbBlockEnd
  0
BLOCK
  5
199
100
AcDbEntity
  8
0
100
AcDbBlockBegin
  2
*D6
 70
        0
 10
0.0
 20
0.0
 30
0.0
  3
*D6
  1

  0
LINE
  5
19A
100
AcDbEntity
  8
GEKO
  6
SOLID
 62
        7
100
AcDbLine
 10
-1452.985839844
 20
855.118408203
 30
0.0
 11
-1369.036621094
 21
855.118408203
 31
0.0
  0
LINE
  5
19B
100
AcDbEntity
  8
GEKO
  6
SOLID
 62
        7
100
AcDbLine
 10
-1452.985839844
 20
1215.118408203
 30
0.0
 11
-1369.036621094
 21
1215.118408203
 31
0.0
  0
LINE
  5
19C
100
AcDbEntity
  8
GEKO
  6
SOLID
 62
        7
100
AcDbLine
 10
-1370.536621094
 20
855.118408203
 30
0.0
 11
-1370.536621094
 21
1215.118408203
 31
0.0
  0
LINE
  5
19D
100
AcDbEntity
  8
GEKO
  6
SOLID
 62
        7
100
AcDbLine
 10
-1375.536132813
 20
885.118408203
 30
0.0
 11
-1370.536621094
 21
855.118408203
 31
0.0
  0
LINE
  5
19E
100
AcDbEntity
  8
GEKO
  6
SOLID
 62
        7
100
AcDbLine
 10
-1370.536621094
 20
855.118408203
 30
0.0
 11
-1365.537109375
 21
885.118408203
 31
0.0
  0
LINE
  5
19F
100
AcDbEntity
  8
GEKO
  6
SOLID
 62
        7
100
AcDbLine
 10
-1365.537109375
 20
885.118408203
 30
0.0
 11
-1375.536132813
 21
885.118408203
 31
0.0
  0
LINE
  5
1A0
100
AcDbEntity
  8
GEKO
  6
SOLID
 62
        7
100
AcDbLine
 10
-1370.536621094
 20
1215.118408203
 30
0.0
 11
-1370.536621094
 21
855.118408203
 31
0.0
  0
LINE
  5
1A1
100
AcDbEntity
  8
GEKO
  6
SOLID
 62
        7
100
AcDbLine
 10
-1365.537109375
 20
1185.118408203
 30
0.0
 11
-1370.536621094
 21
1215.118408203
 31
0.0
  0
LINE
  5
1A2
100
AcDbEntity
  8
GEKO
  6
SOLID
 62
        7
100
AcDbLine
 10
-1370.536621094
 20
1215.118408203
 30
0.0
 11
-1375.536132813
 21
1185.118408203
 31
0.0
  0
LINE
  5
1A3
100
AcDbEntity
  8
GEKO
  6
SOLID
 62
        7
100
AcDbLine
 10
-1375.536132813
 20
1185.118408203
 30
0.0
 11
-1365.537109375
 21
1185.118408203
 31
0.0
  0
TEXT
  5
1A4
100
AcDbEntity
  8
GEKO
  6
SOLID
 62
        7
100
AcDbText
 10
-1385.536621094
 20
893.879211426
 30
0.0
 40
30.0
  1
%%c
 50
90.000002504
 72
        5
 11
-1385.536621968
 21
913.877672195
 31
0.0
100
AcDbText
  0
TEXT
  5
1A5
100
AcDbEntity
  8
GEKO
  6
SOLID
 62
        7
100
AcDbText
 10
-1385.536621094
 20
929.379211426
 30
0.0
 40
30.0
  1
320
 50
90.000002504
 72
        5
 11
-1385.536624175
 21
999.869979858
 31
0.0
100
AcDbText
  0
TEXT
  5
1A6
100
AcDbEntity
  8
GEKO
  6
SOLID
 62
        7
100
AcDbText
 10
-1385.536621094
 20
1008.879211426
 30
0.0
 40
30.0
  1
-700max
 50
90.000002504
 72
        5
 11
-1385.536628808
 21
1185.357666016
 31
0.0
100
AcDbText
  0
ENDBLK
  5
1A7
100
AcDbEntity
  8
0
100
AcDbBlockEnd
  0
BLOCK
  5
1C9
100
AcDbEntity
  8
0
100
AcDbBlockBegin
  2
*H7
 70
        0
 10
0.0
 20
0.0
 30
0.0
  3
*H7
  1

  0
LINE
  5
1CA
100
AcDbEntity
  8
GEKO
  6
SOLID
 62
        7
100
AcDbLine
 10
-1699.037597656
 20
770.718994141
 30
0.0
 11
-1696.100097656
 21
773.657470703
 31
0.0
  0
LINE
  5
1CB
100
AcDbEntity
  8
GEKO
  6
SOLID
 62
        7
100
AcDbLine
 10
-1696.403808594
 20
775.474853516
 30
0.0
 11
-1700.884277344
 21
770.994384766
 31
0.0
  0
LINE
  5
1CC
100
AcDbEntity
  8
GEKO
  6
SOLID
 62
        7
100
AcDbLine
 10
-1702.098144531
 20
771.901611328
 30
0.0
 11
-1697.354980469
 21
776.644775391
 31
0.0
  0
LINE
  5
1CD
100
AcDbEntity
  8
GEKO
  6
SOLID
 62
        7
100
AcDbLine
 10
-1698.781738281
 20
777.340087891
 30
0.0
 11
-1702.843261719
 21
773.277587891
 31
0.0
  0
LINE
  5
1CE
100
AcDbEntity
  8
GEKO
  6
SOLID
 62
        7
100
AcDbLine
 10
-1702.187011719
 20
776.054931641
 30
0.0
 11
-1701.357910156
 21
776.885009766
 31
0.0
  0
ENDBLK
  5
1CF
100
AcDbEntity
  8
0
100
AcDbBlockEnd
  0
BLOCK
  5
1D2
100
AcDbEntity
  8
0
100
AcDbBlockBegin
  2
*H8
 70
        0
 10
0.0
 20
0.0
 30
0.0
  3
*H8
  1

  0
LINE
  5
1D3
100
AcDbEntity
  8
GEKO
  6
SOLID
 62
        7
100
AcDbLine
 10
-1699.037597656
 20
980.816650391
 30
0.0
 11
-1696.100097656
 21
983.754150391
 31
0.0
  0
LINE
  5
1D4
100
AcDbEntity
  8
GEKO
  6
SOLID
 62
        7
100
AcDbLine
 10
-1696.403808594
 20
985.570556641
 30
0.0
 11
-1700.884277344
 21
981.092041016
 31
0.0
  0
LINE
  5
1D5
100
AcDbEntity
  8
GEKO
  6
SOLID
 62
        7
100
AcDbLine
 10
-1702.098144531
 20
981.998291016
 30
0.0
 11
-1697.354980469
 21
986.742431641
 31
0.0
  0
LINE
  5
1D6
100
AcDbEntity
  8
GEKO
  6
SOLID
 62
        7
100
AcDbLine
 10
-1698.781738281
 20
987.435791016
 30
0.0
 11
-1702.843261719
 21
983.374267578
 31
0.0
  0
LINE
  5
1D7
100
AcDbEntity
  8
GEKO
  6
SOLID
 62
        7
100
AcDbLine
 10
-1702.187011719
 20
986.152587891
 30
0.0
 11
-1701.357910156
 21
986.980712891
 31
0.0
  0
ENDBLK
  5
1D8
100
AcDbEntity
  8
0
100
AcDbBlockEnd
  0
BLOCK
  5
1DB
100
AcDbEntity
  8
0
100
AcDbBlockBegin
  2
*D9
 70
        0
 10
0.0
 20
0.0
 30
0.0
  3
*D9
  1

  0
LINE
  5
1DC
100
AcDbEntity
  8
GEKO
  6
SOLID
 62
        7
100
AcDbLine
 10
-1829.485839844
 20
975.117431641
 30
0.0
 11
-1829.485839844
 21
688.797119141
 31
0.0
  0
LINE
  5
1DD
100
AcDbEntity
  8
GEKO
  6
SOLID
 62
        7
100
AcDbLine
 10
-1699.485839844
 20
741.977783203
 30
0.0
 11
-1699.485839844
 21
688.797119141
 31
0.0
  0
LINE
  5
1DE
100
AcDbEntity
  8
GEKO
  6
SOLID
 62
        7
100
AcDbLine
 10
-1829.485839844
 20
693.797119141
 30
0.0
 11
-1699.485839844
 21
693.797119141
 31
0.0
  0
LINE
  5
1DF
100
AcDbEntity
  8
GEKO
  6
SOLID
 62
        7
100
AcDbLine
 10
-1799.485839844
 20
698.796630859
 30
0.0
 11
-1829.485839844
 21
693.797119141
 31
0.0
  0
LINE
  5
1E0
100
AcDbEntity
  8
GEKO
  6
SOLID
 62
        7
100
AcDbLine
 10
-1829.485839844
 20
693.797119141
 30
0.0
 11
-1799.485839844
 21
688.797607422
 31
0.0
  0
LINE
  5
1E1
100
AcDbEntity
  8
GEKO
  6
SOLID
 62
        7
100
AcDbLine
 10
-1799.485839844
 20
688.797607422
 30
0.0
 11
-1799.485839844
 21
698.796630859
 31
0.0
  0
LINE
  5
1E2
100
AcDbEntity
  8
GEKO
  6
SOLID
 62
        7
100
AcDbLine
 10
-1699.485839844
 20
693.797119141
 30
0.0
 11
-1829.485839844
 21
693.797119141
 31
0.0
  0
LINE
  5
1E3
100
AcDbEntity
  8
GEKO
  6
SOLID
 62
        7
100
AcDbLine
 10
-1729.485839844
 20
688.797607422
 30
0.0
 11
-1699.485839844
 21
693.797119141
 31
0.0
  0
LINE
  5
1E4
100
AcDbEntity
  8
GEKO
  6
SOLID
 62
        7
100
AcDbLine
 10
-1699.485839844
 20
693.797119141
 30
0.0
 11
-1729.485839844
 21
698.796630859
 31
0.0
  0
LINE
  5
1E5
100
AcDbEntity
  8
GEKO
  6
SOLID
 62
        7
100
AcDbLine
 10
-1729.485839844
 20
698.796630859
 30
0.0
 11
-1729.485839844
 21
688.797607422
 31
0.0
  0
TEXT
  5
1E6
100
AcDbEntity
  8
GEKO
  6
SOLID
 62
        7
100
AcDbText
 10
-1799.731201172
 20
708.797119141
 30
0.0
 40
30.0
  1
130
 72
        5
 11
-1729.240432739
 21
708.797119141
 31
0.0
100
AcDbText
  0
ENDBLK
  5
1E7
100
AcDbEntity
  8
0
100
AcDbBlockEnd
  0
BLOCK
  5
1EA
100
AcDbEntity
  8
0
100
AcDbBlockBegin
  2
*D10
 70
        0
 10
0.0
 20
0.0
 30
0.0
  3
*D10
  1

  0
LINE
  5
1EB
100
AcDbEntity
  8
GEKO
  6
SOLID
 62
        7
100
AcDbLine
 10
-1774.485839844
 20
917.593994141
 30
0.0
 11
-1774.485839844
 21
768.933837891
 31
0.0
  0
LINE
  5
1EC
100
AcDbEntity
  8
GEKO
  6
SOLID
 62
        7
100
AcDbLine
 10
-1624.485839844
 20
917.593994141
 30
0.0
 11
-1624.485839844
 21
768.933837891
 31
0.0
  0
LINE
  5
1ED
100
AcDbEntity
  8
GEKO
  6
SOLID
 62
        7
100
AcDbLine
 10
-1774.485839844
 20
773.933837891
 30
0.0
 11
-1624.485839844
 21
773.933837891
 31
0.0
  0
LINE
  5
1EE
100
AcDbEntity
  8
GEKO
  6
SOLID
 62
        7
100
AcDbLine
 10
-1744.485839844
 20
778.933349609
 30
0.0
 11
-1774.485839844
 21
773.933837891
 31
0.0
  0
LINE
  5
1EF
100
AcDbEntity
  8
GEKO
  6
SOLID
 62
        7
100
AcDbLine
 10
-1774.485839844
 20
773.933837891
 30
0.0
 11
-1744.485839844
 21
768.934326172
 31
0.0
  0
LINE
  5
1F0
100
AcDbEntity
  8
GEKO
  6
SOLID
 62
        7
100
AcDbLine
 10
-1744.485839844
 20
768.934326172
 30
0.0
 11
-1744.485839844
 21
778.933349609
 31
0.0
  0
LINE
  5
1F1
100
AcDbEntity
  8
GEKO
  6
SOLID
 62
        7
100
AcDbLine
 10
-1624.485839844
 20
773.933837891
 30
0.0
 11
-1774.485839844
 21
773.933837891
 31
0.0
  0
LINE
  5
1F2
100
AcDbEntity
  8
GEKO
  6
SOLID
 62
        7
100
AcDbLine
 10
-1654.485839844
 20
768.934326172
 30
0.0
 11
-1624.485839844
 21
773.933837891
 31
0.0
  0
LINE
  5
1F3
100
AcDbEntity
  8
GEKO
  6
SOLID
 62
        7
100
AcDbLine
 10
-1624.485839844
 20
773.933837891
 30
0.0
 11
-1654.485839844
 21
778.933349609
 31
0.0
  0
LINE
  5
1F4
100
AcDbEntity
  8
GEKO
  6
SOLID
 62
        7
100
AcDbLine
 10
-1654.485839844
 20
778.933349609
 30
0.0
 11
-1654.485839844
 21
768.934326172
 31
0.0
  0
TEXT
  5
1F5
100
AcDbEntity
  8
GEKO
  6
SOLID
 62
        7
100
AcDbText
 10
-1734.731201172
 20
788.933837891
 30
0.0
 40
30.0
  1
150
 72
        5
 11
-1664.240432739
 21
788.933837891
 31
0.0
100
AcDbText
  0
ENDBLK
  5
1F6
100
AcDbEntity
  8
0
100
AcDbBlockEnd
  0
BLOCK
  5
1F9
100
AcDbEntity
  8
0
100
AcDbBlockBegin
  2
*D11
 70
        0
 10
0.0
 20
0.0
 30
0.0
  3
*D11
  1

  0
LINE
  5
1FA
100
AcDbEntity
  8
GEKO
  6
SOLID
 62
        7
100
AcDbLine
 10
-1794.485839844
 20
885.118408203
 30
0.0
 11
-1794.485839844
 21
989.040283203
 31
0.0
  0
LINE
  5
1FB
100
AcDbEntity
  8
GEKO
  6
SOLID
 62
        7
100
AcDbLine
 10
-1604.485839844
 20
885.118408203
 30
0.0
 11
-1604.485839844
 21
989.040283203
 31
0.0
  0
LINE
  5
1FC
100
AcDbEntity
  8
GEKO
  6
SOLID
 62
        7
100
AcDbLine
 10
-1794.485839844
 20
984.040283203
 30
0.0
 11
-1604.485839844
 21
984.040283203
 31
0.0
  0
LINE
  5
1FD
100
AcDbEntity
  8
GEKO
  6
SOLID
 62
        7
100
AcDbLine
 10
-1764.485839844
 20
989.039794922
 30
0.0
 11
-1794.485839844
 21
984.040283203
 31
0.0
  0
LINE
  5
1FE
100
AcDbEntity
  8
GEKO
  6
SOLID
 62
        7
100
AcDbLine
 10
-1794.485839844
 20
984.040283203
 30
0.0
 11
-1764.485839844
 21
979.040771484
 31
0.0
  0
LINE
  5
1FF
100
AcDbEntity
  8
GEKO
  6
SOLID
 62
        7
100
AcDbLine
 10
-1764.485839844
 20
979.040771484
 30
0.0
 11
-1764.485839844
 21
989.039794922
 31
0.0
  0
LINE
  5
200
100
AcDbEntity
  8
GEKO
  6
SOLID
 62
        7
100
AcDbLine
 10
-1604.485839844
 20
984.040283203
 30
0.0
 11
-1794.485839844
 21
984.040283203
 31
0.0
  0
LINE
  5
201
100
AcDbEntity
  8
GEKO
  6
SOLID
 62
        7
100
AcDbLine
 10
-1634.485839844
 20
979.040771484
 30
0.0
 11
-1604.485839844
 21
984.040283203
 31
0.0
  0
LINE
  5
202
100
AcDbEntity
  8
GEKO
  6
SOLID
 62
        7
100
AcDbLine
 10
-1604.485839844
 20
984.040283203
 30
0.0
 11
-1634.485839844
 21
989.039794922
 31
0.0
  0
LINE
  5
203
100
AcDbEntity
  8
GEKO
  6
SOLID
 62
        7
100
AcDbLine
 10
-1634.485839844
 20
989.039794922
 30
0.0
 11
-1634.485839844
 21
979.040771484
 31
0.0
  0
TEXT
  5
204
100
AcDbEntity
  8
GEKO
  6
SOLID
 62
        7
100
AcDbText
 10
-1734.731201172
 20
999.040283203
 30
0.0
 40
30.0
  1
190
 72
        5
 11
-1664.240432739
 21
999.040283203
 31
0.0
100
AcDbText
  0
ENDBLK
  5
205
100
AcDbEntity
  8
0
100
AcDbBlockEnd
  0
BLOCK
  5
208
100
AcDbEntity
  8
0
100
AcDbBlockBegin
  2
*D12
 70
        0
 10
0.0
 20
0.0
 30
0.0
  3
*D12
  1

  0
LINE
  5
209
100
AcDbEntity
  8
GEKO
  6
SOLID
 62
        7
100
AcDbLine
 10
-1544.485839844
 20
1216.617431641
 30
0.0
 11
-1544.485839844
 21
1305.076416016
 31
0.0
  0
LINE
  5
20A
100
AcDbEntity
  8
GEKO
  6
SOLID
 62
        7
100
AcDbLine
 10
-1454.485839844
 20
1216.617431641
 30
0.0
 11
-1454.485839844
 21
1305.076416016
 31
0.0
  0
LINE
  5
20B
100
AcDbEntity
  8
GEKO
  6
SOLID
 62
        7
100
AcDbLine
 10
-1544.485839844
 20
1303.576416016
 30
0.0
 11
-1589.485839844
 21
1303.576416016
 31
0.0
  0
LINE
  5
20C
100
AcDbEntity
  8
GEKO
  6
SOLID
 62
        7
100
AcDbLine
 10
-1589.485839844
 20
1303.576416016
 30
0.0
 11
-1409.485839844
 21
1303.576416016
 31
0.0
  0
LINE
  5
20D
100
AcDbEntity
  8
GEKO
  6
SOLID
 62
        7
100
AcDbLine
 10
-1574.485839844
 20
1298.576904297
 30
0.0
 11
-1544.485839844
 21
1303.576416016
 31
0.0
  0
LINE
  5
20E
100
AcDbEntity
  8
GEKO
  6
SOLID
 62
        7
100
AcDbLine
 10
-1544.485839844
 20
1303.576416016
 30
0.0
 11
-1574.485839844
 21
1308.575927734
 31
0.0
  0
LINE
  5
20F
100
AcDbEntity
  8
GEKO
  6
SOLID
 62
        7
100
AcDbLine
 10
-1574.485839844
 20
1308.575927734
 30
0.0
 11
-1574.485839844
 21
1298.576904297
 31
0.0
  0
LINE
  5
210
100
AcDbEntity
  8
GEKO
  6
SOLID
 62
        7
100
AcDbLine
 10
-1454.485839844
 20
1303.576416016
 30
0.0
 11
-1409.485839844
 21
1303.576416016
 31
0.0
  0
LINE
  5
211
100
AcDbEntity
  8
GEKO
  6
SOLID
 62
        7
100
AcDbLine
 10
-1409.485839844
 20
1303.576416016
 30
0.0
 11
-1589.485839844
 21
1303.576416016
 31
0.0
  0
LINE
  5
212
100
AcDbEntity
  8
GEKO
  6
SOLID
 62
        7
100
AcDbLine
 10
-1424.485839844
 20
1308.575927734
 30
0.0
 11
-1454.485839844
 21
1303.576416016
 31
0.0
  0
LINE
  5
213
100
AcDbEntity
  8
GEKO
  6
SOLID
 62
        7
100
AcDbLine
 10
-1454.485839844
 20
1303.576416016
 30
0.0
 11
-1424.485839844
 21
1298.576904297
 31
0.0
  0
LINE
  5
214
100
AcDbEntity
  8
GEKO
  6
SOLID
 62
        7
100
AcDbLine
 10
-1424.485839844
 20
1298.576904297
 30
0.0
 11
-1424.485839844
 21
1308.575927734
 31
0.0
  0
TEXT
  5
215
100
AcDbEntity
  8
GEKO
  6
SOLID
 62
        7
100
AcDbText
 10
-1521.482788086
 20
1318.576416016
 30
0.0
 40
30.0
  1
90
 72
        5
 11
-1477.488941193
 21
1318.576416016
 31
0.0
100
AcDbText
  0
ENDBLK
  5
216
100
AcDbEntity
  8
0
100
AcDbBlockEnd
  0
BLOCK
  5
21E
100
AcDbEntity
  8
0
100
AcDbBlockBegin
  2
*D13
 70
        0
 10
0.0
 20
0.0
 30
0.0
  3
*D13
  1

  0
LINE
  5
21F
100
AcDbEntity
  8
GEKO
  6
SOLID
 62
        7
100
AcDbLine
 10
-1699.484619141
 20
748.090820313
 30
0.0
 11
-1699.484619141
 21
688.797119141
 31
0.0
  0
LINE
  5
220
100
AcDbEntity
  8
GEKO
  6
SOLID
 62
        7
100
AcDbLine
 10
-1499.484619141
 20
840.107177734
 30
0.0
 11
-1499.484619141
 21
688.797119141
 31
0.0
  0
LINE
  5
221
100
AcDbEntity
  8
GEKO
  6
SOLID
 62
        7
100
AcDbLine
 10
-1699.484619141
 20
693.797119141
 30
0.0
 11
-1499.484619141
 21
693.797119141
 31
0.0
  0
LINE
  5
222
100
AcDbEntity
  8
GEKO
  6
SOLID
 62
        7
100
AcDbLine
 10
-1669.484619141
 20
698.796630859
 30
0.0
 11
-1699.484619141
 21
693.797119141
 31
0.0
  0
LINE
  5
223
100
AcDbEntity
  8
GEKO
  6
SOLID
 62
        7
100
AcDbLine
 10
-1699.484619141
 20
693.797119141
 30
0.0
 11
-1669.484619141
 21
688.797607422
 31
0.0
  0
LINE
  5
224
100
AcDbEntity
  8
GEKO
  6
SOLID
 62
        7
100
AcDbLine
 10
-1669.484619141
 20
688.797607422
 30
0.0
 11
-1669.484619141
 21
698.796630859
 31
0.0
  0
LINE
  5
225
100
AcDbEntity
  8
GEKO
  6
SOLID
 62
        7
100
AcDbLine
 10
-1499.484619141
 20
693.797119141
 30
0.0
 11
-1699.484619141
 21
693.797119141
 31
0.0
  0
LINE
  5
226
100
AcDbEntity
  8
GEKO
  6
SOLID
 62
        7
100
AcDbLine
 10
-1529.484619141
 20
688.797607422
 30
0.0
 11
-1499.484619141
 21
693.797119141
 31
0.0
  0
LINE
  5
227
100
AcDbEntity
  8
GEKO
  6
SOLID
 62
        7
100
AcDbLine
 10
-1499.484619141
 20
693.797119141
 30
0.0
 11
-1529.484619141
 21
698.796630859
 31
0.0
  0
LINE
  5
228
100
AcDbEntity
  8
GEKO
  6
SOLID
 62
        7
100
AcDbLine
 10
-1529.484619141
 20
698.796630859
 30
0.0
 11
-1529.484619141
 21
688.797607422
 31
0.0
  0
TEXT
  5
229
100
AcDbEntity
  8
GEKO
  6
SOLID
 62
        7
100
AcDbText
 10
-1634.729980469
 20
708.797119141
 30
0.0
 40
30.0
  1
200
 72
        5
 11
-1564.239212036
 21
708.797119141
 31
0.0
100
AcDbText
  0
ENDBLK
  5
22A
100
AcDbEntity
  8
0
100
AcDbBlockEnd
  0
BLOCK
  5
22E
100
AcDbEntity
  8
0
100
AcDbBlockBegin
  2
*D14
 70
        0
 10
0.0
 20
0.0
 30
0.0
  3
*D14
  1

  0
LINE
  5
22F
100
AcDbEntity
  8
GEKO
  6
SOLID
 62
        7
100
AcDbLine
 10
-1829.484619141
 20
975.118896484
 30
0.0
 11
-1829.484619141
 21
615.050415039
 31
0.0
  0
LINE
  5
230
100
AcDbEntity
  8
GEKO
  6
SOLID
 62
        7
100
AcDbLine
 10
-1454.484619141
 20
850.118896484
 30
0.0
 11
-1454.484619141
 21
615.050415039
 31
0.0
  0
LINE
  5
231
100
AcDbEntity
  8
GEKO
  6
SOLID
 62
        7
100
AcDbLine
 10
-1829.484619141
 20
620.050415039
 30
0.0
 11
-1454.484619141
 21
620.050415039
 31
0.0
  0
LINE
  5
232
100
AcDbEntity
  8
GEKO
  6
SOLID
 62
        7
100
AcDbLine
 10
-1799.484619141
 20
625.049926758
 30
0.0
 11
-1829.484619141
 21
620.050415039
 31
0.0
  0
LINE
  5
233
100
AcDbEntity
  8
GEKO
  6
SOLID
 62
        7
100
AcDbLine
 10
-1829.484619141
 20
620.050415039
 30
0.0
 11
-1799.484619141
 21
615.05090332
 31
0.0
  0
LINE
  5
234
100
AcDbEntity
  8
GEKO
  6
SOLID
 62
        7
100
AcDbLine
 10
-1799.484619141
 20
615.05090332
 30
0.0
 11
-1799.484619141
 21
625.049926758
 31
0.0
  0
LINE
  5
235
100
AcDbEntity
  8
GEKO
  6
SOLID
 62
        7
100
AcDbLine
 10
-1454.484619141
 20
620.050415039
 30
0.0
 11
-1829.484619141
 21
620.050415039
 31
0.0
  0
LINE
  5
236
100
AcDbEntity
  8
GEKO
  6
SOLID
 62
        7
100
AcDbLine
 10
-1484.484619141
 20
615.05090332
 30
0.0
 11
-1454.484619141
 21
620.050415039
 31
0.0
  0
LINE
  5
237
100
AcDbEntity
  8
GEKO
  6
SOLID
 62
        7
100
AcDbLine
 10
-1454.484619141
 20
620.050415039
 30
0.0
 11
-1484.484619141
 21
625.049926758
 31
0.0
  0
LINE
  5
238
100
AcDbEntity
  8
GEKO
  6
SOLID
 62
        7
100
AcDbLine
 10
-1484.484619141
 20
625.049926758
 30
0.0
 11
-1484.484619141
 21
615.05090332
 31
0.0
  0
TEXT
  5
239
100
AcDbEntity
  8
GEKO
  6
SOLID
 62
        7
100
AcDbText
 10
-1677.229980469
 20
635.050415039
 30
0.0
 40
30.0
  1
375
 72
        5
 11
-1606.739212036
 21
635.050415039
 31
0.0
100
AcDbText
  0
ENDBLK
  5
23A
100
AcDbEntity
  8
0
100
AcDbBlockEnd
  0
BLOCK
  5
282
100
AcDbEntity
  8
0
100
AcDbBlockBegin
  2
*D15
 70
        0
 10
0.0
 20
0.0
 30
0.0
  3
*D15
  1

  0
LINE
  5
283
100
AcDbEntity
  8
GEKO
  6
SOLID
 62
        7
100
AcDbLine
 10
-1899.484619141
 20
1505.343994141
 30
0.0
 11
-1899.484619141
 21
476.265869141
 31
0.0
  0
LINE
  5
284
100
AcDbEntity
  8
GEKO
  6
SOLID
 62
        7
100
AcDbLine
 10
-1454.484619141
 20
854.118896484
 30
0.0
 11
-1454.484619141
 21
476.265869141
 31
0.0
  0
LINE
  5
285
100
AcDbEntity
  8
GEKO
  6
SOLID
 62
        7
100
AcDbLine
 10
-1899.484619141
 20
477.265869141
 30
0.0
 11
-1454.484619141
 21
477.265869141
 31
0.0
  0
LINE
  5
286
100
AcDbEntity
  8
GEKO
  6
SOLID
 62
        7
100
AcDbLine
 10
-1869.484619141
 20
482.265380859
 30
0.0
 11
-1899.484619141
 21
477.265869141
 31
0.0
  0
LINE
  5
287
100
AcDbEntity
  8
GEKO
  6
SOLID
 62
        7
100
AcDbLine
 10
-1899.484619141
 20
477.265869141
 30
0.0
 11
-1869.484619141
 21
472.266357422
 31
0.0
  0
LINE
  5
288
100
AcDbEntity
  8
GEKO
  6
SOLID
 62
        7
100
AcDbLine
 10
-1869.484619141
 20
472.266357422
 30
0.0
 11
-1869.484619141
 21
482.265380859
 31
0.0
  0
LINE
  5
289
100
AcDbEntity
  8
GEKO
  6
SOLID
 62
        7
100
AcDbLine
 10
-1454.484619141
 20
477.265869141
 30
0.0
 11
-1899.484619141
 21
477.265869141
 31
0.0
  0
LINE
  5
28A
100
AcDbEntity
  8
GEKO
  6
SOLID
 62
        7
100
AcDbLine
 10
-1484.484619141
 20
472.266357422
 30
0.0
 11
-1454.484619141
 21
477.265869141
 31
0.0
  0
LINE
  5
28B
100
AcDbEntity
  8
GEKO
  6
SOLID
 62
        7
100
AcDbLine
 10
-1454.484619141
 20
477.265869141
 30
0.0
 11
-1484.484619141
 21
482.265380859
 31
0.0
  0
LINE
  5
28C
100
AcDbEntity
  8
GEKO
  6
SOLID
 62
        7
100
AcDbLine
 10
-1484.484619141
 20
482.265380859
 30
0.0
 11
-1484.484619141
 21
472.266357422
 31
0.0
  0
TEXT
  5
28D
100
AcDbEntity
  8
GEKO
  6
SOLID
 62
        7
100
AcDbText
 10
-1712.229980469
 20
492.265869141
 30
0.0
 40
30.0
  1
445
 72
        5
 11
-1641.739212036
 21
492.265869141
 31
0.0
100
AcDbText
  0
ENDBLK
  5
28E
100
AcDbEntity
  8
0
100
AcDbBlockEnd
  0
BLOCK
  5
294
100
AcDbEntity
  8
0
100
AcDbBlockBegin
  2
*D16
 70
        0
 10
0.0
 20
0.0
 30
0.0
  3
*D16
  1

  0
LINE
  5
295
100
AcDbEntity
  8
GEKO
  6
SOLID
 62
        7
100
AcDbLine
 10
-1233.530883789
 20
1051.883789063
 30
0.0
 11
-1222.282958984
 21
1051.883789063
 31
0.0
  0
LINE
  5
296
100
AcDbEntity
  8
GEKO
  6
SOLID
 62
        7
100
AcDbLine
 10
-596.944824219
 20
1595.899414063
 30
0.0
 11
-1224.282958984
 21
1595.899414063
 31
0.0
  0
LINE
  5
297
100
AcDbEntity
  8
GEKO
  6
SOLID
 62
        7
100
AcDbLine
 10
-1223.282958984
 20
1051.883789063
 30
0.0
 11
-1223.282958984
 21
1595.899414063
 31
0.0
  0
LINE
  5
298
100
AcDbEntity
  8
GEKO
  6
SOLID
 62
        7
100
AcDbLine
 10
-1228.282470703
 20
1081.883789063
 30
0.0
 11
-1223.282958984
 21
1051.883789063
 31
0.0
  0
LINE
  5
299
100
AcDbEntity
  8
GEKO
  6
SOLID
 62
        7
100
AcDbLine
 10
-1223.282958984
 20
1051.883789063
 30
0.0
 11
-1218.283447266
 21
1081.883789063
 31
0.0
  0
LINE
  5
29A
100
AcDbEntity
  8
GEKO
  6
SOLID
 62
        7
100
AcDbLine
 10
-1218.283447266
 20
1081.883789063
 30
0.0
 11
-1228.282470703
 21
1081.883789063
 31
0.0
  0
LINE
  5
29B
100
AcDbEntity
  8
GEKO
  6
SOLID
 62
        7
100
AcDbLine
 10
-1223.282958984
 20
1595.899414063
 30
0.0
 11
-1223.282958984
 21
1051.883789063
 31
0.0
  0
LINE
  5
29C
100
AcDbEntity
  8
GEKO
  6
SOLID
 62
        7
100
AcDbLine
 10
-1218.283447266
 20
1565.899414063
 30
0.0
 11
-1223.282958984
 21
1595.899414063
 31
0.0
  0
LINE
  5
29D
100
AcDbEntity
  8
GEKO
  6
SOLID
 62
        7
100
AcDbLine
 10
-1223.282958984
 20
1595.899414063
 30
0.0
 11
-1228.282470703
 21
1565.899414063
 31
0.0
  0
LINE
  5
29E
100
AcDbEntity
  8
GEKO
  6
SOLID
 62
        7
100
AcDbLine
 10
-1228.282470703
 20
1565.899414063
 30
0.0
 11
-1218.283447266
 21
1565.899414063
 31
0.0
  0
TEXT
  5
29F
100
AcDbEntity
  8
GEKO
  6
SOLID
 62
        7
100
AcDbText
 10
-1238.282958984
 20
1288.646240234
 30
0.0
 40
30.0
  1
545
 50
90.000002504
 72
        5
 11
-1238.282962066
 21
1359.137008667
 31
0.0
100
AcDbText
  0
ENDBLK
  5
2A0
100
AcDbEntity
  8
0
100
AcDbBlockEnd
  0
BLOCK
  5
2E4
100
AcDbEntity
  8
0
100
AcDbBlockBegin
  2
*D17
 70
        0
 10
0.0
 20
0.0
 30
0.0
  3
*D17
  1

  0
LINE
  5
2E5
100
AcDbEntity
  8
GEKO
  6
SOLID
 62
        7
100
AcDbLine
 10
-915.42980957
 20
920.883789063
 30
0.0
 11
-915.42980957
 21
631.633789063
 31
0.0
  0
LINE
  5
2E6
100
AcDbEntity
  8
GEKO
  6
SOLID
 62
        7
100
AcDbLine
 10
-479.90447998
 20
1295.127685547
 30
0.0
 11
-479.90447998
 21
631.633789063
 31
0.0
  0
LINE
  5
2E7
100
AcDbEntity
  8
GEKO
  6
SOLID
 62
        7
100
AcDbLine
 10
-915.42980957
 20
632.633789063
 30
0.0
 11
-479.90447998
 21
632.633789063
 31
0.0
  0
LINE
  5
2E8
100
AcDbEntity
  8
GEKO
  6
SOLID
 62
        7
100
AcDbLine
 10
-885.42980957
 20
637.633300781
 30
0.0
 11
-915.42980957
 21
632.633789063
 31
0.0
  0
LINE
  5
2E9
100
AcDbEntity
  8
GEKO
  6
SOLID
 62
        7
100
AcDbLine
 10
-915.42980957
 20
632.633789063
 30
0.0
 11
-885.42980957
 21
627.634277344
 31
0.0
  0
LINE
  5
2EA
100
AcDbEntity
  8
GEKO
  6
SOLID
 62
        7
100
AcDbLine
 10
-885.42980957
 20
627.634277344
 30
0.0
 11
-885.42980957
 21
637.633300781
 31
0.0
  0
LINE
  5
2EB
100
AcDbEntity
  8
GEKO
  6
SOLID
 62
        7
100
AcDbLine
 10
-479.90447998
 20
632.633789063
 30
0.0
 11
-915.42980957
 21
632.633789063
 31
0.0
  0
LINE
  5
2EC
100
AcDbEntity
  8
GEKO
  6
SOLID
 62
        7
100
AcDbLine
 10
-509.90447998
 20
627.634277344
 30
0.0
 11
-479.90447998
 21
632.633789063
 31
0.0
  0
LINE
  5
2ED
100
AcDbEntity
  8
GEKO
  6
SOLID
 62
        7
100
AcDbLine
 10
-479.90447998
 20
632.633789063
 30
0.0
 11
-509.90447998
 21
637.633300781
 31
0.0
  0
LINE
  5
2EE
100
AcDbEntity
  8
GEKO
  6
SOLID
 62
        7
100
AcDbLine
 10
-509.90447998
 20
637.633300781
 30
0.0
 11
-509.90447998
 21
627.634277344
 31
0.0
  0
TEXT
  5
2EF
100
AcDbEntity
  8
GEKO
  6
SOLID
 62
        7
100
AcDbText
 10
-732.912536621
 20
647.633789063
 30
0.0
 40
30.0
  1
435
 72
        5
 11
-662.421768188
 21
647.633789063
 31
0.0
100
AcDbText
  0
ENDBLK
  5
2F0
100
AcDbEntity
  8
0
100
AcDbBlockEnd
  0
BLOCK
  5
2FB
100
AcDbEntity
  8
0
100
AcDbBlockBegin
  2
*D18
 70
        0
 10
0.0
 20
0.0
 30
0.0
  3
*D18
  1

  0
LINE
  5
2FC
100
AcDbEntity
  8
GEKO
  6
SOLID
 62
        7
100
AcDbLine
 10
-915.430358887
 20
891.883056641
 30
0.0
 11
-1228.282958984
 21
891.883056641
 31
0.0
  0
LINE
  5
2FD
100
AcDbEntity
  8
GEKO
  6
SOLID
 62
        7
100
AcDbLine
 10
-1206.043701172
 20
1051.883056641
 30
0.0
 11
-1228.282958984
 21
1051.883056641
 31
0.0
  0
LINE
  5
2FE
100
AcDbEntity
  8
GEKO
  6
SOLID
 62
        7
100
AcDbLine
 10
-1223.282958984
 20
891.883056641
 30
0.0
 11
-1223.282958984
 21
1051.883056641
 31
0.0
  0
LINE
  5
2FF
100
AcDbEntity
  8
GEKO
  6
SOLID
 62
        7
100
AcDbLine
 10
-1228.282470703
 20
921.883056641
 30
0.0
 11
-1223.282958984
 21
891.883056641
 31
0.0
  0
LINE
  5
300
100
AcDbEntity
  8
GEKO
  6
SOLID
 62
        7
100
AcDbLine
 10
-1223.282958984
 20
891.883056641
 30
0.0
 11
-1218.283447266
 21
921.883056641
 31
0.0
  0
LINE
  5
301
100
AcDbEntity
  8
GEKO
  6
SOLID
 62
        7
100
AcDbLine
 10
-1218.283447266
 20
921.883056641
 30
0.0
 11
-1228.282470703
 21
921.883056641
 31
0.0
  0
LINE
  5
302
100
AcDbEntity
  8
GEKO
  6
SOLID
 62
        7
100
AcDbLine
 10
-1223.282958984
 20
1051.883056641
 30
0.0
 11
-1223.282958984
 21
891.883056641
 31
0.0
  0
LINE
  5
303
100
AcDbEntity
  8
GEKO
  6
SOLID
 62
        7
100
AcDbLine
 10
-1218.283447266
 20
1021.883056641
 30
0.0
 11
-1223.282958984
 21
1051.883056641
 31
0.0
  0
LINE
  5
304
100
AcDbEntity
  8
GEKO
  6
SOLID
 62
        7
100
AcDbLine
 10
-1223.282958984
 20
1051.883056641
 30
0.0
 11
-1228.282470703
 21
1021.883056641
 31
0.0
  0
LINE
  5
305
100
AcDbEntity
  8
GEKO
  6
SOLID
 62
        7
100
AcDbLine
 10
-1228.282470703
 20
1021.883056641
 30
0.0
 11
-1218.283447266
 21
1021.883056641
 31
0.0
  0
TEXT
  5
306
100
AcDbEntity
  8
GEKO
  6
SOLID
 62
        7
100
AcDbText
 10
-1238.282958984
 20
936.637695313
 30
0.0
 40
30.0
  1
160
 50
90.000002504
 72
        5
 11
-1238.282962066
 21
1007.128463745
 31
0.0
100
AcDbText
  0
ENDBLK
  5
307
100
AcDbEntity
  8
0
100
AcDbBlockEnd
  0
BLOCK
  5
30A
100
AcDbEntity
  8
0
100
AcDbBlockBegin
  2
*D19
 70
        0
 10
0.0
 20
0.0
 30
0.0
  3
*D19
  1

  0
LINE
  5
30B
100
AcDbEntity
  8
GEKO
  6
SOLID
 62
        7
100
AcDbLine
 10
-555.409362793
 20
921.883056641
 30
0.0
 11
-301.303405762
 21
921.883056641
 31
0.0
  0
LINE
  5
30C
100
AcDbEntity
  8
GEKO
  6
SOLID
 62
        7
100
AcDbLine
 10
-555.409362793
 20
1181.883056641
 30
0.0
 11
-301.303405762
 21
1181.883056641
 31
0.0
  0
LINE
  5
30D
100
AcDbEntity
  8
GEKO
  6
SOLID
 62
        7
100
AcDbLine
 10
-306.303405762
 20
921.883056641
 30
0.0
 11
-306.303405762
 21
1181.883056641
 31
0.0
  0
LINE
  5
30E
100
AcDbEntity
  8
GEKO
  6
SOLID
 62
        7
100
AcDbLine
 10
-311.30291748
 20
951.883056641
 30
0.0
 11
-306.303405762
 21
921.883056641
 31
0.0
  0
LINE
  5
30F
100
AcDbEntity
  8
GEKO
  6
SOLID
 62
        7
100
AcDbLine
 10
-306.303405762
 20
921.883056641
 30
0.0
 11
-301.303894043
 21
951.883056641
 31
0.0
  0
LINE
  5
310
100
AcDbEntity
  8
GEKO
  6
SOLID
 62
        7
100
AcDbLine
 10
-301.303894043
 20
951.883056641
 30
0.0
 11
-311.30291748
 21
951.883056641
 31
0.0
  0
LINE
  5
311
100
AcDbEntity
  8
GEKO
  6
SOLID
 62
        7
100
AcDbLine
 10
-306.303405762
 20
1181.883056641
 30
0.0
 11
-306.303405762
 21
921.883056641
 31
0.0
  0
LINE
  5
312
100
AcDbEntity
  8
GEKO
  6
SOLID
 62
        7
100
AcDbLine
 10
-301.303894043
 20
1151.883056641
 30
0.0
 11
-306.303405762
 21
1181.883056641
 31
0.0
  0
LINE
  5
313
100
AcDbEntity
  8
GEKO
  6
SOLID
 62
        7
100
AcDbLine
 10
-306.303405762
 20
1181.883056641
 30
0.0
 11
-311.30291748
 21
1151.883056641
 31
0.0
  0
LINE
  5
314
100
AcDbEntity
  8
GEKO
  6
SOLID
 62
        7
100
AcDbLine
 10
-311.30291748
 20
1151.883056641
 30
0.0
 11
-301.303894043
 21
1151.883056641
 31
0.0
  0
TEXT
  5
315
100
AcDbEntity
  8
GEKO
  6
SOLID
 62
        7
100
AcDbText
 10
-321.303405762
 20
1016.637695313
 30
0.0
 40
30.0
  1
260
 50
90.000002504
 72
        5
 11
-321.303408843
 21
1087.128463745
 31
0.0
100
AcDbText
  0
ENDBLK
  5
316
100
AcDbEntity
  8
0
100
AcDbBlockEnd
  0
BLOCK
  5
319
100
AcDbEntity
  8
0
100
AcDbBlockBegin
  2
*H20
 70
        0
 10
0.0
 20
0.0
 30
0.0
  3
*H20
  1

  0
LINE
  5
31A
100
AcDbEntity
  8
GEKO
  6
SOLID
 62
        7
100
AcDbLine
 10
-382.559265137
 20
1051.435791016
 30
0.0
 11
-385.497741699
 21
1048.497314453
 31
0.0
  0
LINE
  5
31B
100
AcDbEntity
  8
GEKO
  6
SOLID
 62
        7
100
AcDbLine
 10
-387.314147949
 20
1048.802001953
 30
0.0
 11
-382.834655762
 21
1053.281494141
 31
0.0
  0
LINE
  5
31C
100
AcDbEntity
  8
GEKO
  6
SOLID
 62
        7
100
AcDbLine
 10
-383.741882324
 20
1054.495361328
 30
0.0
 11
-388.485046387
 21
1049.752197266
 31
0.0
  0
LINE
  5
31D
100
AcDbEntity
  8
GEKO
  6
SOLID
 62
        7
100
AcDbLine
 10
-389.179382324
 20
1051.178955078
 30
0.0
 11
-385.116882324
 21
1055.241455078
 31
0.0
  0
LINE
  5
31E
100
AcDbEntity
  8
GEKO
  6
SOLID
 62
        7
100
AcDbLine
 10
-387.895202637
 20
1054.585205078
 30
0.0
 11
-388.724304199
 21
1053.755126953
 31
0.0
  0
ENDBLK
  5
31F
100
AcDbEntity
  8
0
100
AcDbBlockEnd
  0
BLOCK
  5
322
100
AcDbEntity
  8
0
100
AcDbBlockBegin
  2
*H21
 70
        0
 10
0.0
 20
0.0
 30
0.0
  3
*H21
  1

  0
LINE
  5
323
100
AcDbEntity
  8
GEKO
  6
SOLID
 62
        7
100
AcDbLine
 10
-302.559265137
 20
1051.435791016
 30
0.0
 11
-305.497741699
 21
1048.497314453
 31
0.0
  0
LINE
  5
324
100
AcDbEntity
  8
GEKO
  6
SOLID
 62
        7
100
AcDbLine
 10
-307.314147949
 20
1048.802001953
 30
0.0
 11
-302.834655762
 21
1053.281494141
 31
0.0
  0
LINE
  5
325
100
AcDbEntity
  8
GEKO
  6
SOLID
 62
        7
100
AcDbLine
 10
-303.741882324
 20
1054.495361328
 30
0.0
 11
-308.485046387
 21
1049.752197266
 31
0.0
  0
LINE
  5
326
100
AcDbEntity
  8
GEKO
  6
SOLID
 62
        7
100
AcDbLine
 10
-309.179382324
 20
1051.178955078
 30
0.0
 11
-305.116882324
 21
1055.241455078
 31
0.0
  0
LINE
  5
327
100
AcDbEntity
  8
GEKO
  6
SOLID
 62
        7
100
AcDbLine
 10
-307.895202637
 20
1054.585205078
 30
0.0
 11
-308.724304199
 21
1053.755126953
 31
0.0
  0
ENDBLK
  5
328
100
AcDbEntity
  8
0
100
AcDbBlockEnd
  0
BLOCK
  5
32B
100
AcDbEntity
  8
0
100
AcDbBlockBegin
  2
*D22
 70
        0
 10
0.0
 20
0.0
 30
0.0
  3
*D22
  1

  0
LINE
  5
32C
100
AcDbEntity
  8
GEKO
  6
SOLID
 62
        7
100
AcDbLine
 10
-595.410339355
 20
938.882080078
 30
0.0
 11
-595.410339355
 21
785.358398438
 31
0.0
  0
LINE
  5
32D
100
AcDbEntity
  8
GEKO
  6
SOLID
 62
        7
100
AcDbLine
 10
-560.410339355
 20
916.882080078
 30
0.0
 11
-560.410339355
 21
785.358398438
 31
0.0
  0
LINE
  5
32E
100
AcDbEntity
  8
GEKO
  6
SOLID
 62
        7
100
AcDbLine
 10
-595.410339355
 20
790.358398438
 30
0.0
 11
-640.410339355
 21
790.358398438
 31
0.0
  0
LINE
  5
32F
100
AcDbEntity
  8
GEKO
  6
SOLID
 62
        7
100
AcDbLine
 10
-640.410339355
 20
790.358398438
 30
0.0
 11
-489.823730469
 21
790.358398438
 31
0.0
  0
LINE
  5
330
100
AcDbEntity
  8
GEKO
  6
SOLID
 62
        7
100
AcDbLine
 10
-625.410339355
 20
785.358886719
 30
0.0
 11
-595.410339355
 21
790.358398438
 31
0.0
  0
LINE
  5
331
100
AcDbEntity
  8
GEKO
  6
SOLID
 62
        7
100
AcDbLine
 10
-595.410339355
 20
790.358398438
 30
0.0
 11
-625.410339355
 21
795.357910156
 31
0.0
  0
LINE
  5
332
100
AcDbEntity
  8
GEKO
  6
SOLID
 62
        7
100
AcDbLine
 10
-625.410339355
 20
795.357910156
 30
0.0
 11
-625.410339355
 21
785.358886719
 31
0.0
  0
LINE
  5
333
100
AcDbEntity
  8
GEKO
  6
SOLID
 62
        7
100
AcDbLine
 10
-560.410339355
 20
790.358398438
 30
0.0
 11
-489.823730469
 21
790.358398438
 31
0.0
  0
LINE
  5
334
100
AcDbEntity
  8
GEKO
  6
SOLID
 62
        7
100
AcDbLine
 10
-489.823730469
 20
790.358398438
 30
0.0
 11
-640.410339355
 21
790.358398438
 31
0.0
  0
LINE
  5
335
100
AcDbEntity
  8
GEKO
  6
SOLID
 62
        7
100
AcDbLine
 10
-530.410339355
 20
795.357910156
 30
0.0
 11
-560.410339355
 21
790.358398438
 31
0.0
  0
LINE
  5
336
100
AcDbEntity
  8
GEKO
  6
SOLID
 62
        7
100
AcDbLine
 10
-560.410339355
 20
790.358398438
 30
0.0
 11
-530.410339355
 21
785.358886719
 31
0.0
  0
LINE
  5
337
100
AcDbEntity
  8
GEKO
  6
SOLID
 62
        7
100
AcDbLine
 10
-530.410339355
 20
785.358886719
 30
0.0
 11
-530.410339355
 21
795.357910156
 31
0.0
  0
TEXT
  5
338
100
AcDbEntity
  8
GEKO
  6
SOLID
 62
        7
100
AcDbText
 10
-547.067565918
 20
805.358398438
 30
0.0
 40
30.0
  1
35
 72
        5
 11
-503.073719025
 21
805.358398438
 31
0.0
100
AcDbText
  0
ENDBLK
  5
339
100
AcDbEntity
  8
0
100
AcDbBlockEnd
  0
BLOCK
  5
33C
100
AcDbEntity
  8
0
100
AcDbBlockBegin
  2
*D23
 70
        0
 10
0.0
 20
0.0
 30
0.0
  3
*D23
  1

  0
LINE
  5
33D
100
AcDbEntity
  8
GEKO
  6
SOLID
 62
        7
100
AcDbLine
 10
-915.430358887
 20
916.882080078
 30
0.0
 11
-915.430358887
 21
705.510986328
 31
0.0
  0
LINE
  5
33E
100
AcDbEntity
  8
GEKO
  6
SOLID
 62
        7
100
AcDbLine
 10
-780.429870605
 20
722.487548828
 30
0.0
 11
-780.429870605
 21
705.510986328
 31
0.0
  0
LINE
  5
33F
100
AcDbEntity
  8
GEKO
  6
SOLID
 62
        7
100
AcDbLine
 10
-915.430358887
 20
710.510986328
 30
0.0
 11
-780.429870605
 21
710.510986328
 31
0.0
  0
LINE
  5
340
100
AcDbEntity
  8
GEKO
  6
SOLID
 62
        7
100
AcDbLine
 10
-885.430358887
 20
715.510498047
 30
0.0
 11
-915.430358887
 21
710.510986328
 31
0.0
  0
LINE
  5
341
100
AcDbEntity
  8
GEKO
  6
SOLID
 62
        7
100
AcDbLine
 10
-915.430358887
 20
710.510986328
 30
0.0
 11
-885.430358887
 21
705.511474609
 31
0.0
  0
LINE
  5
342
100
AcDbEntity
  8
GEKO
  6
SOLID
 62
        7
100
AcDbLine
 10
-885.430358887
 20
705.511474609
 30
0.0
 11
-885.430358887
 21
715.510498047
 31
0.0
  0
LINE
  5
343
100
AcDbEntity
  8
GEKO
  6
SOLID
 62
        7
100
AcDbLine
 10
-780.429870605
 20
710.510986328
 30
0.0
 11
-915.430358887
 21
710.510986328
 31
0.0
  0
LINE
  5
344
100
AcDbEntity
  8
GEKO
  6
SOLID
 62
        7
100
AcDbLine
 10
-810.429870605
 20
705.511474609
 30
0.0
 11
-780.429870605
 21
710.510986328
 31
0.0
  0
LINE
  5
345
100
AcDbEntity
  8
GEKO
  6
SOLID
 62
        7
100
AcDbLine
 10
-780.429870605
 20
710.510986328
 30
0.0
 11
-810.429870605
 21
715.510498047
 31
0.0
  0
LINE
  5
346
100
AcDbEntity
  8
GEKO
  6
SOLID
 62
        7
100
AcDbLine
 10
-810.429870605
 20
715.510498047
 30
0.0
 11
-810.429870605
 21
705.511474609
 31
0.0
  0
TEXT
  5
347
100
AcDbEntity
  8
GEKO
  6
SOLID
 62
        7
100
AcDbText
 10
-883.175231934
 20
725.510986328
 30
0.0
 40
30.0
  1
135
 72
        5
 11
-812.684463501
 21
725.510986328
 31
0.0
100
AcDbText
  0
ENDBLK
  5
348
100
AcDbEntity
  8
0
100
AcDbBlockEnd
  0
BLOCK
  5
34B
100
AcDbEntity
  8
0
100
AcDbBlockBegin
  2
*D24
 70
        0
 10
0.0
 20
0.0
 30
0.0
  3
*D24
  1

  0
LINE
  5
34C
100
AcDbEntity
  8
GEKO
  6
SOLID
 62
        7
100
AcDbLine
 10
-650.429870605
 20
889.985595703
 30
0.0
 11
-650.429870605
 21
705.462158203
 31
0.0
  0
LINE
  5
34D
100
AcDbEntity
  8
GEKO
  6
SOLID
 62
        7
100
AcDbLine
 10
-560.410339355
 20
916.883056641
 30
0.0
 11
-560.410339355
 21
705.462158203
 31
0.0
  0
LINE
  5
34E
100
AcDbEntity
  8
GEKO
  6
SOLID
 62
        7
100
AcDbLine
 10
-650.429870605
 20
710.462158203
 30
0.0
 11
-695.429870605
 21
710.462158203
 31
0.0
  0
LINE
  5
34F
100
AcDbEntity
  8
GEKO
  6
SOLID
 62
        7
100
AcDbLine
 10
-695.429870605
 20
710.462158203
 30
0.0
 11
-515.410339355
 21
710.462158203
 31
0.0
  0
LINE
  5
350
100
AcDbEntity
  8
GEKO
  6
SOLID
 62
        7
100
AcDbLine
 10
-680.429870605
 20
705.462646484
 30
0.0
 11
-650.429870605
 21
710.462158203
 31
0.0
  0
LINE
  5
351
100
AcDbEntity
  8
GEKO
  6
SOLID
 62
        7
100
AcDbLine
 10
-650.429870605
 20
710.462158203
 30
0.0
 11
-680.429870605
 21
715.461669922
 31
0.0
  0
LINE
  5
352
100
AcDbEntity
  8
GEKO
  6
SOLID
 62
        7
100
AcDbLine
 10
-680.429870605
 20
715.461669922
 30
0.0
 11
-680.429870605
 21
705.462646484
 31
0.0
  0
LINE
  5
353
100
AcDbEntity
  8
GEKO
  6
SOLID
 62
        7
100
AcDbLine
 10
-560.410339355
 20
710.462158203
 30
0.0
 11
-515.410339355
 21
710.462158203
 31
0.0
  0
LINE
  5
354
100
AcDbEntity
  8
GEKO
  6
SOLID
 62
        7
100
AcDbLine
 10
-515.410339355
 20
710.462158203
 30
0.0
 11
-695.429870605
 21
710.462158203
 31
0.0
  0
LINE
  5
355
100
AcDbEntity
  8
GEKO
  6
SOLID
 62
        7
100
AcDbLine
 10
-530.410339355
 20
715.461669922
 30
0.0
 11
-560.410339355
 21
710.462158203
 31
0.0
  0
LINE
  5
356
100
AcDbEntity
  8
GEKO
  6
SOLID
 62
        7
100
AcDbLine
 10
-560.410339355
 20
710.462158203
 30
0.0
 11
-530.410339355
 21
705.462646484
 31
0.0
  0
LINE
  5
357
100
AcDbEntity
  8
GEKO
  6
SOLID
 62
        7
100
AcDbLine
 10
-530.410339355
 20
705.462646484
 30
0.0
 11
-530.410339355
 21
715.461669922
 31
0.0
  0
TEXT
  5
358
100
AcDbEntity
  8
GEKO
  6
SOLID
 62
        7
100
AcDbText
 10
-627.417053223
 20
725.462158203
 30
0.0
 40
30.0
  1
90
 72
        5
 11
-583.423206329
 21
725.462158203
 31
0.0
100
AcDbText
  0
ENDBLK
  5
359
100
AcDbEntity
  8
0
100
AcDbBlockEnd
  0
BLOCK
  5
35C
100
AcDbEntity
  8
0
100
AcDbBlockBegin
  2
*D25
 70
        0
 10
0.0
 20
0.0
 30
0.0
  3
*D25
  1

  0
LINE
  5
35D
100
AcDbEntity
  8
GEKO
  6
SOLID
 62
        7
100
AcDbLine
 10
-780.429870605
 20
722.488525391
 30
0.0
 11
-780.429870605
 21
705.462158203
 31
0.0
  0
LINE
  5
35E
100
AcDbEntity
  8
GEKO
  6
SOLID
 62
        7
100
AcDbLine
 10
-650.429870605
 20
886.883056641
 30
0.0
 11
-650.429870605
 21
705.462158203
 31
0.0
  0
LINE
  5
35F
100
AcDbEntity
  8
GEKO
  6
SOLID
 62
        7
100
AcDbLine
 10
-780.429870605
 20
710.462158203
 30
0.0
 11
-650.429870605
 21
710.462158203
 31
0.0
  0
LINE
  5
360
100
AcDbEntity
  8
GEKO
  6
SOLID
 62
        7
100
AcDbLine
 10
-750.429870605
 20
715.461669922
 30
0.0
 11
-780.429870605
 21
710.462158203
 31
0.0
  0
LINE
  5
361
100
AcDbEntity
  8
GEKO
  6
SOLID
 62
        7
100
AcDbLine
 10
-780.429870605
 20
710.462158203
 30
0.0
 11
-750.429870605
 21
705.462646484
 31
0.0
  0
LINE
  5
362
100
AcDbEntity
  8
GEKO
  6
SOLID
 62
        7
100
AcDbLine
 10
-750.429870605
 20
705.462646484
 30
0.0
 11
-750.429870605
 21
715.461669922
 31
0.0
  0
LINE
  5
363
100
AcDbEntity
  8
GEKO
  6
SOLID
 62
        7
100
AcDbLine
 10
-650.429870605
 20
710.462158203
 30
0.0
 11
-780.429870605
 21
710.462158203
 31
0.0
  0
LINE
  5
364
100
AcDbEntity
  8
GEKO
  6
SOLID
 62
        7
100
AcDbLine
 10
-680.429870605
 20
705.462646484
 30
0.0
 11
-650.429870605
 21
710.462158203
 31
0.0
  0
LINE
  5
365
100
AcDbEntity
  8
GEKO
  6
SOLID
 62
        7
100
AcDbLine
 10
-650.429870605
 20
710.462158203
 30
0.0
 11
-680.429870605
 21
715.461669922
 31
0.0
  0
LINE
  5
366
100
AcDbEntity
  8
GEKO
  6
SOLID
 62
        7
100
AcDbLine
 10
-680.429870605
 20
715.461669922
 30
0.0
 11
-680.429870605
 21
705.462646484
 31
0.0
  0
TEXT
  5
367
100
AcDbEntity
  8
GEKO
  6
SOLID
 62
        7
100
AcDbText
 10
-750.675231934
 20
725.462158203
 30
0.0
 40
30.0
  1
130
 72
        5
 11
-680.184463501
 21
725.462158203
 31
0.0
100
AcDbText
  0
ENDBLK
  5
368
100
AcDbEntity
  8
0
100
AcDbBlockEnd
  0
BLOCK
  5
36B
100
AcDbEntity
  8
0
100
AcDbBlockBegin
  2
*D26
 70
        0
 10
0.0
 20
0.0
 30
0.0
  3
*D26
  1

  0
LINE
  5
36C
100
AcDbEntity
  8
GEKO
  6
SOLID
 62
        7
100
AcDbLine
 10
-920.430358887
 20
921.883056641
 30
0.0
 11
-1148.233154297
 21
921.883056641
 31
0.0
  0
LINE
  5
36D
100
AcDbEntity
  8
GEKO
  6
SOLID
 62
        7
100
AcDbLine
 10
-920.430358887
 20
1181.883056641
 30
0.0
 11
-1148.233154297
 21
1181.883056641
 31
0.0
  0
LINE
  5
36E
100
AcDbEntity
  8
GEKO
  6
SOLID
 62
        7
100
AcDbLine
 10
-1143.233154297
 20
921.883056641
 30
0.0
 11
-1143.233154297
 21
1181.883056641
 31
0.0
  0
LINE
  5
36F
100
AcDbEntity
  8
GEKO
  6
SOLID
 62
        7
100
AcDbLine
 10
-1148.232666016
 20
951.883056641
 30
0.0
 11
-1143.233154297
 21
921.883056641
 31
0.0
  0
LINE
  5
370
100
AcDbEntity
  8
GEKO
  6
SOLID
 62
        7
100
AcDbLine
 10
-1143.233154297
 20
921.883056641
 30
0.0
 11
-1138.233642578
 21
951.883056641
 31
0.0
  0
LINE
  5
371
100
AcDbEntity
  8
GEKO
  6
SOLID
 62
        7
100
AcDbLine
 10
-1138.233642578
 20
951.883056641
 30
0.0
 11
-1148.232666016
 21
951.883056641
 31
0.0
  0
LINE
  5
372
100
AcDbEntity
  8
GEKO
  6
SOLID
 62
        7
100
AcDbLine
 10
-1143.233154297
 20
1181.883056641
 30
0.0
 11
-1143.233154297
 21
921.883056641
 31
0.0
  0
LINE
  5
373
100
AcDbEntity
  8
GEKO
  6
SOLID
 62
        7
100
AcDbLine
 10
-1138.233642578
 20
1151.883056641
 30
0.0
 11
-1143.233154297
 21
1181.883056641
 31
0.0
  0
LINE
  5
374
100
AcDbEntity
  8
GEKO
  6
SOLID
 62
        7
100
AcDbLine
 10
-1143.233154297
 20
1181.883056641
 30
0.0
 11
-1148.232666016
 21
1151.883056641
 31
0.0
  0
LINE
  5
375
100
AcDbEntity
  8
GEKO
  6
SOLID
 62
        7
100
AcDbLine
 10
-1148.232666016
 20
1151.883056641
 30
0.0
 11
-1138.233642578
 21
1151.883056641
 31
0.0
  0
TEXT
  5
376
100
AcDbEntity
  8
GEKO
  6
SOLID
 62
        7
100
AcDbText
 10
-1158.233154297
 20
1016.637695313
 30
0.0
 40
30.0
  1
260
 50
90.000002504
 72
        5
 11
-1158.233157378
 21
1087.128463745
 31
0.0
100
AcDbText
  0
ENDBLK
  5
377
100
AcDbEntity
  8
0
100
AcDbBlockEnd
  0
BLOCK
  5
37A
100
AcDbEntity
  8
0
100
AcDbBlockBegin
  2
*H27
 70
        0
 10
0.0
 20
0.0
 30
0.0
  3
*H27
  1

  0
LINE
  5
37B
100
AcDbEntity
  8
GEKO
  6
SOLID
 62
        7
100
AcDbLine
 10
-1066.347412109
 20
1051.434814453
 30
0.0
 11
-1063.409912109
 21
1048.497314453
 31
0.0
  0
LINE
  5
37C
100
AcDbEntity
  8
GEKO
  6
SOLID
 62
        7
100
AcDbLine
 10
-1061.592529297
 20
1048.802001953
 30
0.0
 11
-1066.072021484
 21
1053.280517578
 31
0.0
  0
LINE
  5
37D
100
AcDbEntity
  8
GEKO
  6
SOLID
 62
        7
100
AcDbLine
 10
-1065.164794922
 20
1054.495361328
 30
0.0
 11
-1060.421630859
 21
1049.752197266
 31
0.0
  0
LINE
  5
37E
100
AcDbEntity
  8
GEKO
  6
SOLID
 62
        7
100
AcDbLine
 10
-1059.727294922
 20
1051.178955078
 30
0.0
 11
-1063.788818359
 21
1055.241455078
 31
0.0
  0
LINE
  5
37F
100
AcDbEntity
  8
GEKO
  6
SOLID
 62
        7
100
AcDbLine
 10
-1061.011474609
 20
1054.584228516
 30
0.0
 11
-1060.182373047
 21
1053.755126953
 31
0.0
  0
ENDBLK
  5
380
100
AcDbEntity
  8
0
100
AcDbBlockEnd
  0
BLOCK
  5
383
100
AcDbEntity
  8
0
100
AcDbBlockBegin
  2
*H28
 70
        0
 10
0.0
 20
0.0
 30
0.0
  3
*H28
  1

  0
LINE
  5
384
100
AcDbEntity
  8
GEKO
  6
SOLID
 62
        7
100
AcDbLine
 10
-1146.347412109
 20
1051.434814453
 30
0.0
 11
-1143.409912109
 21
1048.497314453
 31
0.0
  0
LINE
  5
385
100
AcDbEntity
  8
GEKO
  6
SOLID
 62
        7
100
AcDbLine
 10
-1141.592529297
 20
1048.802001953
 30
0.0
 11
-1146.072021484
 21
1053.280517578
 31
0.0
  0
LINE
  5
386
100
AcDbEntity
  8
GEKO
  6
SOLID
 62
        7
100
AcDbLine
 10
-1145.164794922
 20
1054.495361328
 30
0.0
 11
-1140.421630859
 21
1049.752197266
 31
0.0
  0
LINE
  5
387
100
AcDbEntity
  8
GEKO
  6
SOLID
 62
        7
100
AcDbLine
 10
-1139.727294922
 20
1051.178955078
 30
0.0
 11
-1143.788818359
 21
1055.241455078
 31
0.0
  0
LINE
  5
388
100
AcDbEntity
  8
GEKO
  6
SOLID
 62
        7
100
AcDbLine
 10
-1141.011474609
 20
1054.584228516
 30
0.0
 11
-1140.182373047
 21
1053.755126953
 31
0.0
  0
ENDBLK
  5
389
100
AcDbEntity
  8
0
100
AcDbBlockEnd
  0
BLOCK
  5
38C
100
AcDbEntity
  8
0
100
AcDbBlockBegin
  2
*H29
 70
        0
 10
0.0
 20
0.0
 30
0.0
  3
*H29
  1

  0
LINE
  5
38D
100
AcDbEntity
  8
GEKO
  6
SOLID
 62
        7
100
AcDbLine
 10
-779.98260498
 20
787.337158203
 30
0.0
 11
-777.04510498
 21
790.274658203
 31
0.0
  0
LINE
  5
38E
100
AcDbEntity
  8
GEKO
  6
SOLID
 62
        7
100
AcDbLine
 10
-777.348815918
 20
792.092041016
 30
0.0
 11
-781.829284668
 21
787.612548828
 31
0.0
  0
LINE
  5
38F
100
AcDbEntity
  8
GEKO
  6
SOLID
 62
        7
100
AcDbLine
 10
-783.043151855
 20
788.519775391
 30
0.0
 11
-778.299987793
 21
793.262939453
 31
0.0
  0
LINE
  5
390
100
AcDbEntity
  8
GEKO
  6
SOLID
 62
        7
100
AcDbLine
 10
-779.726745605
 20
793.957275391
 30
0.0
 11
-783.788269043
 21
789.895751953
 31
0.0
  0
LINE
  5
391
100
AcDbEntity
  8
GEKO
  6
SOLID
 62
        7
100
AcDbLine
 10
-783.132019043
 20
792.673095703
 30
0.0
 11
-782.30291748
 21
793.502197266
 31
0.0
  0
ENDBLK
  5
392
100
AcDbEntity
  8
0
100
AcDbBlockEnd
  0
BLOCK
  5
395
100
AcDbEntity
  8
0
100
AcDbBlockBegin
  2
*D30
 70
        0
 10
0.0
 20
0.0
 30
0.0
  3
*D30
  1

  0
LINE
  5
396
100
AcDbEntity
  8
GEKO
  6
SOLID
 62
        7
100
AcDbLine
 10
-553.690612793
 20
949.383056641
 30
0.0
 11
-385.182312012
 21
949.383056641
 31
0.0
  0
LINE
  5
397
100
AcDbEntity
  8
GEKO
  6
SOLID
 62
        7
100
AcDbLine
 10
-553.690612793
 20
1154.383056641
 30
0.0
 11
-385.182312012
 21
1154.383056641
 31
0.0
  0
LINE
  5
398
100
AcDbEntity
  8
GEKO
  6
SOLID
 62
        7
100
AcDbLine
 10
-386.182312012
 20
949.383056641
 30
0.0
 11
-386.182312012
 21
1154.383056641
 31
0.0
  0
LINE
  5
399
100
AcDbEntity
  8
GEKO
  6
SOLID
 62
        7
100
AcDbLine
 10
-391.18182373
 20
979.383056641
 30
0.0
 11
-386.182312012
 21
949.383056641
 31
0.0
  0
LINE
  5
39A
100
AcDbEntity
  8
GEKO
  6
SOLID
 62
        7
100
AcDbLine
 10
-386.182312012
 20
949.383056641
 30
0.0
 11
-381.182800293
 21
979.383056641
 31
0.0
  0
LINE
  5
39B
100
AcDbEntity
  8
GEKO
  6
SOLID
 62
        7
100
AcDbLine
 10
-381.182800293
 20
979.383056641
 30
0.0
 11
-391.18182373
 21
979.383056641
 31
0.0
  0
LINE
  5
39C
100
AcDbEntity
  8
GEKO
  6
SOLID
 62
        7
100
AcDbLine
 10
-386.182312012
 20
1154.383056641
 30
0.0
 11
-386.182312012
 21
949.383056641
 31
0.0
  0
LINE
  5
39D
100
AcDbEntity
  8
GEKO
  6
SOLID
 62
        7
100
AcDbLine
 10
-381.182800293
 20
1124.383056641
 30
0.0
 11
-386.182312012
 21
1154.383056641
 31
0.0
  0
LINE
  5
39E
100
AcDbEntity
  8
GEKO
  6
SOLID
 62
        7
100
AcDbLine
 10
-386.182312012
 20
1154.383056641
 30
0.0
 11
-391.18182373
 21
1124.383056641
 31
0.0
  0
LINE
  5
39F
100
AcDbEntity
  8
GEKO
  6
SOLID
 62
        7
100
AcDbLine
 10
-391.18182373
 20
1124.383056641
 30
0.0
 11
-381.182800293
 21
1124.383056641
 31
0.0
  0
TEXT
  5
3A0
100
AcDbEntity
  8
GEKO
  6
SOLID
 62
        7
100
AcDbText
 10
-401.182312012
 20
1016.637695313
 30
0.0
 40
30.0
  1
205
 50
90.000002504
 72
        5
 11
-401.182315093
 21
1087.128463745
 31
0.0
100
AcDbText
  0
ENDBLK
  5
3A1
100
AcDbEntity
  8
0
100
AcDbBlockEnd
  0
BLOCK
  5
3A4
100
AcDbEntity
  8
0
100
AcDbBlockBegin
  2
*D31
 70
        0
 10
0.0
 20
0.0
 30
0.0
  3
*D31
  1

  0
LINE
  5
3A5
100
AcDbEntity
  8
GEKO
  6
SOLID
 62
        7
100
AcDbLine
 10
-882.929870605
 20
885.164306641
 30
0.0
 11
-882.929870605
 21
789.698486328
 31
0.0
  0
LINE
  5
3A6
100
AcDbEntity
  8
GEKO
  6
SOLID
 62
        7
100
AcDbLine
 10
-677.929870605
 20
885.164306641
 30
0.0
 11
-677.929870605
 21
789.698486328
 31
0.0
  0
LINE
  5
3A7
100
AcDbEntity
  8
GEKO
  6
SOLID
 62
        7
100
AcDbLine
 10
-882.929870605
 20
790.698486328
 30
0.0
 11
-677.929870605
 21
790.698486328
 31
0.0
  0
LINE
  5
3A8
100
AcDbEntity
  8
GEKO
  6
SOLID
 62
        7
100
AcDbLine
 10
-852.929870605
 20
795.697998047
 30
0.0
 11
-882.929870605
 21
790.698486328
 31
0.0
  0
LINE
  5
3A9
100
AcDbEntity
  8
GEKO
  6
SOLID
 62
        7
100
AcDbLine
 10
-882.929870605
 20
790.698486328
 30
0.0
 11
-852.929870605
 21
785.698974609
 31
0.0
  0
LINE
  5
3AA
100
AcDbEntity
  8
GEKO
  6
SOLID
 62
        7
100
AcDbLine
 10
-852.929870605
 20
785.698974609
 30
0.0
 11
-852.929870605
 21
795.697998047
 31
0.0
  0
LINE
  5
3AB
100
AcDbEntity
  8
GEKO
  6
SOLID
 62
        7
100
AcDbLine
 10
-677.929870605
 20
790.698486328
 30
0.0
 11
-882.929870605
 21
790.698486328
 31
0.0
  0
LINE
  5
3AC
100
AcDbEntity
  8
GEKO
  6
SOLID
 62
        7
100
AcDbLine
 10
-707.929870605
 20
785.698974609
 30
0.0
 11
-677.929870605
 21
790.698486328
 31
0.0
  0
LINE
  5
3AD
100
AcDbEntity
  8
GEKO
  6
SOLID
 62
        7
100
AcDbLine
 10
-677.929870605
 20
790.698486328
 30
0.0
 11
-707.929870605
 21
795.697998047
 31
0.0
  0
LINE
  5
3AE
100
AcDbEntity
  8
GEKO
  6
SOLID
 62
        7
100
AcDbLine
 10
-707.929870605
 20
795.697998047
 30
0.0
 11
-707.929870605
 21
785.698974609
 31
0.0
  0
TEXT
  5
3AF
100
AcDbEntity
  8
GEKO
  6
SOLID
 62
        7
100
AcDbText
 10
-815.675231934
 20
805.698486328
 30
0.0
 40
30.0
  1
205
 72
        5
 11
-745.184463501
 21
805.698486328
 31
0.0
100
AcDbText
  0
ENDBLK
  5
3B0
100
AcDbEntity
  8
0
100
AcDbBlockEnd
  0
BLOCK
  5
3B3
100
AcDbEntity
  8
0
100
AcDbBlockBegin
  2
*D32
 70
        0
 10
0.0
 20
0.0
 30
0.0
  3
*D32
  1

  0
LINE
  5
3B4
100
AcDbEntity
  8
GEKO
  6
SOLID
 62
        7
100
AcDbLine
 10
-922.149108887
 20
949.383056641
 30
0.0
 11
-1063.903076172
 21
949.383056641
 31
0.0
  0
LINE
  5
3B5
100
AcDbEntity
  8
GEKO
  6
SOLID
 62
        7
100
AcDbLine
 10
-922.149108887
 20
1154.383056641
 30
0.0
 11
-1063.903076172
 21
1154.383056641
 31
0.0
  0
LINE
  5
3B6
100
AcDbEntity
  8
GEKO
  6
SOLID
 62
        7
100
AcDbLine
 10
-1062.903076172
 20
949.383056641
 30
0.0
 11
-1062.903076172
 21
1154.383056641
 31
0.0
  0
LINE
  5
3B7
100
AcDbEntity
  8
GEKO
  6
SOLID
 62
        7
100
AcDbLine
 10
-1067.902587891
 20
979.383056641
 30
0.0
 11
-1062.903076172
 21
949.383056641
 31
0.0
  0
LINE
  5
3B8
100
AcDbEntity
  8
GEKO
  6
SOLID
 62
        7
100
AcDbLine
 10
-1062.903076172
 20
949.383056641
 30
0.0
 11
-1057.903564453
 21
979.383056641
 31
0.0
  0
LINE
  5
3B9
100
AcDbEntity
  8
GEKO
  6
SOLID
 62
        7
100
AcDbLine
 10
-1057.903564453
 20
979.383056641
 30
0.0
 11
-1067.902587891
 21
979.383056641
 31
0.0
  0
LINE
  5
3BA
100
AcDbEntity
  8
GEKO
  6
SOLID
 62
        7
100
AcDbLine
 10
-1062.903076172
 20
1154.383056641
 30
0.0
 11
-1062.903076172
 21
949.383056641
 31
0.0
  0
LINE
  5
3BB
100
AcDbEntity
  8
GEKO
  6
SOLID
 62
        7
100
AcDbLine
 10
-1057.903564453
 20
1124.383056641
 30
0.0
 11
-1062.903076172
 21
1154.383056641
 31
0.0
  0
LINE
  5
3BC
100
AcDbEntity
  8
GEKO
  6
SOLID
 62
        7
100
AcDbLine
 10
-1062.903076172
 20
1154.383056641
 30
0.0
 11
-1067.902587891
 21
1124.383056641
 31
0.0
  0
LINE
  5
3BD
100
AcDbEntity
  8
GEKO
  6
SOLID
 62
        7
100
AcDbLine
 10
-1067.902587891
 20
1124.383056641
 30
0.0
 11
-1057.903564453
 21
1124.383056641
 31
0.0
  0
TEXT
  5
3BE
100
AcDbEntity
  8
GEKO
  6
SOLID
 62
        7
100
AcDbText
 10
-1077.903076172
 20
1016.637695313
 30
0.0
 40
30.0
  1
205
 50
90.000002504
 72
        5
 11
-1077.903079253
 21
1087.128463745
 31
0.0
100
AcDbText
  0
ENDBLK
  5
3BF
100
AcDbEntity
  8
0
100
AcDbBlockEnd
  0
BLOCK
  5
528
100
AcDbEntity
  8
0
100
AcDbBlockBegin
  2
*D33
 70
        0
 10
0.0
 20
0.0
 30
0.0
  3
*D33
  1

  0
LINE
  5
529
100
AcDbEntity
  8
GEKO
  6
SOLID
 62
        7
100
AcDbLine
 10
-971.172485352
 20
1492.286865234
 30
0.0
 11
-971.172485352
 21
548.138305664
 31
0.0
  0
LINE
  5
52A
100
AcDbEntity
  8
GEKO
  6
SOLID
 62
        7
100
AcDbLine
 10
-357.726989746
 20
1505.564941406
 30
0.0
 11
-357.726989746
 21
548.138305664
 31
0.0
  0
LINE
  5
52B
100
AcDbEntity
  8
GEKO
  6
SOLID
 62
        7
100
AcDbLine
 10
-971.172485352
 20
549.138305664
 30
0.0
 11
-357.726989746
 21
549.138305664
 31
0.0
  0
LINE
  5
52C
100
AcDbEntity
  8
GEKO
  6
SOLID
 62
        7
100
AcDbLine
 10
-941.172485352
 20
554.137817383
 30
0.0
 11
-971.172485352
 21
549.138305664
 31
0.0
  0
LINE
  5
52D
100
AcDbEntity
  8
GEKO
  6
SOLID
 62
        7
100
AcDbLine
 10
-971.172485352
 20
549.138305664
 30
0.0
 11
-941.172485352
 21
544.138793945
 31
0.0
  0
LINE
  5
52E
100
AcDbEntity
  8
GEKO
  6
SOLID
 62
        7
100
AcDbLine
 10
-941.172485352
 20
544.138793945
 30
0.0
 11
-941.172485352
 21
554.137817383
 31
0.0
  0
LINE
  5
52F
100
AcDbEntity
  8
GEKO
  6
SOLID
 62
        7
100
AcDbLine
 10
-357.726989746
 20
549.138305664
 30
0.0
 11
-971.172485352
 21
549.138305664
 31
0.0
  0
LINE
  5
530
100
AcDbEntity
  8
GEKO
  6
SOLID
 62
        7
100
AcDbLine
 10
-387.726989746
 20
544.138793945
 30
0.0
 11
-357.726989746
 21
549.138305664
 31
0.0
  0
LINE
  5
531
100
AcDbEntity
  8
GEKO
  6
SOLID
 62
        7
100
AcDbLine
 10
-357.726989746
 20
549.138305664
 30
0.0
 11
-387.726989746
 21
554.137817383
 31
0.0
  0
LINE
  5
532
100
AcDbEntity
  8
GEKO
  6
SOLID
 62
        7
100
AcDbLine
 10
-387.726989746
 20
554.137817383
 30
0.0
 11
-387.726989746
 21
544.138793945
 31
0.0
  0
TEXT
  5
533
100
AcDbEntity
  8
GEKO
  6
SOLID
 62
        7
100
AcDbText
 10
-699.695129395
 20
564.138305664
 30
0.0
 40
30.0
  1
615
 72
        5
 11
-629.204360962
 21
564.138305664
 31
0.0
100
AcDbText
  0
ENDBLK
  5
534
100
AcDbEntity
  8
0
100
AcDbBlockEnd
  0
BLOCK
  5
537
100
AcDbEntity
  8
0
100
AcDbBlockBegin
  2
*D34
 70
        0
 10
0.0
 20
0.0
 30
0.0
  3
*D34
  1

  0
LINE
  5
538
100
AcDbEntity
  8
GEKO
  6
SOLID
 62
        7
100
AcDbLine
 10
-971.172485352
 20
1492.286865234
 30
0.0
 11
-971.172485352
 21
631.633789063
 31
0.0
  0
LINE
  5
539
100
AcDbEntity
  8
GEKO
  6
SOLID
 62
        7
100
AcDbLine
 10
-915.42980957
 20
915.883789063
 30
0.0
 11
-915.42980957
 21
631.633789063
 31
0.0
  0
LINE
  5
53A
100
AcDbEntity
  8
GEKO
  6
SOLID
 62
        7
100
AcDbLine
 10
-971.172485352
 20
632.633789063
 30
0.0
 11
-1016.172485352
 21
632.633789063
 31
0.0
  0
LINE
  5
53B
100
AcDbEntity
  8
GEKO
  6
SOLID
 62
        7
100
AcDbLine
 10
-1016.172485352
 20
632.633789063
 30
0.0
 11
-870.42980957
 21
632.633789063
 31
0.0
  0
LINE
  5
53C
100
AcDbEntity
  8
GEKO
  6
SOLID
 62
        7
100
AcDbLine
 10
-1001.172485352
 20
627.634277344
 30
0.0
 11
-971.172485352
 21
632.633789063
 31
0.0
  0
LINE
  5
53D
100
AcDbEntity
  8
GEKO
  6
SOLID
 62
        7
100
AcDbLine
 10
-971.172485352
 20
632.633789063
 30
0.0
 11
-1001.172485352
 21
637.633300781
 31
0.0
  0
LINE
  5
53E
100
AcDbEntity
  8
GEKO
  6
SOLID
 62
        7
100
AcDbLine
 10
-1001.172485352
 20
637.633300781
 30
0.0
 11
-1001.172485352
 21
627.634277344
 31
0.0
  0
LINE
  5
53F
100
AcDbEntity
  8
GEKO
  6
SOLID
 62
        7
100
AcDbLine
 10
-915.42980957
 20
632.633789063
 30
0.0
 11
-870.42980957
 21
632.633789063
 31
0.0
  0
LINE
  5
540
100
AcDbEntity
  8
GEKO
  6
SOLID
 62
        7
100
AcDbLine
 10
-870.42980957
 20
632.633789063
 30
0.0
 11
-1016.172485352
 21
632.633789063
 31
0.0
  0
LINE
  5
541
100
AcDbEntity
  8
GEKO
  6
SOLID
 62
        7
100
AcDbLine
 10
-885.42980957
 20
637.633300781
 30
0.0
 11
-915.42980957
 21
632.633789063
 31
0.0
  0
LINE
  5
542
100
AcDbEntity
  8
GEKO
  6
SOLID
 62
        7
100
AcDbLine
 10
-915.42980957
 20
632.633789063
 30
0.0
 11
-885.42980957
 21
627.634277344
 31
0.0
  0
LINE
  5
543
100
AcDbEntity
  8
GEKO
  6
SOLID
 62
        7
100
AcDbLine
 10
-885.42980957
 20
627.634277344
 30
0.0
 11
-885.42980957
 21
637.633300781
 31
0.0
  0
TEXT
  5
544
100
AcDbEntity
  8
GEKO
  6
SOLID
 62
        7
100
AcDbText
 10
-965.298095703
 20
647.633789063
 30
0.0
 40
30.0
  1
55
 72
        5
 11
-921.30424881
 21
647.633789063
 31
0.0
100
AcDbText
  0
ENDBLK
  5
545
100
AcDbEntity
  8
0
100
AcDbBlockEnd
  0
BLOCK
  5
57C
100
AcDbEntity
  8
0
100
AcDbBlockBegin
  2
*D35
 70
        0
 10
0.0
 20
0.0
 30
0.0
  3
*D35
  1

  0
LINE
  5
57D
100
AcDbEntity
  8
GEKO
  6
SOLID
 62
        7
100
AcDbLine
 10
-891.92980957
 20
890.884033203
 30
0.0
 11
-891.92980957
 21
837.262451172
 31
0.0
  0
LINE
  5
57E
100
AcDbEntity
  8
GEKO
  6
SOLID
 62
        7
100
AcDbLine
 10
-873.92980957
 20
890.884033203
 30
0.0
 11
-873.92980957
 21
837.262451172
 31
0.0
  0
LINE
  5
57F
100
AcDbEntity
  8
GEKO
  6
SOLID
 62
        7
100
AcDbLine
 10
-891.92980957
 20
838.262451172
 30
0.0
 11
-1017.167724609
 21
838.262451172
 31
0.0
  0
LINE
  5
580
100
AcDbEntity
  8
GEKO
  6
SOLID
 62
        7
100
AcDbLine
 10
-1017.167724609
 20
838.262451172
 30
0.0
 11
-828.92980957
 21
838.262451172
 31
0.0
  0
LINE
  5
581
100
AcDbEntity
  8
GEKO
  6
SOLID
 62
        7
100
AcDbLine
 10
-921.92980957
 20
833.262939453
 30
0.0
 11
-891.92980957
 21
838.262451172
 31
0.0
  0
LINE
  5
582
100
AcDbEntity
  8
GEKO
  6
SOLID
 62
        7
100
AcDbLine
 10
-891.92980957
 20
838.262451172
 30
0.0
 11
-921.92980957
 21
843.261962891
 31
0.0
  0
LINE
  5
583
100
AcDbEntity
  8
GEKO
  6
SOLID
 62
        7
100
AcDbLine
 10
-921.92980957
 20
843.261962891
 30
0.0
 11
-921.92980957
 21
833.262939453
 31
0.0
  0
LINE
  5
584
100
AcDbEntity
  8
GEKO
  6
SOLID
 62
        7
100
AcDbLine
 10
-873.92980957
 20
838.262451172
 30
0.0
 11
-828.92980957
 21
838.262451172
 31
0.0
  0
LINE
  5
585
100
AcDbEntity
  8
GEKO
  6
SOLID
 62
        7
100
AcDbLine
 10
-828.92980957
 20
838.262451172
 30
0.0
 11
-1017.167724609
 21
838.262451172
 31
0.0
  0
LINE
  5
586
100
AcDbEntity
  8
GEKO
  6
SOLID
 62
        7
100
AcDbLine
 10
-843.92980957
 20
843.261962891
 30
0.0
 11
-873.92980957
 21
838.262451172
 31
0.0
  0
LINE
  5
587
100
AcDbEntity
  8
GEKO
  6
SOLID
 62
        7
100
AcDbLine
 10
-873.92980957
 20
838.262451172
 30
0.0
 11
-843.92980957
 21
833.262939453
 31
0.0
  0
LINE
  5
588
100
AcDbEntity
  8
GEKO
  6
SOLID
 62
        7
100
AcDbLine
 10
-843.92980957
 20
833.262939453
 30
0.0
 11
-843.92980957
 21
843.261962891
 31
0.0
  0
TEXT
  5
589
100
AcDbEntity
  8
GEKO
  6
SOLID
 62
        7
100
AcDbText
 10
-1003.917724609
 20
853.262451172
 30
0.0
 40
30.0
  1
M
 72
        5
 11
-983.91926384
 21
853.262451172
 31
0.0
100
AcDbText
  0
TEXT
  5
58A
100
AcDbEntity
  8
GEKO
  6
SOLID
 62
        7
100
AcDbText
 10
-968.417724609
 20
853.262451172
 30
0.0
 40
30.0
  1
16
 72
        5
 11
-921.922340393
 21
853.262451172
 31
0.0
100
AcDbText
  0
ENDBLK
  5
58B
100
AcDbEntity
  8
0
100
AcDbBlockEnd
  0
BLOCK
  5
66F
100
AcDbEntity
  8
0
100
AcDbBlockBegin
  2
*D36
 70
        0
 10
0.0
 20
0.0
 30
0.0
  3
*D36
  1

  0
LINE
  5
670
100
AcDbEntity
  8
GEKO
  6
SOLID
 62
        7
100
AcDbLine
 10
-594.944824219
 20
1595.899414063
 30
0.0
 11
-562.44519043
 21
1595.899414063
 31
0.0
  0
LINE
  5
671
100
AcDbEntity
  8
GEKO
  6
SOLID
 62
        7
100
AcDbLine
 10
-593.287475586
 20
1609.025878906
 30
0.0
 11
-562.44519043
 21
1609.025878906
 31
0.0
  0
LINE
  5
672
100
AcDbEntity
  8
GEKO
  6
SOLID
 62
        7
100
AcDbLine
 10
-563.44519043
 20
1595.899414063
 30
0.0
 11
-563.44519043
 21
1550.899414063
 31
0.0
  0
LINE
  5
673
100
AcDbEntity
  8
GEKO
  6
SOLID
 62
        7
100
AcDbLine
 10
-563.44519043
 20
1550.899414063
 30
0.0
 11
-563.44519043
 21
1715.844116211
 31
0.0
  0
LINE
  5
674
100
AcDbEntity
  8
GEKO
  6
SOLID
 62
        7
100
AcDbLine
 10
-558.445678711
 20
1565.899414063
 30
0.0
 11
-563.44519043
 21
1595.899414063
 31
0.0
  0
LINE
  5
675
100
AcDbEntity
  8
GEKO
  6
SOLID
 62
        7
100
AcDbLine
 10
-563.44519043
 20
1595.899414063
 30
0.0
 11
-568.444702148
 21
1565.899414063
 31
0.0
  0
LINE
  5
676
100
AcDbEntity
  8
GEKO
  6
SOLID
 62
        7
100
AcDbLine
 10
-568.444702148
 20
1565.899414063
 30
0.0
 11
-558.445678711
 21
1565.899414063
 31
0.0
  0
LINE
  5
677
100
AcDbEntity
  8
GEKO
  6
SOLID
 62
        7
100
AcDbLine
 10
-563.44519043
 20
1609.025878906
 30
0.0
 11
-563.44519043
 21
1715.844116211
 31
0.0
  0
LINE
  5
678
100
AcDbEntity
  8
GEKO
  6
SOLID
 62
        7
100
AcDbLine
 10
-563.44519043
 20
1715.844116211
 30
0.0
 11
-563.44519043
 21
1550.899414063
 31
0.0
  0
LINE
  5
679
100
AcDbEntity
  8
GEKO
  6
SOLID
 62
        7
100
AcDbLine
 10
-568.444702148
 20
1639.025878906
 30
0.0
 11
-563.44519043
 21
1609.025878906
 31
0.0
  0
LINE
  5
67A
100
AcDbEntity
  8
GEKO
  6
SOLID
 62
        7
100
AcDbLine
 10
-563.44519043
 20
1609.025878906
 30
0.0
 11
-558.445678711
 21
1639.025878906
 31
0.0
  0
LINE
  5
67B
100
AcDbEntity
  8
GEKO
  6
SOLID
 62
        7
100
AcDbLine
 10
-558.445678711
 20
1639.025878906
 30
0.0
 11
-568.444702148
 21
1639.025878906
 31
0.0
  0
TEXT
  5
67C
100
AcDbEntity
  8
GEKO
  6
SOLID
 62
        7
100
AcDbText
 10
-578.44519043
 20
1658.600219727
 30
0.0
 40
30.0
  1
15
 50
90.000002504
 72
        5
 11
-578.445192353
 21
1702.59406662
 31
0.0
100
AcDbText
  0
ENDBLK
  5
67D
100
AcDbEntity
  8
0
100
AcDbBlockEnd
  0
ENDSEC
  0
SECTION
  2
ENTITIES
  0
INSERT
  5
6D8
100
AcDbEntity
  8
GEKO
100
AcDbBlockReference
  2
0
 10
0.0
 20
0.0
 30
0.0
  0
ENDSEC
  0
SECTION
  2
OBJECTS
  0
DICTIONARY
  5
19
100
AcDbDictionary
280
        0
281
        1
  3
ACAD_GROUP
350
1A
  3
ACAD_MLINESTYLE
350
1B
  3
ACAD_LAYOUT
350
1E
  3
ACAD_PLOTSETTINGS
350
22
  3
ACAD_PLOTSTYLENAME
350
1F
  0
DICTIONARY
  5
1A
102
{ACAD_REACTORS
330
19
102
}
100
AcDbDictionary
280
        0
281
        1
  0
DICTIONARY
  5
1B
102
{ACAD_REACTORS
330
19
102
}
100
AcDbDictionary
280
        0
281
        1
  3
Standard
350
1C
  0
MLINESTYLE
  5
1C
102
{ACAD_REACTORS
330
1B
102
}
100
AcDbMlineStyle
  2
Standard
 70
        0
  3

 62
        0
 51
90.0
 52
90.0
 71
        2
 49
0.5
 62
      256
  6
BYLAYER
 49
-0.5
 62
      256
  6
BYLAYER
  0
ACDBDICTIONARYWDFLT
  5
1F
102
{ACAD_REACTORS
330
19
102
}
100
AcDbDictionary
281
        1
  3
Normal
350
1D
100
AcDbDictionaryWithDefault
340
1D
  0
ACDBPLACEHOLDER
  5
1D
102
{ACAD_REACTORS
330
1F
102
}
  0
LAYOUT
  5
20
102
{ACAD_REACTORS
330
1E
102
}
100
AcDbPlotSettings
  1

  2

  4

  6

 40
0.0
 41
0.0
 42
0.0
 43
0.0
 44
0.0
 45
0.0
 46
0.0
 47
0.0
 48
0.0
 49
0.0
140
0.0
141
0.0
142
1.0
143
1.0
 70
     1024
 72
        0
 73
        0
 74
        0
  7

 75
        0
147
1.0
148
0.0
149
0.0
100
AcDbLayout
  1
Model
 70
        0
 71
        0
 10
0.0
 20
0.0
 11
0.0
 21
0.0
 12
0.0
 22
0.0
 32
0.0
 14
0.0
 24
0.0
 34
0.0
 15
0.0
 25
0.0
 35
0.0
146
0.0
 13
0.0
 23
0.0
 33
0.0
 16
0.0
 26
0.0
 36
0.0
 17
0.0
 27
0.0
 37
0.0
 76
        0
330
A
331
0
345
0
346
0
  0
LAYOUT
  5
21
102
{ACAD_REACTORS
330
1E
102
}
100
AcDbPlotSettings
  1

  2

  4

  6

 40
0.0
 41
0.0
 42
0.0
 43
0.0
 44
0.0
 45
0.0
 46
0.0
 47
0.0
 48
0.0
 49
0.0
140
0.0
141
0.0
142
1.0
143
1.0
 70
        0
 72
        0
 73
        0
 74
        0
  7

 75
        0
147
1.0
148
0.0
149
0.0
100
AcDbLayout
  1
Layout1
 70
        0
 71
        0
 10
0.0
 20
0.0
 11
0.0
 21
0.0
 12
0.0
 22
0.0
 32
0.0
 14
0.0
 24
0.0
 34
0.0
 15
0.0
 25
0.0
 35
0.0
146
0.0
 13
0.0
 23
0.0
 33
0.0
 16
0.0
 26
0.0
 36
0.0
 17
0.0
 27
0.0
 37
0.0
 76
        0
330
B
331
0
345
0
346
0
  0
DICTIONARY
  5
1E
102
{ACAD_REACTORS
330
19
102
}
100
AcDbDictionary
280
        0
281
        1
  3
Layout1
350
21
  3
Model
350
20
  0
DICTIONARY
  5
22
102
{ACAD_REACTORS
330
19
102
}
100
AcDbDictionary
280
        0
281
        1
  0
ENDSEC
  0
EOF
