  0
SECTION
  2
HEADER
  9
$ACADVER
  1
AC1015
  9
$ACADMAINTVER
 70
        6
  9
$DWGCODEPAGE
  3
ANSI_1252
  9
$INSBASE
 10
0.0
 20
0.0
 30
0.0
  9
$EXTMIN
 10
1.000000000E+20
 20
1.000000000E+20
 30
1.000000000E+20
  9
$EXTMAX
 10
-1.000000000E+20
 20
-1.000000000E+20
 30
-1.000000000E+20
  9
$LIMMIN
 10
0.0
 20
0.0
  9
$LIMMAX
 10
0.0
 20
0.0
  9
$ORTHOMODE
 70
        0
  9
$REGENMODE
 70
        1
  9
$FILLMODE
 70
        1
  9
$QTEXTMODE
 70
        0
  9
$MIRRTEXT
 70
        1
  9
$LTSCALE
 40
1.0
  9
$ATTMODE
 70
        1
  9
$TEXTSIZE
 40
0.2
  9
$TRACEWID
 40
0.05
  9
$TEXTSTYLE
  7
Standard
  9
$CLAYER
  8
C80ENC
  9
$CELTYPE
  6
Continuous
  9
$CECOLOR
 62
      256
  9
$CELTSCALE
 40
1.0
  9
$DISPSILH
 70
        0
  9
$DIMSCALE
 40
1.0
  9
$DIMASZ
 40
0.18
  9
$DIMEXO
 40
0.0625
  9
$DIMDLI
 40
0.38
  9
$DIMRND
 40
0.0
  9
$DIMDLE
 40
0.0
  9
$DIMEXE
 40
0.18
  9
$DIMTP
 40
0.0
  9
$DIMTM
 40
0.0
  9
$DIMTXT
 40
0.18
  9
$DIMCEN
 40
0.09
  9
$DIMTSZ
 40
0.0
  9
$DIMTOL
 70
        0
  9
$DIMLIM
 70
        0
  9
$DIMTIH
 70
        1
  9
$DIMTOH
 70
        1
  9
$DIMSE1
 70
        0
  9
$DIMSE2
 70
        0
  9
$DIMTAD
 70
        0
  9
$DIMZIN
 70
        0
  9
$DIMBLK
  1

  9
$DIMASO
 70
        1
  9
$DIMSHO
 70
        1
  9
$DIMPOST
  1

  9
$DIMAPOST
  1

  9
$DIMALT
 70
        0
  9
$DIMALTD
 70
        2
  9
$DIMALTF
 40
25.4
  9
$DIMLFAC
 40
1.0
  9
$DIMTOFL
 70
        0
  9
$DIMTVP
 40
0.0
  9
$DIMTIX
 70
        0
  9
$DIMSOXD
 70
        0
  9
$DIMSAH
 70
        0
  9
$DIMBLK1
  1

  9
$DIMBLK2
  1

  9
$DIMSTYLE
  2
Standard
  9
$DIMCLRD
 70
        0
  9
$DIMCLRE
 70
        0
  9
$DIMCLRT
 70
        0
  9
$DIMTFAC
 40
1.0
  9
$DIMGAP
 40
0.09
  9
$DIMJUST
 70
        0
  9
$DIMSD1
 70
        0
  9
$DIMSD2
 70
        0
  9
$DIMTOLJ
 70
        1
  9
$DIMTZIN
 70
        0
  9
$DIMALTZ
 70
        0
  9
$DIMALTTZ
 70
        0
  9
$DIMUPT
 70
        0
  9
$DIMDEC
 70
        4
  9
$DIMTDEC
 70
        4
  9
$DIMALTU
 70
        2
  9
$DIMALTTD
 70
        2
  9
$DIMTXSTY
  7
Standard
  9
$DIMAUNIT
 70
        0
  9
$DIMADEC
 70
        0
  9
$DIMALTRND
 40
0.0
  9
$DIMAZIN
 70
        0
  9
$DIMDSEP
 70
        0
  9
$DIMATFIT
 70
        3
  9
$DIMFRAC
 70
        0
  9
$DIMLDRBLK
  1

  9
$DIMLUNIT
 70
        2
  9
$DIMLWD
 70
        0
  9
$DIMLWE
 70
        0
  9
$DIMTMOVE
 70
        0
  9
$LUNITS
 70
        2
  9
$LUPREC
 70
        4
  9
$SKETCHINC
 40
0.1
  9
$FILLETRAD
 40
0.0
  9
$AUNITS
 70
        0
  9
$AUPREC
 70
        0
  9
$MENU
  1
acad
  9
$ELEVATION
 40
0.0
  9
$PELEVATION
 40
0.0
  9
$THICKNESS
 40
0.0
  9
$LIMCHECK
 70
        0
  9
$CHAMFERA
 40
0.0
  9
$CHAMFERB
 40
0.0
  9
$CHAMFERC
 40
0.0
  9
$CHAMFERD
 40
0.0
  9
$SKPOLY
 70
        0
  9
$TDCREATE
 40
0.000000000
  9
$TDUCREATE
 40
0.000000000
  9
$TDUPDATE
 40
0.000000000
  9
$TDUUPDATE
 40
0.000000000
  9
$TDINDWG
 40
0.0000000000
  9
$TDUSRTIMER
 40
0.0000000000
  9
$USRTIMER
 70
        1
  9
$ANGBASE
 50
0.0
  9
$ANGDIR
 70
        0
  9
$PDMODE
 70
        2
  9
$PDSIZE
 40
-1.0
  9
$PLINEWID
 40
0.0
  9
$SPLFRAME
 70
        0
  9
$SPLINETYPE
 70
        6
  9
$SPLINESEGS
 70
        8
  9
$HANDSEED
  5
650
  9
$SURFTAB1
 70
        6
  9
$SURFTAB2
 70
        6
  9
$SURFTYPE
 70
        6
  9
$SURFU
 70
        6
  9
$SURFV
 70
        6
  9
$UCSBASE
  2

  9
$UCSNAME
  2

  9
$UCSORG
 10
0.0
 20
0.0
 30
0.0
  9
$UCSXDIR
 10
1.0
 20
0.0
 30
0.0
  9
$UCSYDIR
 10
0.0
 20
1.0
 30
0.0
  9
$UCSORTHOREF
  2

  9
$UCSORTHOVIEW
 70
        0
  9
$UCSORGTOP
 10
0.0
 20
0.0
 30
0.0
  9
$UCSORGBOTTOM
 10
0.0
 20
0.0
 30
0.0
  9
$UCSORGLEFT
 10
0.0
 20
0.0
 30
0.0
  9
$UCSORGRIGHT
 10
0.0
 20
0.0
 30
0.0
  9
$UCSORGFRONT
 10
0.0
 20
0.0
 30
0.0
  9
$UCSORGBACK
 10
0.0
 20
0.0
 30
0.0
  9
$PUCSBASE
  2

  9
$PUCSNAME
  2

  9
$PUCSORG
 10
0.0
 20
0.0
 30
0.0
  9
$PUCSXDIR
 10
1.0
 20
0.0
 30
0.0
  9
$PUCSYDIR
 10
0.0
 20
1.0
 30
0.0
  9
$PUCSORTHOREF
  2

  9
$PUCSORTHOVIEW
 70
        0
  9
$PUCSORGTOP
 10
0.0
 20
0.0
 30
0.0
  9
$PUCSORGBOTTOM
 10
0.0
 20
0.0
 30
0.0
  9
$PUCSORGLEFT
 10
0.0
 20
0.0
 30
0.0
  9
$PUCSORGRIGHT
 10
0.0
 20
0.0
 30
0.0
  9
$PUCSORGFRONT
 10
0.0
 20
0.0
 30
0.0
  9
$PUCSORGBACK
 10
0.0
 20
0.0
 30
0.0
  9
$USERI1
 70
        0
  9
$USERI2
 70
        0
  9
$USERI3
 70
        0
  9
$USERI4
 70
        0
  9
$USERI5
 70
        0
  9
$USERR1
 40
0.0
  9
$USERR2
 40
0.0
  9
$USERR3
 40
0.0
  9
$USERR4
 40
0.0
  9
$USERR5
 40
0.0
  9
$WORLDVIEW
 70
        1
  9
$SHADEDGE
 70
        3
  9
$SHADEDIF
 70
       70
  9
$TILEMODE
 70
        1
  9
$MAXACTVP
 70
       16
  9
$PINSBASE
 10
0.0
 20
0.0
 30
0.0
  9
$PLIMCHECK
 70
        0
  9
$PEXTMIN
 10
1.000000000E+20
 20
1.000000000E+20
 30
1.000000000E+20
  9
$PEXTMAX
 10
-1.000000000E+20
 20
-1.000000000E+20
 30
-1.000000000E+20
  9
$PLIMMIN
 10
0.0
 20
0.0
  9
$PLIMMAX
 10
12.0
 20
9.0
  9
$UNITMODE
 70
        0
  9
$VISRETAIN
 70
        0
  9
$PLINEGEN
 70
        1
  9
$PSLTSCALE
 70
        0
  9
$TREEDEPTH
 70
     3020
  9
$CMLSTYLE
  2
Standard
  9
$CMLJUST
 70
        0
  9
$CMLSCALE
 40
1.0
  9
$PROXYGRAPHICS
 70
        0
  9
$MEASUREMENT
 70
        1
  9
$CELWEIGHT
370
        0
  9
$ENDCAPS
280
        0
  9
$JOINSTYLE
280
        0
  9
$LWDISPLAY
290
        0
  9
$INSUNITS
 70
        0
  9
$HYPERLINKBASE
  1

  9
$XEDIT
290
        1
  9
$CEPSNTYPE
380
        0
  9
$PSTYLEMODE
290
        1
  9
$FINGERPRINTGUID
  2

  9
$VERSIONGUID
  2

  9
$EXTNAMES
290
        1
  9
$PSVPSCALE
 40
0.0
  0
ENDSEC
  0
SECTION
  2
CLASSES
  0
CLASS
  1
LWPOLYLINE
  2
AcDbPolyline
  3
AutoCAD 2000
 90
        0
280
        0
281
        1
  0
CLASS
  1
IMAGE
  2
AcDbRasterImage
  3
ISM
 90
    32895
280
        0
281
        1
  0
CLASS
  1
OLE2FRAME
  2
AcDbOle2Frame
  3
AutoCAD 2000
 90
    32768
280
        0
281
        1
  0
CLASS
  1
HATCH
  2
AcDbHatch
  3
AutoCAD 2000
 90
    32768
280
        0
281
        1
  0
CLASS
  1
DICTIONARYVAR
  2
AcDbDictionaryVar
  3
AutoCAD 2000
 90
    32768
280
        0
281
        0
  0
CLASS
  1
RASTERVARIABLES
  2
AcDbRasterVariables
  3
ISM
 90
    32768
280
        0
281
        0
  0
CLASS
  1
IMAGEDEF
  2
AcDbRasterImageDef
  3
ISM
 90
    32768
280
        0
281
        0
  0
CLASS
  1
IMAGEDEF_REACTOR
  2
AcDbRasterImageDefReactor
  3
ISM
 90
    32769
280
        0
281
        0
  0
CLASS
  1
IDBUFFER
  2
AcDbIdBuffer
  3
AutoCAD 2000
 90
    32768
280
        0
281
        0
  0
CLASS
  1
SPATIAL_FILTER
  2
AcDbSpatialFilter
  3
AutoCAD 2000
 90
    32768
280
        0
281
        0
  0
CLASS
  1
XRECORD
  2
AcDbXrecord
  3
AutoCAD 2000
 90
    32768
280
        0
281
        0
  0
CLASS
  1
SORTENTSTABLE
  2
AcDbSortentsTable
  3
AutoCAD 2000
 90
    32768
280
        0
281
        0
  0
CLASS
  1
LAYER_INDEX
  2
AcDbLayerIndex
  3
AutoCAD 2000
 90
    32768
280
        0
281
        0
  0
CLASS
  1
SPATIAL_INDEX
  2
AcDbSpatialIndex
  3
AutoCAD 2000
 90
    32768
280
        0
281
        0
  0
CLASS
  1
OBJECT_PTR
  2
CAseDLPNTableRecord
  3
"ASE-LPNTableRecord"
 90
    32769
280
        0
281
        0
  0
CLASS
  1
LAYOUT
  2
AcDbLayout
  3
AutoCAD 2000
 90
        0
280
        0
281
        0
  0
CLASS
  1
PLOTSETTINGS
  2
AcDbPlotSettings
  3
AutoCAD 2000
 90
    32768
280
        0
281
        0
  0
CLASS
  1
ACDBDICTIONARYWDFLT
  2
AcDbDictionaryWithDefault
  3
AutoCAD 2000
 90
        0
280
        0
281
        0
  0
CLASS
  1
ACDBPLACEHOLDER
  2
AcDbPlaceHolder
  3
AutoCAD 2000
 90
        0
280
        0
281
        0
  0
ENDSEC
  0
SECTION
  2
TABLES
  0
TABLE
  2
VPORT
  5
7
100
AcDbSymbolTable
 70
        1
  0
VPORT
  5
15
100
AcDbSymbolTableRecord
100
AcDbViewportTableRecord
  2
*ACTIVE
 70
        0
 10
0.0
 20
0.0
 11
1.0
 21
1.0
 12
6.591288
 22
4.579184
 13
0.0
 23
0.0
 14
1.0
 24
1.0
 15
0.0
 25
0.0
 16
0.0
 26
0.0
 36
1.0
 17
0.0
 27
0.0
 37
0.0
 40
9.158369
 41
0.688564
 42
50.0
 43
0.0
 44
0.0
 50
0.0
 51
0.0
 71
        0
 72
      100
 73
        1
 74
        1
 75
        0
 76
        0
 77
        0
 78
        0
281
        0
 65
        0
110
0.0
120
0.0
130
0.0
111
1.0
121
0.0
131
0.0
112
0.0
122
1.0
132
0.0
345
0
346
0
 79
        0
146
0.0
  0
ENDTAB
  0
TABLE
  2
LTYPE
  5
4
100
AcDbSymbolTable
 70
        7
  0
LTYPE
  5
11
100
AcDbSymbolTableRecord
100
AcDbLinetypeTableRecord
  2
ByBlock
 70
       64
  3

 72
       65
 73
        0
 40
0.0
  0
LTYPE
  5
12
100
AcDbSymbolTableRecord
100
AcDbLinetypeTableRecord
  2
ByLayer
 70
       64
  3

 72
       65
 73
        0
 40
0.0
  0
LTYPE
  5
13
100
AcDbSymbolTableRecord
100
AcDbLinetypeTableRecord
  2
Continuous
 70
       64
  3
Solid line
 72
       65
 73
        0
 40
0.0
  0
LTYPE
  5
57
100
AcDbSymbolTableRecord
100
AcDbLinetypeTableRecord
  2
CENTER
 70
       64
  3
Center ____ _ ____ _ ____ _ ____ _ ____ _ ____
 72
       65
 73
        4
 40
8.0
 49
4.5
 74
        0
 49
-1.5
 74
        0
 49
0.5
 74
        0
 49
-1.5
 74
        0
  0
LTYPE
  5
5E
100
AcDbSymbolTableRecord
100
AcDbLinetypeTableRecord
  2
SOLID
 70
       64
  3
Solid line
 72
       65
 73
        0
 40
0.0
  0
LTYPE
  5
8F
100
AcDbSymbolTableRecord
100
AcDbLinetypeTableRecord
  2
DASH
 70
       64
  3
Dash __ __ __ __ __ __ __ __ __ __ __ __ __ _
 72
       65
 73
        2
 40
8.0
 49
4.0
 74
        0
 49
-4.0
 74
        0
  0
LTYPE
  5
120
100
AcDbSymbolTableRecord
100
AcDbLinetypeTableRecord
  2
L_DASH
 70
       64
  3
L_dash ____  ____  ____  ____  ____  ____
 72
       65
 73
        2
 40
8.0
 49
6.0
 74
        0
 49
-2.0
 74
        0
  0
ENDTAB
  0
TABLE
  2
LAYER
  5
2
100
AcDbSymbolTable
 70
       51
  0
LAYER
  5
14
100
AcDbSymbolTableRecord
100
AcDbLayerTableRecord
  2
0
 70
        0
 62
        7
  6
Continuous
290
        1
370
       -3
390
1D
  0
LAYER
  5
23
100
AcDbSymbolTableRecord
100
AcDbLayerTableRecord
  2
C80ENC
 70
        0
 62
        7
  6
Continuous
290
        1
370
       -3
390
1F
  0
LAYER
  5
24
100
AcDbSymbolTableRecord
100
AcDbLayerTableRecord
  2
CATALO
 70
        0
 62
        7
  6
Continuous
290
        1
370
       -3
390
1F
  0
LAYER
  5
25
100
AcDbSymbolTableRecord
100
AcDbLayerTableRecord
  2
3
 70
        0
 62
        7
  6
Continuous
290
        1
370
       -3
390
1F
  0
LAYER
  5
26
100
AcDbSymbolTableRecord
100
AcDbLayerTableRecord
  2
4
 70
        0
 62
        7
  6
Continuous
290
        1
370
       -3
390
1F
  0
LAYER
  5
27
100
AcDbSymbolTableRecord
100
AcDbLayerTableRecord
  2
5
 70
        0
 62
        7
  6
Continuous
290
        1
370
       -3
390
1F
  0
LAYER
  5
28
100
AcDbSymbolTableRecord
100
AcDbLayerTableRecord
  2
6
 70
        0
 62
        7
  6
Continuous
290
        1
370
       -3
390
1F
  0
LAYER
  5
29
100
AcDbSymbolTableRecord
100
AcDbLayerTableRecord
  2
7
 70
        0
 62
        7
  6
Continuous
290
        1
370
       -3
390
1F
  0
LAYER
  5
2A
100
AcDbSymbolTableRecord
100
AcDbLayerTableRecord
  2
8
 70
        0
 62
        7
  6
Continuous
290
        1
370
       -3
390
1F
  0
LAYER
  5
2B
100
AcDbSymbolTableRecord
100
AcDbLayerTableRecord
  2
9
 70
        0
 62
        7
  6
Continuous
290
        1
370
       -3
390
1F
  0
LAYER
  5
2C
100
AcDbSymbolTableRecord
100
AcDbLayerTableRecord
  2
10
 70
        0
 62
        7
  6
Continuous
290
        1
370
       -3
390
1F
  0
LAYER
  5
2D
100
AcDbSymbolTableRecord
100
AcDbLayerTableRecord
  2
11
 70
        0
 62
        7
  6
Continuous
290
        1
370
       -3
390
1F
  0
LAYER
  5
2E
100
AcDbSymbolTableRecord
100
AcDbLayerTableRecord
  2
12
 70
        0
 62
        7
  6
Continuous
290
        1
370
       -3
390
1F
  0
LAYER
  5
2F
100
AcDbSymbolTableRecord
100
AcDbLayerTableRecord
  2
13
 70
        0
 62
        7
  6
Continuous
290
        1
370
       -3
390
1F
  0
LAYER
  5
30
100
AcDbSymbolTableRecord
100
AcDbLayerTableRecord
  2
14
 70
        0
 62
        7
  6
Continuous
290
        1
370
       -3
390
1F
  0
LAYER
  5
31
100
AcDbSymbolTableRecord
100
AcDbLayerTableRecord
  2
15
 70
        0
 62
        7
  6
Continuous
290
        1
370
       -3
390
1F
  0
LAYER
  5
32
100
AcDbSymbolTableRecord
100
AcDbLayerTableRecord
  2
16
 70
        0
 62
        7
  6
Continuous
290
        1
370
       -3
390
1F
  0
LAYER
  5
33
100
AcDbSymbolTableRecord
100
AcDbLayerTableRecord
  2
17
 70
        0
 62
        7
  6
Continuous
290
        1
370
       -3
390
1F
  0
LAYER
  5
34
100
AcDbSymbolTableRecord
100
AcDbLayerTableRecord
  2
18
 70
        0
 62
        7
  6
Continuous
290
        1
370
       -3
390
1F
  0
LAYER
  5
35
100
AcDbSymbolTableRecord
100
AcDbLayerTableRecord
  2
19
 70
        0
 62
        7
  6
Continuous
290
        1
370
       -3
390
1F
  0
LAYER
  5
36
100
AcDbSymbolTableRecord
100
AcDbLayerTableRecord
  2
20
 70
        0
 62
        7
  6
Continuous
290
        1
370
       -3
390
1F
  0
LAYER
  5
37
100
AcDbSymbolTableRecord
100
AcDbLayerTableRecord
  2
21
 70
        0
 62
        7
  6
Continuous
290
        1
370
       -3
390
1F
  0
LAYER
  5
38
100
AcDbSymbolTableRecord
100
AcDbLayerTableRecord
  2
22
 70
        0
 62
        7
  6
Continuous
290
        1
370
       -3
390
1F
  0
LAYER
  5
39
100
AcDbSymbolTableRecord
100
AcDbLayerTableRecord
  2
23
 70
        0
 62
        7
  6
Continuous
290
        1
370
       -3
390
1F
  0
LAYER
  5
3A
100
AcDbSymbolTableRecord
100
AcDbLayerTableRecord
  2
24
 70
        0
 62
        7
  6
Continuous
290
        1
370
       -3
390
1F
  0
LAYER
  5
3B
100
AcDbSymbolTableRecord
100
AcDbLayerTableRecord
  2
25
 70
        0
 62
        7
  6
Continuous
290
        1
370
       -3
390
1F
  0
LAYER
  5
3C
100
AcDbSymbolTableRecord
100
AcDbLayerTableRecord
  2
26
 70
        0
 62
        7
  6
Continuous
290
        1
370
       -3
390
1F
  0
LAYER
  5
3D
100
AcDbSymbolTableRecord
100
AcDbLayerTableRecord
  2
27
 70
        0
 62
        7
  6
Continuous
290
        1
370
       -3
390
1F
  0
LAYER
  5
3E
100
AcDbSymbolTableRecord
100
AcDbLayerTableRecord
  2
28
 70
        0
 62
        7
  6
Continuous
290
        1
370
       -3
390
1F
  0
LAYER
  5
3F
100
AcDbSymbolTableRecord
100
AcDbLayerTableRecord
  2
29
 70
        0
 62
        7
  6
Continuous
290
        1
370
       -3
390
1F
  0
LAYER
  5
40
100
AcDbSymbolTableRecord
100
AcDbLayerTableRecord
  2
30
 70
        0
 62
        7
  6
Continuous
290
        1
370
       -3
390
1F
  0
LAYER
  5
41
100
AcDbSymbolTableRecord
100
AcDbLayerTableRecord
  2
31
 70
        0
 62
        7
  6
Continuous
290
        1
370
       -3
390
1F
  0
LAYER
  5
42
100
AcDbSymbolTableRecord
100
AcDbLayerTableRecord
  2
32
 70
        0
 62
        7
  6
Continuous
290
        1
370
       -3
390
1F
  0
LAYER
  5
43
100
AcDbSymbolTableRecord
100
AcDbLayerTableRecord
  2
33
 70
        0
 62
        7
  6
Continuous
290
        1
370
       -3
390
1F
  0
LAYER
  5
44
100
AcDbSymbolTableRecord
100
AcDbLayerTableRecord
  2
34
 70
        0
 62
        7
  6
Continuous
290
        1
370
       -3
390
1F
  0
LAYER
  5
45
100
AcDbSymbolTableRecord
100
AcDbLayerTableRecord
  2
35
 70
        0
 62
        7
  6
Continuous
290
        1
370
       -3
390
1F
  0
LAYER
  5
46
100
AcDbSymbolTableRecord
100
AcDbLayerTableRecord
  2
36
 70
        0
 62
        7
  6
Continuous
290
        1
370
       -3
390
1F
  0
LAYER
  5
47
100
AcDbSymbolTableRecord
100
AcDbLayerTableRecord
  2
37
 70
        0
 62
        7
  6
Continuous
290
        1
370
       -3
390
1F
  0
LAYER
  5
48
100
AcDbSymbolTableRecord
100
AcDbLayerTableRecord
  2
38
 70
        0
 62
        7
  6
Continuous
290
        1
370
       -3
390
1F
  0
LAYER
  5
49
100
AcDbSymbolTableRecord
100
AcDbLayerTableRecord
  2
39
 70
        0
 62
        7
  6
Continuous
290
        1
370
       -3
390
1F
  0
LAYER
  5
4A
100
AcDbSymbolTableRecord
100
AcDbLayerTableRecord
  2
40
 70
        0
 62
        7
  6
Continuous
290
        1
370
       -3
390
1F
  0
LAYER
  5
4B
100
AcDbSymbolTableRecord
100
AcDbLayerTableRecord
  2
41
 70
        0
 62
        7
  6
Continuous
290
        1
370
       -3
390
1F
  0
LAYER
  5
4C
100
AcDbSymbolTableRecord
100
AcDbLayerTableRecord
  2
42
 70
        0
 62
        7
  6
Continuous
290
        1
370
       -3
390
1F
  0
LAYER
  5
4D
100
AcDbSymbolTableRecord
100
AcDbLayerTableRecord
  2
43
 70
        0
 62
        7
  6
Continuous
290
        1
370
       -3
390
1F
  0
LAYER
  5
4E
100
AcDbSymbolTableRecord
100
AcDbLayerTableRecord
  2
44
 70
        0
 62
        7
  6
Continuous
290
        1
370
       -3
390
1F
  0
LAYER
  5
4F
100
AcDbSymbolTableRecord
100
AcDbLayerTableRecord
  2
45
 70
        0
 62
        7
  6
Continuous
290
        1
370
       -3
390
1F
  0
LAYER
  5
50
100
AcDbSymbolTableRecord
100
AcDbLayerTableRecord
  2
46
 70
        0
 62
        7
  6
Continuous
290
        1
370
       -3
390
1F
  0
LAYER
  5
51
100
AcDbSymbolTableRecord
100
AcDbLayerTableRecord
  2
47
 70
        0
 62
        7
  6
Continuous
290
        1
370
       -3
390
1F
  0
LAYER
  5
52
100
AcDbSymbolTableRecord
100
AcDbLayerTableRecord
  2
48
 70
        0
 62
        7
  6
Continuous
290
        1
370
       -3
390
1F
  0
LAYER
  5
53
100
AcDbSymbolTableRecord
100
AcDbLayerTableRecord
  2
49
 70
        0
 62
        7
  6
Continuous
290
        1
370
       -3
390
1F
  0
LAYER
  5
54
100
AcDbSymbolTableRecord
100
AcDbLayerTableRecord
  2
50
 70
        0
 62
        7
  6
Continuous
290
        1
370
       -3
390
1F
  0
ENDTAB
  0
TABLE
  2
STYLE
  5
3
100
AcDbSymbolTable
 70
        1
  0
STYLE
  5
17
100
AcDbSymbolTableRecord
100
AcDbTextStyleTableRecord
  2
Standard
 70
        0
 40
0.0
 41
1.0
 50
0.0
 71
        0
 42
0.0
  3
txt
  4

  0
ENDTAB
  0
TABLE
  2
VIEW
  5
5
100
AcDbSymbolTable
 70
        0
  0
ENDTAB
  0
TABLE
  2
UCS
  5
6
100
AcDbSymbolTable
 70
        0
  0
ENDTAB
  0
TABLE
  2
APPID
  5
8
100
AcDbSymbolTable
 70
        1
  0
APPID
  5
16
100
AcDbSymbolTableRecord
100
AcDbRegAppTableRecord
  2
ACAD
 70
        0
  0
ENDTAB
  0
TABLE
  2
DIMSTYLE
  5
9
100
AcDbSymbolTable
 70
        1
100
AcDbDimStyleTable
 71
        0
  0
DIMSTYLE
105
18
100
AcDbSymbolTableRecord
100
AcDbDimStyleTableRecord
  2
Standard
 70
        0
  3

  4

 40
1.0
 41
0.18
 42
0.0625
 43
0.38
 44
0.18
 45
0.0
 46
0.0
 47
0.0
 48
0.0
 71
        0
 72
        0
 73
        1
 74
        1
 75
        0
 76
        0
 77
        0
 78
        0
 79
        0
140
0.18
141
0.09
142
0.0
143
25.4
144
1.0
145
0.0
146
1.0
147
0.09
148
0.0
170
        0
171
        2
172
        0
173
        0
174
        0
175
        0
176
        0
177
        0
178
        0
179
        0
271
        4
272
        4
273
        2
274
        2
275
        0
276
        0
277
        2
278
       46
279
        0
280
        0
281
        0
282
        0
283
        1
284
        0
285
        0
286
        0
288
        0
340
17
341
0
342
0
343
0
344
0
371
       -2
372
       -2
  0
ENDTAB
  0
TABLE
  2
BLOCK_RECORD
  5
1
100
AcDbSymbolTable
 70
       41
  0
BLOCK_RECORD
  5
A
100
AcDbSymbolTableRecord
100
AcDbBlockTableRecord
  2
*MODEL_SPACE
340
20
  0
BLOCK_RECORD
  5
B
100
AcDbSymbolTableRecord
100
AcDbBlockTableRecord
  2
*PAPER_SPACE
340
21
  0
BLOCK_RECORD
  5
55
100
AcDbSymbolTableRecord
100
AcDbBlockTableRecord
  2
0
340
0
102
{BLKREFS
331
64F
102
}
  0
BLOCK_RECORD
  5
60
100
AcDbSymbolTableRecord
100
AcDbBlockTableRecord
  2
*H1
340
0
102
{BLKREFS
331
79
102
}
  0
BLOCK_RECORD
  5
AA
100
AcDbSymbolTableRecord
100
AcDbBlockTableRecord
  2
*H2
340
0
102
{BLKREFS
331
B8
102
}
  0
BLOCK_RECORD
  5
B9
100
AcDbSymbolTableRecord
100
AcDbBlockTableRecord
  2
*H3
340
0
102
{BLKREFS
331
C3
102
}
  0
BLOCK_RECORD
  5
D4
100
AcDbSymbolTableRecord
100
AcDbBlockTableRecord
  2
*H4
340
0
102
{BLKREFS
331
E2
102
}
  0
BLOCK_RECORD
  5
E3
100
AcDbSymbolTableRecord
100
AcDbBlockTableRecord
  2
*H5
340
0
102
{BLKREFS
331
ED
102
}
  0
BLOCK_RECORD
  5
FE
100
AcDbSymbolTableRecord
100
AcDbBlockTableRecord
  2
*H6
340
0
102
{BLKREFS
331
10C
102
}
  0
BLOCK_RECORD
  5
10D
100
AcDbSymbolTableRecord
100
AcDbBlockTableRecord
  2
*H7
340
0
102
{BLKREFS
331
117
102
}
  0
BLOCK_RECORD
  5
122
100
AcDbSymbolTableRecord
100
AcDbBlockTableRecord
  2
*H8
340
0
102
{BLKREFS
331
13F
102
}
  0
BLOCK_RECORD
  5
14C
100
AcDbSymbolTableRecord
100
AcDbBlockTableRecord
  2
*H9
340
0
102
{BLKREFS
331
15A
102
}
  0
BLOCK_RECORD
  5
15C
100
AcDbSymbolTableRecord
100
AcDbBlockTableRecord
  2
*H10
340
0
102
{BLKREFS
331
166
102
}
  0
BLOCK_RECORD
  5
168
100
AcDbSymbolTableRecord
100
AcDbBlockTableRecord
  2
*H11
340
0
102
{BLKREFS
331
170
102
}
  0
BLOCK_RECORD
  5
171
100
AcDbSymbolTableRecord
100
AcDbBlockTableRecord
  2
*H12
340
0
102
{BLKREFS
331
182
102
}
  0
BLOCK_RECORD
  5
345
100
AcDbSymbolTableRecord
100
AcDbBlockTableRecord
  2
*H13
340
0
102
{BLKREFS
331
34F
102
}
  0
BLOCK_RECORD
  5
350
100
AcDbSymbolTableRecord
100
AcDbBlockTableRecord
  2
*H14
340
0
102
{BLKREFS
331
35A
102
}
  0
BLOCK_RECORD
  5
35B
100
AcDbSymbolTableRecord
100
AcDbBlockTableRecord
  2
*H15
340
0
102
{BLKREFS
331
365
102
}
  0
BLOCK_RECORD
  5
366
100
AcDbSymbolTableRecord
100
AcDbBlockTableRecord
  2
*H16
340
0
102
{BLKREFS
331
370
102
}
  0
BLOCK_RECORD
  5
371
100
AcDbSymbolTableRecord
100
AcDbBlockTableRecord
  2
*H17
340
0
102
{BLKREFS
331
37E
102
}
  0
BLOCK_RECORD
  5
37F
100
AcDbSymbolTableRecord
100
AcDbBlockTableRecord
  2
*H18
340
0
102
{BLKREFS
331
38B
102
}
  0
BLOCK_RECORD
  5
38C
100
AcDbSymbolTableRecord
100
AcDbBlockTableRecord
  2
*H19
340
0
102
{BLKREFS
331
398
102
}
  0
BLOCK_RECORD
  5
399
100
AcDbSymbolTableRecord
100
AcDbBlockTableRecord
  2
*H20
340
0
102
{BLKREFS
331
3A6
102
}
  0
BLOCK_RECORD
  5
3A7
100
AcDbSymbolTableRecord
100
AcDbBlockTableRecord
  2
*H21
340
0
102
{BLKREFS
331
3B4
102
}
  0
BLOCK_RECORD
  5
3B5
100
AcDbSymbolTableRecord
100
AcDbBlockTableRecord
  2
*H22
340
0
102
{BLKREFS
331
3C1
102
}
  0
BLOCK_RECORD
  5
3C2
100
AcDbSymbolTableRecord
100
AcDbBlockTableRecord
  2
*H23
340
0
102
{BLKREFS
331
3CE
102
}
  0
BLOCK_RECORD
  5
3CF
100
AcDbSymbolTableRecord
100
AcDbBlockTableRecord
  2
*H24
340
0
102
{BLKREFS
331
3DC
102
}
  0
BLOCK_RECORD
  5
3DD
100
AcDbSymbolTableRecord
100
AcDbBlockTableRecord
  2
*H25
340
0
102
{BLKREFS
331
3F5
102
}
  0
BLOCK_RECORD
  5
3F6
100
AcDbSymbolTableRecord
100
AcDbBlockTableRecord
  2
*H26
340
0
102
{BLKREFS
331
40D
102
}
  0
BLOCK_RECORD
  5
40E
100
AcDbSymbolTableRecord
100
AcDbBlockTableRecord
  2
*H27
340
0
102
{BLKREFS
331
426
102
}
  0
BLOCK_RECORD
  5
427
100
AcDbSymbolTableRecord
100
AcDbBlockTableRecord
  2
*H28
340
0
102
{BLKREFS
331
43E
102
}
  0
BLOCK_RECORD
  5
440
100
AcDbSymbolTableRecord
100
AcDbBlockTableRecord
  2
*H29
340
0
102
{BLKREFS
331
445
102
}
  0
BLOCK_RECORD
  5
446
100
AcDbSymbolTableRecord
100
AcDbBlockTableRecord
  2
*H30
340
0
102
{BLKREFS
331
455
102
}
  0
BLOCK_RECORD
  5
456
100
AcDbSymbolTableRecord
100
AcDbBlockTableRecord
  2
*H31
340
0
102
{BLKREFS
331
466
102
}
  0
BLOCK_RECORD
  5
467
100
AcDbSymbolTableRecord
100
AcDbBlockTableRecord
  2
*H32
340
0
102
{BLKREFS
331
47D
102
}
  0
BLOCK_RECORD
  5
47E
100
AcDbSymbolTableRecord
100
AcDbBlockTableRecord
  2
*H33
340
0
102
{BLKREFS
331
486
102
}
  0
BLOCK_RECORD
  5
487
100
AcDbSymbolTableRecord
100
AcDbBlockTableRecord
  2
*H34
340
0
102
{BLKREFS
331
49D
102
}
  0
BLOCK_RECORD
  5
49E
100
AcDbSymbolTableRecord
100
AcDbBlockTableRecord
  2
*H35
340
0
102
{BLKREFS
331
4A6
102
}
  0
BLOCK_RECORD
  5
4C6
100
AcDbSymbolTableRecord
100
AcDbBlockTableRecord
  2
*H36
340
0
102
{BLKREFS
331
50A
102
}
  0
BLOCK_RECORD
  5
50F
100
AcDbSymbolTableRecord
100
AcDbBlockTableRecord
  2
*H37
340
0
102
{BLKREFS
331
553
102
}
  0
BLOCK_RECORD
  5
55C
100
AcDbSymbolTableRecord
100
AcDbBlockTableRecord
  2
*H38
340
0
102
{BLKREFS
331
5B7
102
}
  0
BLOCK_RECORD
  5
5B8
100
AcDbSymbolTableRecord
100
AcDbBlockTableRecord
  2
*H39
340
0
102
{BLKREFS
331
613
102
}
  0
BLOCK_RECORD
  5
626
100
AcDbSymbolTableRecord
100
AcDbBlockTableRecord
  2
*H40
340
0
102
{BLKREFS
331
649
102
}
  0
ENDTAB
  0
ENDSEC
  0
SECTION
  2
BLOCKS
  0
BLOCK
  5
D
100
AcDbEntity
  8
0
100
AcDbBlockBegin
  2
*MODEL_SPACE
 70
        0
 10
0.0
 20
0.0
 30
0.0
  3
*MODEL_SPACE
  1

  0
ENDBLK
  5
E
100
AcDbEntity
  8
0
100
AcDbBlockEnd
  0
BLOCK
  5
F
100
AcDbEntity
 67
        1
  8
0
100
AcDbBlockBegin
  2
*PAPER_SPACE
 70
        0
 10
0.0
 20
0.0
 30
0.0
  3
*PAPER_SPACE
  1

  0
ENDBLK
  5
10
100
AcDbEntity
 67
        1
  8
0
100
AcDbBlockEnd
  0
BLOCK
  5
56
100
AcDbEntity
  8
0
100
AcDbBlockBegin
  2
0
 70
        0
 10
0.0
 20
0.0
 30
0.0
  3
0
  1

  0
LINE
  5
58
100
AcDbEntity
  8
CATALO
  6
CENTER
 62
        7
100
AcDbLine
 10
-77.579250745
 20
-1962.256584293
 30
0.0
 11
-71.300732874
 21
-1963.938908086
 31
0.0
  0
LINE
  5
59
100
AcDbEntity
  8
CATALO
  6
CENTER
 62
        7
100
AcDbLine
 10
-77.579250745
 20
-1962.256584293
 30
0.0
 11
-83.857768615
 21
-1960.5742605
 31
0.0
  0
LINE
  5
5A
100
AcDbEntity
  8
CATALO
  6
CENTER
 62
        7
100
AcDbLine
 10
-59.709623441
 20
-1967.044736874
 30
0.0
 11
-65.988141311
 21
-1965.362413081
 31
0.0
  0
LINE
  5
5B
100
AcDbEntity
  8
CATALO
  6
CENTER
 62
        7
100
AcDbLine
 10
-59.709623441
 20
-1967.044736874
 30
0.0
 11
-53.43110557
 21
-1968.727060668
 31
0.0
  0
LINE
  5
5C
100
AcDbEntity
  8
CATALO
  6
CENTER
 62
        7
100
AcDbLine
 10
-67.919991006
 20
-1964.844775497
 30
0.0
 11
-74.198508877
 21
-1963.162451704
 31
0.0
  0
LINE
  5
5D
100
AcDbEntity
  8
CATALO
  6
CENTER
 62
        7
100
AcDbLine
 10
-67.919991006
 20
-1964.844775497
 30
0.0
 11
-61.641473135
 21
-1966.52709929
 31
0.0
  0
LINE
  5
5F
100
AcDbEntity
  8
CATALO
  6
SOLID
 62
        7
100
AcDbLine
 10
-51.688722483
 20
-1966.088101989
 30
0.0
 11
-39.614622272
 21
-1969.32334739
 31
0.0
  0
INSERT
  5
79
100
AcDbEntity
  8
0
100
AcDbBlockReference
  2
*H1
 10
0.0
 20
0.0
 30
0.0
  0
LINE
  5
7A
100
AcDbEntity
  8
CATALO
  6
SOLID
 62
        7
100
AcDbLine
 10
-18.12498462
 20
-1936.776321496
 30
0.0
 11
-8.305121037
 21
-1939.407547875
 31
0.0
  0
LINE
  5
7B
100
AcDbEntity
  8
CATALO
  6
SOLID
 62
        7
100
AcDbLine
 10
-10.153975614
 20
-1977.217007951
 30
0.0
 11
-19.088253072
 21
-1974.823075521
 31
0.0
  0
LINE
  5
7C
100
AcDbEntity
  8
CATALO
  6
SOLID
 62
        7
100
AcDbLine
 10
-19.088253072
 20
-1974.823075521
 30
0.0
 11
-21.503067637
 21
-1974.176027909
 31
0.0
  0
LINE
  5
7D
100
AcDbEntity
  8
CATALO
  6
SOLID
 62
        7
100
AcDbLine
 10
-39.614549685
 20
-1969.323075834
 30
0.0
 11
-38.837391594
 21
-1966.425485302
 31
0.0
  0
LINE
  5
7E
100
AcDbEntity
  8
CATALO
  6
SOLID
 62
        7
100
AcDbLine
 10
-66.099296854
 20
-1923.921634179
 30
0.0
 11
-75.919925546
 21
-1921.29020279
 31
0.0
  0
LINE
  5
7F
100
AcDbEntity
  8
CATALO
  6
SOLID
 62
        7
100
AcDbLine
 10
-67.387101826
 20
-1976.37860385
 30
0.0
 11
-63.762885583
 21
-1962.852844694
 31
0.0
  0
LINE
  5
80
100
AcDbEntity
  8
CATALO
  6
SOLID
 62
        7
100
AcDbLine
 10
-63.762885583
 20
-1962.852844694
 30
0.0
 11
-62.986354225
 21
-1959.954790213
 31
0.0
  0
LINE
  5
81
100
AcDbEntity
  8
CATALO
  6
SOLID
 62
        7
100
AcDbLine
 10
-71.97316455
 20
-1960.652902073
 30
0.0
 11
-72.231983637
 21
-1961.618828056
 31
0.0
  0
LINE
  5
82
100
AcDbEntity
  8
CATALO
  6
SOLID
 62
        7
100
AcDbLine
 10
-74.523143312
 20
-1965.14601832
 30
0.0
 11
-74.66456447
 21
-1964.901069354
 31
0.0
  0
LINE
  5
83
100
AcDbEntity
  8
CATALO
  6
SOLID
 62
        7
100
AcDbLine
 10
-74.664564469
 20
-1964.901069352
 30
0.0
 11
-73.732815932
 21
-1961.42373647
 31
0.0
  0
LINE
  5
84
100
AcDbEntity
  8
CATALO
  6
SOLID
 62
        7
100
AcDbLine
 10
-73.732815937
 20
-1961.423736519
 30
0.0
 11
-73.487867138
 21
-1961.282315072
 31
0.0
  0
LINE
  5
85
100
AcDbEntity
  8
CATALO
  6
SOLID
 62
        7
100
AcDbLine
 10
-73.487867138
 20
-1961.28231507
 30
0.0
 11
-74.523143318
 21
-1965.146018375
 31
0.0
  0
LINE
  5
86
100
AcDbEntity
  8
CATALO
  6
SOLID
 62
        7
100
AcDbLine
 10
-74.523143125
 20
-1965.146018371
 30
0.0
 11
-65.056980187
 21
-1967.682469085
 31
0.0
  0
LINE
  5
87
100
AcDbEntity
  8
CATALO
  6
SOLID
 62
        7
100
AcDbLine
 10
-66.988921789
 20
-1967.16480691
 30
0.0
 11
-64.539432043
 21
-1965.750593353
 31
0.0
  0
LINE
  5
88
100
AcDbEntity
  8
CATALO
  6
SOLID
 62
        7
100
AcDbLine
 10
-64.539432076
 20
-1965.750593372
 30
0.0
 11
-65.953645633
 21
-1963.301103626
 31
0.0
  0
LINE
  5
89
100
AcDbEntity
  8
CATALO
  6
SOLID
 62
        7
100
AcDbLine
 10
-66.988921789
 20
-1967.16480691
 30
0.0
 11
-66.74397281
 21
-1967.023385552
 31
0.0
  0
LINE
  5
8A
100
AcDbEntity
  8
CATALO
  6
SOLID
 62
        7
100
AcDbLine
 10
-65.812224258
 20
-1963.546052634
 30
0.0
 11
-65.953645616
 21
-1963.301103656
 31
0.0
  0
LINE
  5
8B
100
AcDbEntity
  8
CATALO
  6
SOLID
 62
        7
100
AcDbLine
 10
-64.021704118
 20
-1963.818765823
 30
0.0
 11
-73.487867056
 21
-1961.282315108
 31
0.0
  0
LINE
  5
8C
100
AcDbEntity
  8
CATALO
  6
SOLID
 62
        7
100
AcDbLine
 10
-66.988921789
 20
-1967.16480691
 30
0.0
 11
-65.953645608
 21
-1963.301103605
 31
0.0
  0
LINE
  5
8D
100
AcDbEntity
  8
CATALO
  6
SOLID
 62
        7
100
AcDbLine
 10
-74.664564481
 20
-1964.901069396
 30
0.0
 11
-65.005216374
 21
-1967.48928392
 31
0.0
  0
LINE
  5
8E
100
AcDbEntity
  8
CATALO
  6
SOLID
 62
        7
100
AcDbLine
 10
-64.07346793
 20
-1964.011950988
 30
0.0
 11
-73.732816037
 21
-1961.423736464
 31
0.0
  0
LINE
  5
90
100
AcDbEntity
  8
CATALO
  6
DASH
 62
        7
100
AcDbLine
 10
-74.497548687
 20
-1964.277757972
 30
0.0
 11
-73.424710693
 21
-1964.565224046
 31
0.0
  0
LINE
  5
91
100
AcDbEntity
  8
CATALO
  6
SOLID
 62
        7
100
AcDbLine
 10
-80.199642491
 20
-1944.98973071
 30
0.0
 11
-68.697315183
 21
-1948.071770024
 31
0.0
  0
ARC
  5
92
100
AcDbEntity
  8
CATALO
  6
DASH
 62
        7
100
AcDbCircle
 10
-73.757469346
 20
-1964.177204325
 30
0.0
 40
0.51116439
100
AcDbArc
 50
310.615740879
 51
19.384258881
  0
ARC
  5
93
100
AcDbEntity
  8
CATALO
  6
DASH
 62
        7
100
AcDbCircle
 10
-74.885156571
 20
-1962.978465984
 30
0.0
 40
1.910682919
100
AcDbArc
 50
327.412039935
 51
2.587959825
  0
ARC
  5
94
100
AcDbEntity
  8
CATALO
  6
DASH
 62
        7
100
AcDbCircle
 10
-73.309181615
 20
-1962.504171748
 30
0.0
 40
0.51116439
100
AcDbArc
 50
310.615740879
 51
19.384258881
  0
LINE
  5
95
100
AcDbEntity
  8
CATALO
  6
DASH
 62
        7
100
AcDbLine
 10
-72.826993741
 20
-1962.334513972
 30
0.0
 11
-73.899831735
 21
-1962.047047898
 31
0.0
  0
LINE
  5
96
100
AcDbEntity
  8
CATALO
  6
DASH
 62
        7
100
AcDbLine
 10
-74.049260961
 20
-1962.604725418
 30
0.0
 11
-72.976422968
 21
-1962.892191492
 31
0.0
  0
LINE
  5
97
100
AcDbEntity
  8
CATALO
  6
DASH
 62
        7
100
AcDbLine
 10
-74.348119445
 20
-1963.720080454
 30
0.0
 11
-73.275281452
 21
-1964.007546528
 31
0.0
  0
LINE
  5
98
100
AcDbEntity
  8
CATALO
  6
DASH
 62
        7
100
AcDbLine
 10
-72.826993741
 20
-1962.334513972
 30
0.0
 11
-72.395628615
 21
-1963.645531852
 31
0.0
  0
LINE
  5
99
100
AcDbEntity
  8
CATALO
  6
DASH
 62
        7
100
AcDbLine
 10
-73.424710709
 20
-1964.565224044
 30
0.0
 11
-72.395628607
 21
-1963.645531822
 31
0.0
  0
LINE
  5
9A
100
AcDbEntity
  8
CATALO
  6
SOLID
 62
        7
100
AcDbLine
 10
-51.249167384
 20
-1867.854705719
 30
0.0
 11
-63.323240213
 21
-1864.619467655
 31
0.0
  0
LINE
  5
9B
100
AcDbEntity
  8
CATALO
  6
SOLID
 62
        7
100
AcDbLine
 10
-63.323239704
 20
-1864.61946771
 30
0.0
 11
-61.252687343
 21
-1856.8920611
 31
0.0
  0
LINE
  5
9C
100
AcDbEntity
  8
CATALO
  6
SOLID
 62
        7
100
AcDbLine
 10
-61.252687355
 20
-1856.892061208
 30
0.0
 11
-61.011205899
 21
-1856.956765969
 31
0.0
  0
LINE
  5
9D
100
AcDbEntity
  8
CATALO
  6
SOLID
 62
        7
100
AcDbLine
 10
-61.011205902
 20
-1856.956765969
 30
0.0
 11
-60.493567812
 21
-1855.024914316
 31
0.0
  0
LINE
  5
9E
100
AcDbEntity
  8
CATALO
  6
SOLID
 62
        7
100
AcDbLine
 10
-60.493567815
 20
-1855.024914344
 30
0.0
 11
-48.660976443
 21
-1858.195447646
 31
0.0
  0
LINE
  5
9F
100
AcDbEntity
  8
CATALO
  6
SOLID
 62
        7
100
AcDbLine
 10
-58.561716189
 20
-1855.542552431
 30
0.0
 11
-60.63226855
 21
-1863.269959041
 31
0.0
  0
LINE
  5
A0
100
AcDbEntity
  8
CATALO
  6
SOLID
 62
        7
100
AcDbLine
 10
-60.632268538
 20
-1863.269958933
 30
0.0
 11
-53.387824841
 21
-1865.211101771
 31
0.0
  0
CIRCLE
  5
A1
100
AcDbEntity
  8
CATALO
  6
SOLID
 62
        7
100
AcDbCircle
 10
-51.817508149
 20
-1861.694788859
 30
0.0
 40
1.0
  0
LINE
  5
A2
100
AcDbEntity
  8
CATALO
  6
SOLID
 62
        7
100
AcDbLine
 10
-51.975932089
 20
-1862.682160226
 30
0.0
 11
-52.661010675
 21
-1862.498593972
 31
0.0
  0
LINE
  5
A3
100
AcDbEntity
  8
CATALO
  6
SOLID
 62
        7
100
AcDbLine
 10
-51.531860366
 20
-1860.736454517
 30
0.0
 11
-52.144837078
 21
-1860.572207902
 31
0.0
  0
LINE
  5
A4
100
AcDbEntity
  8
CATALO
  6
SOLID
 62
        7
100
AcDbLine
 10
-52.144837064
 20
-1860.572207851
 30
0.0
 11
-51.964320196
 21
-1859.898509729
 31
0.0
  0
LINE
  5
A5
100
AcDbEntity
  8
CATALO
  6
SOLID
 62
        7
100
AcDbLine
 10
-51.964320203
 20
-1859.89850979
 30
0.0
 11
-50.515431464
 21
-1860.286738358
 31
0.0
  0
LINE
  5
A6
100
AcDbEntity
  8
CATALO
  6
SOLID
 62
        7
100
AcDbLine
 10
-50.515431484
 20
-1860.286738355
 30
0.0
 11
-49.696252772
 21
-1862.059150903
 31
0.0
  0
LINE
  5
A7
100
AcDbEntity
  8
CATALO
  6
SOLID
 62
        7
100
AcDbLine
 10
-51.792189112
 20
-1864.085736845
 30
0.0
 11
-49.696252755
 21
-1862.059150852
 31
0.0
  0
LINE
  5
A8
100
AcDbEntity
  8
CATALO
  6
SOLID
 62
        7
100
AcDbLine
 10
-53.387824943
 20
-1865.21110176
 30
0.0
 11
-52.661010662
 21
-1862.498593935
 31
0.0
  0
LINE
  5
A9
100
AcDbEntity
  8
CATALO
  6
SOLID
 62
        7
100
AcDbLine
 10
-52.698055764
 20
-1867.46647719
 30
0.0
 11
-51.792189106
 21
-1864.085736798
 31
0.0
  0
INSERT
  5
B8
100
AcDbEntity
  8
0
100
AcDbBlockReference
  2
*H2
 10
0.0
 20
0.0
 30
0.0
  0
INSERT
  5
C3
100
AcDbEntity
  8
0
100
AcDbBlockReference
  2
*H3
 10
0.0
 20
0.0
 30
0.0
  0
LINE
  5
C4
100
AcDbEntity
  8
CATALO
  6
SOLID
 62
        7
100
AcDbLine
 10
-2.95287607
 20
-1880.795657974
 30
0.0
 11
9.121196759
 21
-1884.030896038
 31
0.0
  0
LINE
  5
C5
100
AcDbEntity
  8
CATALO
  6
SOLID
 62
        7
100
AcDbLine
 10
9.12119625
 20
-1884.030895983
 30
0.0
 11
11.191748611
 21
-1876.303489372
 31
0.0
  0
LINE
  5
C6
100
AcDbEntity
  8
CATALO
  6
SOLID
 62
        7
100
AcDbLine
 10
11.191748599
 20
-1876.303489481
 30
0.0
 11
10.950267142
 21
-1876.23878472
 31
0.0
  0
LINE
  5
C7
100
AcDbEntity
  8
CATALO
  6
SOLID
 62
        7
100
AcDbLine
 10
10.950267146
 20
-1876.23878472
 30
0.0
 11
11.467905236
 21
-1874.306933067
 31
0.0
  0
LINE
  5
C8
100
AcDbEntity
  8
CATALO
  6
SOLID
 62
        7
100
AcDbLine
 10
11.467905233
 20
-1874.306933095
 30
0.0
 11
-0.364686139
 21
-1871.136399792
 31
0.0
  0
LINE
  5
C9
100
AcDbEntity
  8
CATALO
  6
SOLID
 62
        7
100
AcDbLine
 10
9.536053608
 20
-1873.789295007
 30
0.0
 11
7.465501247
 21
-1881.516701618
 31
0.0
  0
LINE
  5
CA
100
AcDbEntity
  8
CATALO
  6
SOLID
 62
        7
100
AcDbLine
 10
7.465501258
 20
-1881.516701509
 30
0.0
 11
0.221057561
 21
-1879.575558671
 31
0.0
  0
CIRCLE
  5
CB
100
AcDbEntity
  8
CATALO
  6
SOLID
 62
        7
100
AcDbCircle
 10
0.619282203
 20
-1875.745184605
 30
0.0
 40
1.0
  0
LINE
  5
CC
100
AcDbEntity
  8
CATALO
  6
SOLID
 62
        7
100
AcDbLine
 10
0.262793363
 20
-1876.679484641
 30
0.0
 11
0.94787195
 21
-1876.863050895
 31
0.0
  0
LINE
  5
CD
100
AcDbEntity
  8
CATALO
  6
SOLID
 62
        7
100
AcDbLine
 10
0.851068833
 20
-1874.772418211
 30
0.0
 11
1.464045545
 21
-1874.936664826
 31
0.0
  0
LINE
  5
CE
100
AcDbEntity
  8
CATALO
  6
SOLID
 62
        7
100
AcDbLine
 10
1.464045542
 20
-1874.936664773
 30
0.0
 11
1.64456241
 21
-1874.262966651
 31
0.0
  0
LINE
  5
CF
100
AcDbEntity
  8
CATALO
  6
SOLID
 62
        7
100
AcDbLine
 10
1.644562403
 20
-1874.262966712
 30
0.0
 11
0.195673664
 21
-1873.874738144
 31
0.0
  0
LINE
  5
D0
100
AcDbEntity
  8
CATALO
  6
SOLID
 62
        7
100
AcDbLine
 10
0.195673684
 20
-1873.874738146
 30
0.0
 11
-1.399962169
 21
-1875.000103076
 31
0.0
  0
LINE
  5
D1
100
AcDbEntity
  8
CATALO
  6
SOLID
 62
        7
100
AcDbLine
 10
-0.598121037
 20
-1877.803146158
 30
0.0
 11
-1.399962158
 21
-1875.000103023
 31
0.0
  0
LINE
  5
D2
100
AcDbEntity
  8
CATALO
  6
SOLID
 62
        7
100
AcDbLine
 10
0.221057663
 20
-1879.575558682
 30
0.0
 11
0.947871944
 21
-1876.863050856
 31
0.0
  0
LINE
  5
D3
100
AcDbEntity
  8
CATALO
  6
SOLID
 62
        7
100
AcDbLine
 10
-1.50398769
 20
-1881.183886503
 30
0.0
 11
-0.598121032
 21
-1877.803146111
 31
0.0
  0
INSERT
  5
E2
100
AcDbEntity
  8
0
100
AcDbBlockReference
  2
*H4
 10
0.0
 20
0.0
 30
0.0
  0
INSERT
  5
ED
100
AcDbEntity
  8
0
100
AcDbBlockReference
  2
*H5
 10
0.0
 20
0.0
 30
0.0
  0
LINE
  5
EE
100
AcDbEntity
  8
CATALO
  6
SOLID
 62
        7
100
AcDbLine
 10
-53.837357821
 20
-1877.513963846
 30
0.0
 11
-65.911430649
 21
-1874.278725782
 31
0.0
  0
LINE
  5
EF
100
AcDbEntity
  8
CATALO
  6
SOLID
 62
        7
100
AcDbLine
 10
-65.911430141
 20
-1874.278725837
 30
0.0
 11
-63.84087778
 21
-1866.551319227
 31
0.0
  0
LINE
  5
F0
100
AcDbEntity
  8
CATALO
  6
SOLID
 62
        7
100
AcDbLine
 10
-63.840877792
 20
-1866.551319335
 30
0.0
 11
-63.599396335
 21
-1866.616024097
 31
0.0
  0
LINE
  5
F1
100
AcDbEntity
  8
CATALO
  6
SOLID
 62
        7
100
AcDbLine
 10
-63.599396338
 20
-1866.616024096
 30
0.0
 11
-63.081758248
 21
-1864.684172444
 31
0.0
  0
LINE
  5
F2
100
AcDbEntity
  8
CATALO
  6
SOLID
 62
        7
100
AcDbLine
 10
-63.081758251
 20
-1864.684172471
 30
0.0
 11
-51.249166879
 21
-1867.854705773
 31
0.0
  0
LINE
  5
F3
100
AcDbEntity
  8
CATALO
  6
SOLID
 62
        7
100
AcDbLine
 10
-61.149906626
 20
-1865.201810558
 30
0.0
 11
-63.220458986
 21
-1872.929217168
 31
0.0
  0
LINE
  5
F4
100
AcDbEntity
  8
CATALO
  6
SOLID
 62
        7
100
AcDbLine
 10
-63.220458975
 20
-1872.92921706
 30
0.0
 11
-55.976015278
 21
-1874.870359898
 31
0.0
  0
CIRCLE
  5
F5
100
AcDbEntity
  8
CATALO
  6
SOLID
 62
        7
100
AcDbCircle
 10
-54.40569862
 20
-1871.354047117
 30
0.0
 40
1.0
  0
LINE
  5
F6
100
AcDbEntity
  8
CATALO
  6
SOLID
 62
        7
100
AcDbLine
 10
-54.564122525
 20
-1872.341418353
 30
0.0
 11
-55.249201112
 21
-1872.157852099
 31
0.0
  0
LINE
  5
F7
100
AcDbEntity
  8
CATALO
  6
SOLID
 62
        7
100
AcDbLine
 10
-54.120050803
 20
-1870.395712644
 30
0.0
 11
-54.733027515
 21
-1870.231466029
 31
0.0
  0
LINE
  5
F8
100
AcDbEntity
  8
CATALO
  6
SOLID
 62
        7
100
AcDbLine
 10
-54.733027501
 20
-1870.231465979
 30
0.0
 11
-54.552510633
 21
-1869.557767856
 31
0.0
  0
LINE
  5
F9
100
AcDbEntity
  8
CATALO
  6
SOLID
 62
        7
100
AcDbLine
 10
-54.552510639
 20
-1869.557767917
 30
0.0
 11
-53.1036219
 21
-1869.945996485
 31
0.0
  0
LINE
  5
FA
100
AcDbEntity
  8
CATALO
  6
SOLID
 62
        7
100
AcDbLine
 10
-53.10362192
 20
-1869.945996483
 30
0.0
 11
-52.284443209
 21
-1871.71840903
 31
0.0
  0
LINE
  5
FB
100
AcDbEntity
  8
CATALO
  6
SOLID
 62
        7
100
AcDbLine
 10
-54.380379548
 20
-1873.744994973
 30
0.0
 11
-52.284443192
 21
-1871.718408979
 31
0.0
  0
LINE
  5
FC
100
AcDbEntity
  8
CATALO
  6
SOLID
 62
        7
100
AcDbLine
 10
-55.976015379
 20
-1874.870359887
 30
0.0
 11
-55.249201098
 21
-1872.157852062
 31
0.0
  0
LINE
  5
FD
100
AcDbEntity
  8
CATALO
  6
SOLID
 62
        7
100
AcDbLine
 10
-55.286246201
 20
-1877.125735317
 30
0.0
 11
-54.380379543
 21
-1873.744994925
 31
0.0
  0
INSERT
  5
10C
100
AcDbEntity
  8
0
100
AcDbBlockReference
  2
*H6
 10
0.0
 20
0.0
 30
0.0
  0
INSERT
  5
117
100
AcDbEntity
  8
0
100
AcDbBlockReference
  2
*H7
 10
0.0
 20
0.0
 30
0.0
  0
LINE
  5
118
100
AcDbEntity
  8
CATALO
  6
SOLID
 62
        7
100
AcDbLine
 10
-5.541066506
 20
-1890.454916101
 30
0.0
 11
6.533006322
 21
-1893.690154165
 31
0.0
  0
LINE
  5
119
100
AcDbEntity
  8
CATALO
  6
SOLID
 62
        7
100
AcDbLine
 10
6.533005813
 20
-1893.69015411
 30
0.0
 11
8.603558174
 21
-1885.9627475
 31
0.0
  0
LINE
  5
11A
100
AcDbEntity
  8
CATALO
  6
SOLID
 62
        7
100
AcDbLine
 10
8.603558163
 20
-1885.962747608
 30
0.0
 11
8.362076706
 21
-1885.898042847
 31
0.0
  0
LINE
  5
11B
100
AcDbEntity
  8
CATALO
  6
SOLID
 62
        7
100
AcDbLine
 10
-55.424546806
 20
-1947.487437767
 30
0.0
 11
-57.35639846
 21
-1948.005075853
 31
0.0
  0
LINE
  5
11C
100
AcDbEntity
  8
CATALO
  6
SOLID
 62
        7
100
AcDbLine
 10
8.362076709
 20
-1885.898042847
 30
0.0
 11
8.8797148
 21
-1883.966191195
 31
0.0
  0
LINE
  5
11D
100
AcDbEntity
  8
CATALO
  6
SOLID
 62
        7
100
AcDbLine
 10
8.879714797
 20
-1883.966191222
 30
0.0
 11
-2.952876575
 21
-1880.795657919
 31
0.0
  0
LINE
  5
11E
100
AcDbEntity
  8
CATALO
  6
SOLID
 62
        7
100
AcDbLine
 10
6.947863171
 20
-1883.448553134
 30
0.0
 11
4.87731081
 21
-1891.175959745
 31
0.0
  0
LINE
  5
11F
100
AcDbEntity
  8
CATALO
  6
SOLID
 62
        7
100
AcDbLine
 10
-77.859733326
 20
-2002.38185518
 30
0.0
 11
-55.331946255
 21
-2002.381844876
 31
0.0
  0
LINE
  5
121
100
AcDbEntity
  8
CATALO
  6
L_DASH
 62
        7
100
AcDbLine
 10
-55.331946255
 20
-2002.381844876
 30
0.0
 11
-20.002549239
 21
-2002.381828717
 31
0.0
  0
INSERT
  5
13F
100
AcDbEntity
  8
0
100
AcDbBlockReference
  2
*H8
 10
0.0
 20
0.0
 30
0.0
  0
LINE
  5
140
100
AcDbEntity
  8
CATALO
  6
SOLID
 62
        7
100
AcDbLine
 10
-39.163975641
 20
-1942.52696374
 30
0.0
 11
-31.399404288
 21
-1913.549188951
 31
0.0
  0
LINE
  5
141
100
AcDbEntity
  8
CATALO
  6
SOLID
 62
        7
100
AcDbLine
 10
4.877310822
 20
-1891.175959636
 30
0.0
 11
-2.367132875
 21
-1889.234816798
 31
0.0
  0
CIRCLE
  5
142
100
AcDbEntity
  8
CATALO
  6
SOLID
 62
        7
100
AcDbCircle
 10
-1.968908269
 20
-1885.404442863
 30
0.0
 40
1.0
  0
LINE
  5
143
100
AcDbEntity
  8
CATALO
  6
SOLID
 62
        7
100
AcDbLine
 10
-2.325397073
 20
-1886.338742769
 30
0.0
 11
-1.640318487
 21
-1886.522309023
 31
0.0
  0
LINE
  5
144
100
AcDbEntity
  8
CATALO
  6
SOLID
 62
        7
100
AcDbLine
 10
-1.737121604
 20
-1884.431676338
 30
0.0
 11
-1.124144892
 21
-1884.595922953
 31
0.0
  0
LINE
  5
145
100
AcDbEntity
  8
CATALO
  6
SOLID
 62
        7
100
AcDbLine
 10
-1.124144895
 20
-1884.5959229
 30
0.0
 11
-0.943628027
 21
-1883.922224778
 31
0.0
  0
LINE
  5
146
100
AcDbEntity
  8
CATALO
  6
SOLID
 62
        7
100
AcDbLine
 10
-0.943628033
 20
-1883.922224839
 30
0.0
 11
-2.392516773
 21
-1883.533996271
 31
0.0
  0
LINE
  5
147
100
AcDbEntity
  8
CATALO
  6
SOLID
 62
        7
100
AcDbLine
 10
-2.392516752
 20
-1883.533996274
 30
0.0
 11
-3.988152605
 21
-1884.659361203
 31
0.0
  0
LINE
  5
148
100
AcDbEntity
  8
CATALO
  6
SOLID
 62
        7
100
AcDbLine
 10
-3.186311474
 20
-1887.462404285
 30
0.0
 11
-3.988152595
 21
-1884.65936115
 31
0.0
  0
LINE
  5
149
100
AcDbEntity
  8
CATALO
  6
SOLID
 62
        7
100
AcDbLine
 10
-2.367132773
 20
-1889.234816809
 30
0.0
 11
-1.640318492
 21
-1886.522308984
 31
0.0
  0
LINE
  5
14A
100
AcDbEntity
  8
CATALO
  6
SOLID
 62
        7
100
AcDbLine
 10
-4.092178126
 20
-1890.84314463
 30
0.0
 11
-3.186311469
 21
-1887.462404238
 31
0.0
  0
LINE
  5
14B
100
AcDbEntity
  8
CATALO
  6
SOLID
 62
        7
100
AcDbLine
 10
-37.574642366
 20
-1969.869662373
 30
0.0
 11
-33.900406714
 21
-1967.748341441
 31
0.0
  0
INSERT
  5
15A
100
AcDbEntity
  8
0
100
AcDbBlockReference
  2
*H9
 10
0.0
 20
0.0
 30
0.0
  0
LINE
  5
15B
100
AcDbEntity
  8
CATALO
  6
SOLID
 62
        7
100
AcDbLine
 10
-30.975705896
 20
-1966.059764645
 30
0.0
 11
-21.652944793
 21
-1960.677266038
 31
0.0
  0
INSERT
  5
166
100
AcDbEntity
  8
0
100
AcDbBlockReference
  2
*H10
 10
0.0
 20
0.0
 30
0.0
  0
LINE
  5
167
100
AcDbEntity
  8
CATALO
  6
SOLID
 62
        7
100
AcDbLine
 10
-10.408377641
 20
-1947.257009069
 30
0.0
 11
-0.455660904
 21
-1941.51080541
 31
0.0
  0
INSERT
  5
170
100
AcDbEntity
  8
0
100
AcDbBlockReference
  2
*H11
 10
0.0
 20
0.0
 30
0.0
  0
INSERT
  5
182
100
AcDbEntity
  8
0
100
AcDbBlockReference
  2
*H12
 10
0.0
 20
0.0
 30
0.0
  0
LINE
  5
183
100
AcDbEntity
  8
CATALO
  6
SOLID
 62
        7
100
AcDbLine
 10
-22.667753146
 20
-1978.522694073
 30
0.0
 11
-21.503067443
 21
-1974.176027854
 31
0.0
  0
LINE
  5
184
100
AcDbEntity
  8
CATALO
  6
SOLID
 62
        7
100
AcDbLine
 10
-20.252938614
 20
-1979.169741682
 30
0.0
 11
-19.088252911
 21
-1974.823075463
 31
0.0
  0
LINE
  5
185
100
AcDbEntity
  8
CATALO
  6
SOLID
 62
        7
100
AcDbLine
 10
-43.242110782
 20
-1982.848234756
 30
0.0
 11
-39.614549685
 21
-1969.323075834
 31
0.0
  0
LINE
  5
186
100
AcDbEntity
  8
CATALO
  6
SOLID
 62
        7
100
AcDbLine
 10
-50.755084703
 20
-1939.421135401
 30
0.0
 11
-42.99051335
 21
-1910.443360612
 31
0.0
  0
LINE
  5
187
100
AcDbEntity
  8
CATALO
  6
SOLID
 62
        7
100
AcDbLine
 10
-37.715086922
 20
-1942.915192305
 30
0.0
 11
-39.630844874
 21
-1950.064898315
 31
0.0
  0
LINE
  5
188
100
AcDbEntity
  8
CATALO
  6
SOLID
 62
        7
100
AcDbLine
 10
-52.203973422
 20
-1939.032906836
 30
0.0
 11
-54.119732618
 21
-1946.18261749
 31
0.0
  0
LINE
  5
189
100
AcDbEntity
  8
CATALO
  6
SOLID
 62
        7
100
AcDbLine
 10
-42.99051335
 20
-1910.443360612
 30
0.0
 11
-41.696418124
 21
-1905.613731481
 31
0.0
  0
LINE
  5
18A
100
AcDbEntity
  8
CATALO
  6
SOLID
 62
        7
100
AcDbLine
 10
-41.696418176
 20
-1905.613731956
 30
0.0
 11
-35.900863218
 21
-1907.166646226
 31
0.0
  0
LINE
  5
18B
100
AcDbEntity
  8
CATALO
  6
SOLID
 62
        7
100
AcDbLine
 10
-31.399404288
 20
-1913.549188951
 30
0.0
 11
-30.105309063
 21
-1908.719559819
 31
0.0
  0
LINE
  5
18C
100
AcDbEntity
  8
CATALO
  6
SOLID
 62
        7
100
AcDbLine
 10
-38.198049828
 20
-1942.785782783
 30
0.0
 11
-30.433478475
 21
-1913.808007995
 31
0.0
  0
LINE
  5
18D
100
AcDbEntity
  8
CATALO
  6
SOLID
 62
        7
100
AcDbLine
 10
-31.399404346
 20
-1913.549189356
 30
0.0
 11
-37.194959303
 21
-1911.996275086
 31
0.0
  0
LINE
  5
18E
100
AcDbEntity
  8
CATALO
  6
SOLID
 62
        7
100
AcDbLine
 10
-38.198049734
 20
-1942.785782793
 30
0.0
 11
-37.71508682
 21
-1942.915192316
 31
0.0
  0
LINE
  5
18F
100
AcDbEntity
  8
CATALO
  6
SOLID
 62
        7
100
AcDbLine
 10
-51.721010611
 20
-1939.162316347
 30
0.0
 11
-52.203973524
 21
-1939.032906825
 31
0.0
  0
LINE
  5
190
100
AcDbEntity
  8
CATALO
  6
SOLID
 62
        7
100
AcDbLine
 10
-42.99051338
 20
-1910.443361021
 30
0.0
 11
-37.194958423
 21
-1911.996275291
 31
0.0
  0
LINE
  5
191
100
AcDbEntity
  8
CATALO
  6
SOLID
 62
        7
100
AcDbLine
 10
-30.105309114
 20
-1908.719560294
 30
0.0
 11
-35.900864072
 21
-1907.166646024
 31
0.0
  0
LINE
  5
192
100
AcDbEntity
  8
CATALO
  6
SOLID
 62
        7
100
AcDbLine
 10
-30.105309114
 20
-1908.719560294
 30
0.0
 11
-35.004288297
 21
-1903.82058109
 31
0.0
  0
LINE
  5
193
100
AcDbEntity
  8
CATALO
  6
SOLID
 62
        7
100
AcDbLine
 10
-41.696418176
 20
-1905.613731956
 30
0.0
 11
-35.004288141
 21
-1903.820581132
 31
0.0
  0
LINE
  5
194
100
AcDbEntity
  8
CATALO
  6
SOLID
 62
        7
100
AcDbLine
 10
-43.956439207
 20
-1910.184541976
 30
0.0
 11
-51.72101056
 21
-1939.162316764
 31
0.0
  0
LINE
  5
195
100
AcDbEntity
  8
CATALO
  6
SOLID
 62
        7
100
AcDbLine
 10
-56.272030441
 20
-1948.288580808
 30
0.0
 11
-58.862936343
 21
-1947.592254468
 31
0.0
  0
LINE
  5
196
100
AcDbEntity
  8
CATALO
  6
SOLID
 62
        7
100
AcDbLine
 10
-38.823410776
 20
-1952.978034587
 30
0.0
 11
-36.202897978
 21
-1953.682318014
 31
0.0
  0
LINE
  5
197
100
AcDbEntity
  8
CATALO
  6
SOLID
 62
        7
100
AcDbLine
 10
-30.433478519
 20
-1913.808008402
 30
0.0
 11
-31.399404346
 21
-1913.549189356
 31
0.0
  0
LINE
  5
198
100
AcDbEntity
  8
CATALO
  6
SOLID
 62
        7
100
AcDbLine
 10
-43.956439207
 20
-1910.184541976
 30
0.0
 11
-42.99051338
 21
-1910.443361021
 31
0.0
  0
LINE
  5
199
100
AcDbEntity
  8
CATALO
  6
SOLID
 62
        7
100
AcDbLine
 10
-50.272120876
 20
-1939.550545181
 30
0.0
 11
-51.721010611
 21
-1939.162316347
 31
0.0
  0
LINE
  5
19A
100
AcDbEntity
  8
CATALO
  6
SOLID
 62
        7
100
AcDbLine
 10
-39.153250072
 20
-1951.847323151
 30
0.0
 11
-37.739036512
 21
-1953.261536716
 31
0.0
  0
LINE
  5
19B
100
AcDbEntity
  8
CATALO
  6
SOLID
 62
        7
100
AcDbLine
 10
-39.646936787
 20
-1942.397554678
 30
0.0
 11
-38.198049734
 21
-1942.785782793
 31
0.0
  0
LINE
  5
19C
100
AcDbEntity
  8
CATALO
  6
SOLID
 62
        7
100
AcDbLine
 10
-55.424555243
 20
-1947.48744002
 30
0.0
 11
-54.119732578
 21
-1946.182617361
 31
0.0
  0
LINE
  5
19D
100
AcDbEntity
  8
CATALO
  6
SOLID
 62
        7
100
AcDbLine
 10
-27.970845632
 20
-1954.843643942
 30
0.0
 11
-36.970173349
 21
-1952.432281348
 31
0.0
  0
LINE
  5
19E
100
AcDbEntity
  8
CATALO
  6
SOLID
 62
        7
100
AcDbLine
 10
-66.606959761
 20
-1944.491128275
 30
0.0
 11
-57.274084094
 21
-1946.991864774
 31
0.0
  0
LWPOLYLINE
  5
19F
100
AcDbEntity
  8
CATALO
  6
SOLID
 62
        7
100
AcDbPolyline
 90
      126
 70
        0
 10
-57.356397781
 20
-1948.005077962
 10
-57.263090355
 20
-1946.875811499
 10
-57.122474241
 20
-1945.755643182
 10
-56.96928112
 20
-1944.944193681
 10
-56.790197823
 20
-1944.136570448
 10
-56.610148453
 20
-1943.326827429
 10
-56.454057112
 20
-1942.509018572
 10
-56.20290417
 20
-1940.652464122
 10
-56.038616013
 20
-1939.740194793
 10
-55.923946833
 20
-1939.295470649
 10
-55.778890565
 20
-1938.861175823
 10
-55.584610245
 20
-1938.407063871
 10
-55.358294159
 20
-1937.963810648
 10
-54.852241277
 20
-1937.095256384
 10
-54.34610509
 20
-1936.226265026
 10
-54.119684871
 20
-1935.782465435
 10
-53.925258765
 20
-1935.327588569
 10
-53.797255929
 20
-1934.949909758
 10
-53.693484519
 20
-1934.563953648
 10
-53.544087551
 20
-1933.772594411
 10
-53.44797101
 20
-1932.964280619
 10
-53.376038045
 20
-1932.149782037
 10
-53.228302
 20
-1930.546299927
 10
-53.059055193
 20
-1928.95890929
 10
-52.866059306
 20
-1927.385716928
 10
-52.647076024
 20
-1925.824829644
 10
-52.399867029
 20
-1924.274354242
 10
-52.122194004
 20
-1922.732397522
 10
-51.811818631
 20
-1921.197066289
 10
-51.466502595
 20
-1919.666467344
 10
-51.084007577
 20
-1918.13870749
 10
-50.662095262
 20
-1916.611893531
 10
-50.198527331
 20
-1915.084132267
 10
-49.691065468
 20
-1913.553530503
 10
-49.137471357
 20
-1912.01819504
 10
-48.535506679
 20
-1910.476232682
 10
-47.882933118
 20
-1908.92575023
 10
-47.177512357
 20
-1907.364854488
 10
-46.501168729
 20
-1905.968159881
 10
-45.773886047
 20
-1904.593240467
 10
-45.388911748
 20
-1903.923809118
 10
-44.988525709
 20
-1903.271656762
 10
-44.571835605
 20
-1902.640728462
 10
-44.13794911
 20
-1902.034969283
 10
-43.6859739
 20
-1901.458324291
 10
-43.215017648
 20
-1900.914738549
 10
-42.724188029
 20
-1900.408157123
 10
-42.212592719
 20
-1899.942525077
 10
-41.679339391
 20
-1899.521787476
 10
-41.123535719
 20
-1899.149889384
 10
-40.54428938
 20
-1898.830775866
 10
-39.940708047
 20
-1898.568391987
 10
-39.463487163
 20
-1898.408178675
 10
-38.972630266
 20
-1898.281376793
 10
-38.469188478
 20
-1898.186073458
 10
-37.954212925
 20
-1898.120355785
 10
-37.42875473
 20
-1898.082310892
 10
-36.893865016
 20
-1898.070025895
 10
-36.350594909
 20
-1898.08158791
 10
-35.799995531
 20
-1898.115084053
 10
-34.681013462
 20
-1898.240227191
 10
-33.545327801
 20
-1898.43015224
 10
-32.401347539
 20
-1898.669556131
 10
-31.257481667
 20
-1898.943135796
 10
-29.769993446
 20
-1899.345824961
 10
-29.051858382
 20
-1899.577198616
 10
-28.361486032
 20
-1899.838035016
 10
-27.706893907
 20
-1900.135416685
 10
-27.096099519
 20
-1900.476426144
 10
-26.537120379
 20
-1900.868145917
 10
-26.279567
 20
-1901.085235459
 10
-26.037974
 20
-1901.317658525
 10
-25.713073123
 20
-1901.68820159
 10
-25.42353469
 20
-1902.091053303
 10
-25.168045326
 20
-1902.523454551
 10
-24.945291652
 20
-1902.98264622
 10
-24.75396029
 20
-1903.465869198
 10
-24.592737863
 20
-1903.970364371
 10
-24.460310994
 20
-1904.493372625
 10
-24.355366304
 20
-1905.032134848
 10
-24.276590418
 20
-1905.583891925
 10
-24.222669956
 20
-1906.145884745
 10
-24.192291541
 20
-1906.715354193
 10
-24.184141797
 20
-1907.289541156
 10
-24.229274807
 20
-1908.441031176
 10
-24.347561966
 20
-1909.578281896
 10
-24.462631426
 20
-1910.323527225
 10
-24.602515364
 20
-1911.053849604
 10
-24.763837049
 20
-1911.770666576
 10
-24.943219751
 20
-1912.475395685
 10
-25.342661281
 20
-1913.854260481
 10
-25.773826111
 20
-1915.201784335
 10
-26.623270294
 20
-1917.848170581
 10
-26.987521959
 20
-1919.169713659
 10
-27.142711628
 20
-1919.835034086
 10
-27.275441547
 20
-1920.505277161
 10
-27.38621613
 20
-1921.202465655
 10
-27.47206576
 20
-1921.905942919
 10
-27.535516743
 20
-1922.615261268
 10
-27.579095386
 20
-1923.329973019
 10
-27.616740882
 20
-1924.773785988
 10
-27.605212702
 20
-1926.233800354
 10
-27.515477131
 20
-1929.188107383
 10
-27.477690651
 20
-1930.6752371
 10
-27.471572313
 20
-1932.164242322
 10
-27.498103521
 20
-1933.253185836
 10
-27.5559456
 20
-1934.338278003
 10
-27.648605206
 20
-1935.416581789
 10
-27.779588993
 20
-1936.485160158
 10
-27.952403616
 20
-1937.541076073
 10
-28.170555732
 20
-1938.581392498
 10
-28.437551995
 20
-1939.603172398
 10
-28.75689906
 20
-1940.603478736
 10
-29.09467638
 20
-1941.492326967
 10
-29.475732322
 20
-1942.362261752
 10
-29.897181645
 20
-1943.214543987
 10
-30.356139107
 20
-1944.050434568
 10
-30.849719467
 20
-1944.871194393
 10
-31.375037483
 20
-1945.678084357
 10
-31.929207914
 20
-1946.472365358
 10
-32.509345518
 20
-1947.25529829
 10
-33.112565055
 20
-1948.028144052
 10
-33.735981281
 20
-1948.792163538
 10
-35.031862839
 20
-1950.298767272
 10
-36.373908261
 20
-1951.785196664
 10
-37.739035614
 20
-1953.261538884
  0
LINE
  5
1A0
100
AcDbEntity
  8
CATALO
  6
SOLID
 62
        7
100
AcDbLine
 10
-23.113333798
 20
-1932.85147907
 30
0.0
 11
-29.195590634
 21
-1955.550750564
 31
0.0
  0
LINE
  5
1A1
100
AcDbEntity
  8
CATALO
  6
SOLID
 62
        7
100
AcDbLine
 10
-27.970845632
 20
-1954.843643942
 30
0.0
 11
-29.19559066
 21
-1955.550750452
 31
0.0
  0
LINE
  5
1A2
100
AcDbEntity
  8
CATALO
  6
SOLID
 62
        7
100
AcDbLine
 10
-38.854388391
 20
-1952.962681101
 30
0.0
 11
-29.195590101
 21
-1955.550750588
 31
0.0
  0
LINE
  5
1A3
100
AcDbEntity
  8
CATALO
  6
SOLID
 62
        7
100
AcDbLine
 10
70.193470565
 20
-1930.597675268
 30
0.0
 11
70.193470565
 21
-1954.016841072
 31
0.0
  0
LWPOLYLINE
  5
1A4
100
AcDbEntity
  8
CATALO
  6
SOLID
 62
        7
100
AcDbPolyline
 90
       22
 70
        0
 10
99.626808182
 20
-1992.617141094
 10
99.13802451
 20
-1991.840045015
 10
98.617316048
 20
-1991.100699854
 10
98.335013524
 20
-1990.756981029
 10
98.032758006
 20
-1990.436856528
 10
97.706558897
 20
-1990.145045215
 10
97.352425596
 20
-1989.886265956
 10
97.000215841
 20
-1989.679355461
 10
96.628699456
 20
-1989.496052581
 10
95.858670566
 20
-1989.166812898
 10
95.104186461
 20
-1988.831633379
 10
94.752101059
 20
-1988.640905704
 10
94.427094679
 20
-1988.423600497
 10
94.208333407
 20
-1988.241972131
 10
94.007360253
 20
-1988.042488318
 10
93.822989343
 20
-1987.82633942
 10
93.654034801
 20
-1987.594715802
 10
93.357631326
 20
-1987.089805857
 10
93.108662831
 20
-1986.537281386
 10
92.897642321
 20
-1985.946665295
 10
92.7150828
 20
-1985.327480488
 10
92.397398737
 20
-1984.04149635
  0
LINE
  5
1A5
100
AcDbEntity
  8
CATALO
  6
SOLID
 62
        7
100
AcDbLine
 10
-65.701553766
 20
-1941.11027037
 30
0.0
 11
-69.082294158
 21
-1940.204403712
 31
0.0
  0
LINE
  5
1A6
100
AcDbEntity
  8
CATALO
  6
SOLID
 62
        7
100
AcDbLine
 10
-18.598438628
 20
-1950.776807676
 30
0.0
 11
-21.929824999
 21
-1952.009153396
 31
0.0
  0
LINE
  5
1A7
100
AcDbEntity
  8
CATALO
  6
SOLID
 62
        7
100
AcDbLine
 10
-27.064521257
 20
-1951.463032115
 30
0.0
 11
-23.683780865
 21
-1952.368898773
 31
0.0
  0
LINE
  5
1A8
100
AcDbEntity
  8
CATALO
  6
SOLID
 62
        7
100
AcDbLine
 10
-22.059639544
 20
-1952.103075686
 30
0.0
 11
-17.964377976
 21
-1936.819351444
 31
0.0
  0
LINE
  5
1A9
100
AcDbEntity
  8
CATALO
  6
SOLID
 62
        7
100
AcDbLine
 10
-15.19601006
 20
-1938.078771488
 30
0.0
 11
-18.598438658
 21
-1950.776807884
 31
0.0
  0
LINE
  5
1AA
100
AcDbEntity
  8
CATALO
  6
SOLID
 62
        7
100
AcDbLine
 10
-26.60694233
 20
-1945.891621101
 30
0.0
 11
-22.743239025
 21
-1946.926897282
 31
0.0
  0
LINE
  5
1AB
100
AcDbEntity
  8
CATALO
  6
SOLID
 62
        7
100
AcDbLine
 10
-27.642218505
 20
-1949.755324352
 30
0.0
 11
-23.778515199
 21
-1950.790600533
 31
0.0
  0
ARC
  5
1AC
100
AcDbEntity
  8
CATALO
  6
SOLID
 62
        7
100
AcDbCircle
 10
-23.649104479
 20
-1950.307638759
 30
0.0
 40
2.0
100
AcDbArc
 50
179.477512066
 51
254.99999988
  0
ARC
  5
1AD
100
AcDbEntity
  8
CATALO
  6
SOLID
 62
        7
100
AcDbCircle
 10
-23.166141566
 20
-1950.437048283
 30
0.0
 40
2.0
100
AcDbArc
 50
254.99999988
 51
308.181814843
  0
LINE
  5
1AE
100
AcDbEntity
  8
CATALO
  6
SOLID
 62
        7
100
AcDbLine
 10
-22.743239079
 20
-1946.926897276
 30
0.0
 11
-23.77851526
 21
-1950.790600581
 31
0.0
  0
LINE
  5
1AF
100
AcDbEntity
  8
CATALO
  6
SOLID
 62
        7
100
AcDbLine
 10
-25.641016509
 20
-1946.15044007
 30
0.0
 11
-22.794007013
 21
-1935.525255981
 31
0.0
  0
LINE
  5
1B0
100
AcDbEntity
  8
CATALO
  6
SOLID
 62
        7
100
AcDbLine
 10
-22.794007105
 20
-1935.525256198
 30
0.0
 11
-17.964377974
 21
-1936.819351423
 31
0.0
  0
LINE
  5
1B1
100
AcDbEntity
  8
CATALO
  6
SOLID
 62
        7
100
AcDbLine
 10
-18.093787584
 20
-1937.30231432
 30
0.0
 11
-15.196010105
 21
-1938.078771455
 31
0.0
  0
ARC
  5
1B2
100
AcDbEntity
  8
CATALO
  6
SOLID
 62
        7
100
AcDbCircle
 10
-68.564655376
 20
-1938.272553068
 30
0.0
 40
2.0
100
AcDbArc
 50
201.818184917
 51
254.99999988
  0
LINE
  5
1B3
100
AcDbEntity
  8
CATALO
  6
SOLID
 62
        7
100
AcDbLine
 10
-64.278049018
 20
-1935.797678325
 30
0.0
 11
-61.431039522
 21
-1925.172494236
 31
0.0
  0
LINE
  5
1B4
100
AcDbEntity
  8
CATALO
  6
SOLID
 62
        7
100
AcDbLine
 10
-70.35593018
 20
-1939.162123504
 30
0.0
 11
-66.260668612
 21
-1923.878399262
 31
0.0
  0
ARC
  5
1B5
100
AcDbEntity
  8
CATALO
  6
SOLID
 62
        7
100
AcDbCircle
 10
-68.081692463
 20
-1938.401962592
 30
0.0
 40
2.0
100
AcDbArc
 50
254.99999988
 51
330.522487694
  0
LINE
  5
1B6
100
AcDbEntity
  8
CATALO
  6
SOLID
 62
        7
100
AcDbLine
 10
-64.347399388
 20
-1939.920200694
 30
0.0
 11
-68.211102693
 21
-1938.884924514
 31
0.0
  0
LINE
  5
1B7
100
AcDbEntity
  8
CATALO
  6
SOLID
 62
        7
100
AcDbLine
 10
-69.287855573
 20
-1923.584905044
 30
0.0
 11
-72.690284171
 21
-1936.282941441
 31
0.0
  0
LINE
  5
1B8
100
AcDbEntity
  8
CATALO
  6
SOLID
 62
        7
100
AcDbLine
 10
-67.175826464
 20
-1935.021221269
 30
0.0
 11
-68.211102645
 21
-1938.884924574
 31
0.0
  0
LINE
  5
1B9
100
AcDbEntity
  8
CATALO
  6
SOLID
 62
        7
100
AcDbLine
 10
-63.312123213
 20
-1936.056497443
 30
0.0
 11
-67.175826519
 21
-1935.021221263
 31
0.0
  0
LINE
  5
1BA
100
AcDbEntity
  8
CATALO
  6
SOLID
 62
        7
100
AcDbLine
 10
-64.347399388
 20
-1939.920200694
 30
0.0
 11
-63.312123208
 21
-1936.056497389
 31
0.0
  0
LINE
  5
1BB
100
AcDbEntity
  8
CATALO
  6
SOLID
 62
        7
100
AcDbLine
 10
-66.390078043
 20
-1924.361362157
 30
0.0
 11
-69.287855522
 21
-1923.584905022
 31
0.0
  0
LINE
  5
1BC
100
AcDbEntity
  8
CATALO
  6
SOLID
 62
        7
100
AcDbLine
 10
-72.690284154
 20
-1936.282941229
 30
0.0
 11
-70.421391799
 21
-1939.015877124
 31
0.0
  0
LINE
  5
1BD
100
AcDbEntity
  8
CATALO
  6
SOLID
 62
        7
100
AcDbLine
 10
-61.431039478
 20
-1925.172494467
 30
0.0
 11
-66.26066861
 21
-1923.878399242
 31
0.0
  0
LINE
  5
1BE
100
AcDbEntity
  8
CATALO
  6
SOLID
 62
        7
100
AcDbLine
 10
-27.642218505
 20
-1949.755324352
 30
0.0
 11
-26.606942324
 21
-1945.891621047
 31
0.0
  0
ARC
  5
1BF
100
AcDbEntity
  8
CATALO
  6
SOLID
 62
        7
100
AcDbCircle
 10
21.190220727
 20
-1898.874482753
 30
0.0
 40
2.0
100
AcDbArc
 50
345.000012407
 51
60.000012407
  0
LINE
  5
1C0
100
AcDbEntity
  8
CATALO
  6
SOLID
 62
        7
100
AcDbLine
 10
70.14018029
 20
-2007.381787486
 30
0.0
 11
70.14018029
 21
-1986.548637376
 31
0.0
  0
ARC
  5
1C1
100
AcDbEntity
  8
CATALO
  6
SOLID
 62
        7
100
AcDbCircle
 10
60.140182841
 20
-1986.548639196
 30
0.0
 40
10.0
100
AcDbArc
 50
359.99999988
 51
30.0
  0
LINE
  5
1C2
100
AcDbEntity
  8
CATALO
  6
SOLID
 62
        7
100
AcDbLine
 10
57.614061839
 20
-1962.173272043
 30
0.0
 11
68.800435197
 21
-1981.548639053
 31
0.0
  0
ARC
  5
1C3
100
AcDbEntity
  8
CATALO
  6
SOLID
 62
        7
100
AcDbCircle
 10
48.953809482
 20
-1967.173272187
 30
0.0
 40
10.0
100
AcDbArc
 50
30.0
 51
75.000026207
  0
LINE
  5
1C4
100
AcDbEntity
  8
CATALO
  6
SOLID
 62
        7
100
AcDbLine
 10
29.813809194
 20
-1951.691972785
 30
0.0
 11
51.541993932
 21
-1957.514011687
 31
0.0
  0
LINE
  5
1C5
100
AcDbEntity
  8
CATALO
  6
SOLID
 62
        7
100
AcDbLine
 10
-126.839322369
 20
-1897.382668496
 30
0.0
 11
-134.859308038
 21
-1897.382668496
 31
0.0
  0
LINE
  5
1C6
100
AcDbEntity
  8
CATALO
  6
SOLID
 62
        7
100
AcDbLine
 10
28.67043114
 20
-1902.727727086
 30
0.0
 11
22.659678166
 21
-1901.11715068
 31
0.0
  0
LINE
  5
1C7
100
AcDbEntity
  8
CATALO
  6
SOLID
 62
        7
100
AcDbLine
 10
-88.004745306
 20
-1927.369564821
 30
0.0
 11
-87.425590321
 21
-1927.524748931
 31
0.0
  0
ARC
  5
1C8
100
AcDbEntity
  8
CATALO
  6
SOLID
 62
        7
100
AcDbCircle
 10
-126.839320901
 20
-1892.382668673
 30
0.0
 40
5.0
100
AcDbArc
 50
269.99999988
 51
359.99999988
  0
LINE
  5
1C9
100
AcDbEntity
  8
CATALO
  6
SOLID
 62
        7
100
AcDbLine
 10
11.789806923
 20
-1941.686084627
 30
0.0
 11
11.789807081
 21
-1944.791913168
 31
0.0
  0
LINE
  5
1CA
100
AcDbEntity
  8
CATALO
  6
SOLID
 62
        7
100
AcDbLine
 10
-36.780445622
 20
-1844.799798231
 30
0.0
 11
-48.01352187
 21
-1855.780891834
 31
0.0
  0
LINE
  5
1CB
100
AcDbEntity
  8
CATALO
  6
SOLID
 62
        7
100
AcDbLine
 10
-3.955709045
 20
-1853.595152197
 30
0.0
 11
0.281878054
 21
-1868.721599692
 31
0.0
  0
LINE
  5
1CC
100
AcDbEntity
  8
CATALO
  6
SOLID
 62
        7
100
AcDbLine
 10
-48.013521429
 20
-1855.780891764
 30
0.0
 11
-23.865843584
 21
-1862.251235783
 31
0.0
  0
LINE
  5
1CD
100
AcDbEntity
  8
CATALO
  6
SOLID
 62
        7
100
AcDbLine
 10
-54.354545792
 20
-1879.445936196
 30
0.0
 11
-48.013523178
 21
-1855.780897132
 31
0.0
  0
LINE
  5
1CE
100
AcDbEntity
  8
CATALO
  6
SOLID
 62
        7
100
AcDbLine
 10
-59.817605883
 20
-1923.016598924
 30
0.0
 11
-65.899852793
 21
-1945.715873078
 31
0.0
  0
LINE
  5
1CF
100
AcDbEntity
  8
CATALO
  6
SOLID
 62
        7
100
AcDbLine
 10
-65.183458176
 20
-1939.178541325
 30
0.0
 11
-66.606960306
 21
-1944.491128199
 31
0.0
  0
LINE
  5
1D0
100
AcDbEntity
  8
CATALO
  6
SOLID
 62
        7
100
AcDbLine
 10
-49.524918599
 20
-1880.740023875
 30
0.0
 11
-66.606870815
 21
-1944.49079266
 31
0.0
  0
LINE
  5
1D1
100
AcDbEntity
  8
CATALO
  6
SOLID
 62
        7
100
AcDbLine
 10
-118.937794667
 20
-1911.83410703
 30
0.0
 11
-118.42015589
 21
-1909.902255561
 31
0.0
  0
LINE
  5
1D2
100
AcDbEntity
  8
CATALO
  6
SOLID
 62
        7
100
AcDbLine
 10
11.789321308
 20
-1941.685954465
 30
0.0
 11
22.659686288
 21
-1901.117125838
 31
0.0
  0
LINE
  5
1D3
100
AcDbEntity
  8
CATALO
  6
SOLID
 62
        7
100
AcDbLine
 10
25.502291318
 20
-1948.466155143
 30
0.0
 11
34.195087727
 21
-1950.795378659
 31
0.0
  0
LINE
  5
1D4
100
AcDbEntity
  8
CATALO
  6
SOLID
 62
        7
100
AcDbLine
 10
33.528083528
 20
-1906.455134238
 30
0.0
 11
79.09663147
 21
-1985.3821745
 31
0.0
  0
LINE
  5
1D5
100
AcDbEntity
  8
CATALO
  6
SOLID
 62
        7
100
AcDbLine
 10
-83.591091165
 20
-1872.647342843
 30
0.0
 11
-107.401398007
 21
-1866.267390353
 31
0.0
  0
ARC
  5
1D6
100
AcDbEntity
  8
CATALO
  6
SOLID
 62
        7
100
AcDbCircle
 10
26.599882061
 20
-1910.455134334
 30
0.0
 40
8.0
100
AcDbArc
 50
30.0
 51
74.99999988
  0
ARC
  5
1D7
100
AcDbEntity
  8
CATALO
  6
SOLID
 62
        7
100
AcDbCircle
 10
75.140147942
 20
-2002.382128406
 30
0.0
 40
5.0
100
AcDbArc
 50
89.99999988
 51
179.99999988
  0
LINE
  5
1D8
100
AcDbEntity
  8
CATALO
  6
SOLID
 62
        7
100
AcDbLine
 10
0.139646802
 20
-2007.381819436
 30
0.0
 11
70.140182906
 21
-2007.381787418
 31
0.0
  0
LINE
  5
1D9
100
AcDbEntity
  8
CATALO
  6
SOLID
 62
        7
100
AcDbLine
 10
-20.002549239
 20
-2002.381828717
 30
0.0
 11
-4.860355485
 21
-2002.381821791
 31
0.0
  0
ARC
  5
1DA
100
AcDbEntity
  8
CATALO
  6
SOLID
 62
        7
100
AcDbCircle
 10
-4.860353307
 20
-2007.381823632
 30
0.0
 40
5.0
100
AcDbArc
 50
359.99999988
 51
90.000026207
  0
LINE
  5
1DB
100
AcDbEntity
  8
CATALO
  6
CENTER
 62
        7
100
AcDbLine
 10
35.140175676
 20
-1962.382177119
 30
0.0
 11
35.140175676
 21
-2012.38217936
 31
0.0
  0
ARC
  5
1DC
100
AcDbEntity
  8
CATALO
  6
SOLID
 62
        7
100
AcDbCircle
 10
-77.859760878
 20
-1942.381857022
 30
0.0
 40
60.0
100
AcDbArc
 50
198.194898546
 51
270.000026207
  0
LINE
  5
1DD
100
AcDbEntity
  8
CATALO
  6
SOLID
 62
        7
100
AcDbLine
 10
-134.859776556
 20
-1907.567818827
 30
0.0
 11
-134.859781214
 21
-1897.382373789
 31
0.0
  0
LINE
  5
1DE
100
AcDbEntity
  8
CATALO
  6
SOLID
 62
        7
100
AcDbLine
 10
104.717798464
 20
-1997.382173233
 30
0.0
 11
70.140176204
 21
-1997.382173233
 31
0.0
  0
LINE
  5
1DF
100
AcDbEntity
  8
CATALO
  6
SOLID
 62
        7
100
AcDbLine
 10
-121.839320901
 20
-1892.382668683
 30
0.0
 11
-121.786057142
 21
-1732.381586667
 31
0.0
  0
LINE
  5
1E0
100
AcDbEntity
  8
CATALO
  6
SOLID
 62
        7
100
AcDbLine
 10
-134.859335723
 20
-1961.288458998
 30
0.0
 11
-134.859335723
 21
-1897.382666692
 31
0.0
  0
LINE
  5
1E1
100
AcDbEntity
  8
CATALO
  6
SOLID
 62
        7
100
AcDbLine
 10
-126.839351519
 20
-1897.382668496
 30
0.0
 11
-134.859337188
 21
-1897.382668496
 31
0.0
  0
LINE
  5
1E2
100
AcDbEntity
  8
CATALO
  6
SOLID
 62
        7
100
AcDbLine
 10
-115.074185621
 20
-1912.869359482
 30
0.0
 11
-134.859777213
 21
-1907.567818651
 31
0.0
  0
LINE
  5
1E3
100
AcDbEntity
  8
CATALO
  6
SOLID
 62
        7
100
AcDbLine
 10
-113.590633195
 20
-1911.196368083
 30
0.0
 11
-118.42015589
 21
-1909.902255561
 31
0.0
  0
LINE
  5
1E4
100
AcDbEntity
  8
CATALO
  6
SOLID
 62
        7
100
AcDbLine
 10
-94.461966659
 20
-1913.216013494
 30
0.0
 11
-96.014880792
 21
-1915.90573999
 31
0.0
  0
LINE
  5
1E5
100
AcDbEntity
  8
CATALO
  6
SOLID
 62
        7
100
AcDbLine
 10
-94.461481023
 20
-1913.216143578
 30
0.0
 11
-83.591083058
 21
-1872.647323789
 31
0.0
  0
LWPOLYLINE
  5
1E6
100
AcDbEntity
  8
CATALO
  6
SOLID
 62
        7
100
AcDbPolyline
 90
       35
 70
        0
 10
79.096633087
 20
-1985.382175604
 10
80.492282755
 20
-1986.752312835
 10
81.201573423
 20
-1987.417883628
 10
81.924623095
 20
-1988.060057036
 10
82.666018102
 20
-1988.671033929
 10
83.43034478
 20
-1989.243015178
 10
84.222189463
 20
-1989.768201654
 10
85.046138485
 20
-1990.23879423
 10
85.697552109
 20
-1990.55638655
 10
86.368399183
 20
-1990.837619557
 10
87.056820152
 20
-1991.082343007
 10
87.760955461
 20
-1991.290406653
 10
88.478945554
 20
-1991.461660253
 10
89.208930876
 20
-1991.595953562
 10
89.949051872
 20
-1991.693136335
 10
90.697448987
 20
-1991.753058328
 10
91.692212105
 20
-1991.778784528
 10
92.691306603
 20
-1991.76275153
 10
94.675292163
 20
-1991.697957855
 10
95.646584438
 20
-1991.695472133
 10
96.595010518
 20
-1991.743777126
 10
97.058523924
 20
-1991.794206602
 10
97.513771009
 20
-1991.866010311
 10
97.959901848
 20
-1991.962080438
 10
98.396066518
 20
-1992.085309167
 10
98.851190559
 20
-1992.249620148
 10
99.294698719
 20
-1992.446203998
 10
99.727365388
 20
-1992.672909194
 10
100.14996496
 20
-1992.92758421
 10
100.563271826
 20
-1993.208077523
 10
100.968060378
 20
-1993.512237607
 10
101.755180112
 20
-1994.182951991
 10
102.517519296
 20
-1994.922515165
 10
103.26127307
 20
-1995.713714931
 10
104.717804932
 20
-1997.382175451
  0
ARC
  5
1E7
100
AcDbEntity
  8
CATALO
  6
SOLID
 62
        7
100
AcDbCircle
 10
-104.839351003
 20
-1856.60116433
 30
0.0
 40
10.0
100
AcDbArc
 50
179.99999988
 51
255.000026207
  0
LINE
  5
1E8
100
AcDbEntity
  8
CATALO
  6
CENTER
 62
        7
100
AcDbLine
 10
35.140204826
 20
-1962.382177119
 30
0.0
 11
35.140204826
 21
-2012.38217936
 31
0.0
  0
LINE
  5
1E9
100
AcDbEntity
  8
CATALO
  6
SOLID
 62
        7
100
AcDbLine
 10
-58.690503359
 20
-1950.753388122
 30
0.0
 11
-55.424555243
 21
-1947.48744002
 31
0.0
  0
LINE
  5
1EA
100
AcDbEntity
  8
CATALO
  6
SOLID
 62
        7
100
AcDbLine
 10
0.281877707
 20
-1868.72159941
 30
0.0
 11
-23.865798146
 21
-1862.251247958
 31
0.0
  0
LINE
  5
1EB
100
AcDbEntity
  8
CATALO
  6
SOLID
 62
        7
100
AcDbLine
 10
-6.059150354
 20
-1892.386642851
 30
0.0
 11
0.281877384
 21
-1868.721605161
 31
0.0
  0
LINE
  5
1EC
100
AcDbEntity
  8
CATALO
  6
SOLID
 62
        7
100
AcDbLine
 10
-114.839320948
 20
-1837.127420155
 30
0.0
 11
-114.839320948
 21
-1856.577025078
 31
0.0
  0
LINE
  5
1ED
100
AcDbEntity
  8
CATALO
  6
SOLID
 62
        7
100
AcDbLine
 10
-64.497684126
 20
-1876.728066129
 30
0.0
 11
-63.980050572
 21
-1874.796231404
 31
0.0
  0
LINE
  5
1EE
100
AcDbEntity
  8
CATALO
  6
SOLID
 62
        7
100
AcDbLine
 10
4.083910799
 20
-1895.104441224
 30
0.0
 11
4.601543936
 21
-1893.172606386
 31
0.0
  0
LINE
  5
1EF
100
AcDbEntity
  8
CATALO
  6
SOLID
 62
        7
100
AcDbLine
 10
6.533564482
 20
-1893.689921033
 30
0.0
 11
11.192168668
 21
-1876.303743252
 31
0.0
  0
LINE
  5
1F0
100
AcDbEntity
  8
CATALO
  6
SOLID
 62
        7
100
AcDbLine
 10
11.192168929
 20
-1876.303742361
 30
0.0
 11
12.22744369
 21
-1874.510592073
 31
0.0
  0
LINE
  5
1F1
100
AcDbEntity
  8
CATALO
  6
SOLID
 62
        7
100
AcDbLine
 10
4.084001011
 20
-1895.104105682
 30
0.0
 11
4.601634147
 21
-1893.172270844
 31
0.0
  0
LINE
  5
1F2
100
AcDbEntity
  8
CATALO
  6
SOLID
 62
        7
100
AcDbLine
 10
-5.541511287
 20
-1890.454785157
 30
0.0
 11
6.533397167
 21
-1893.690244323
 31
0.0
  0
LINE
  5
1F3
100
AcDbEntity
  8
CATALO
  6
SOLID
 62
        7
100
AcDbLine
 10
-5.541421358
 20
-1890.454449539
 30
0.0
 11
4.601635896
 21
-1893.172271185
 31
0.0
  0
LINE
  5
1F4
100
AcDbEntity
  8
CATALO
  6
SOLID
 62
        7
100
AcDbLine
 10
-58.894453544
 20
-1878.229460016
 30
0.0
 11
-1.518460708
 21
-1893.60332184
 31
0.0
  0
LINE
  5
1F5
100
AcDbEntity
  8
CATALO
  6
SOLID
 62
        7
100
AcDbLine
 10
-64.497594481
 20
-1876.727730436
 30
0.0
 11
-63.979960926
 21
-1874.79589571
 31
0.0
  0
LINE
  5
1F6
100
AcDbEntity
  8
CATALO
  6
SOLID
 62
        7
100
AcDbLine
 10
-65.911813514
 20
-1874.278257318
 30
0.0
 11
-61.253201761
 21
-1856.892081564
 31
0.0
  0
LINE
  5
1F7
100
AcDbEntity
  8
CATALO
  6
SOLID
 62
        7
100
AcDbLine
 10
-30.206849336
 20
-1885.916267452
 30
0.0
 11
12.293414862
 21
-1897.304178922
 31
0.0
  0
ARC
  5
1F8
100
AcDbEntity
  8
CATALO
  6
SOLID
 62
        7
100
AcDbCircle
 10
-81.197129949
 20
-1871.439898587
 30
0.0
 40
2.0
100
AcDbArc
 50
90.000012407
 51
165.000012407
  0
ARC
  5
1F9
100
AcDbEntity
  8
CATALO
  6
SOLID
 62
        7
100
AcDbCircle
 10
-72.966009909
 20
-1875.494270964
 30
0.0
 40
1.0
100
AcDbArc
 50
75.000012407
 51
165.000012407
  0
ARC
  5
1FA
100
AcDbEntity
  8
CATALO
  6
SOLID
 62
        7
100
AcDbCircle
 10
12.034596619
 20
-1898.270105071
 30
0.0
 40
1.0
100
AcDbArc
 50
344.99999988
 51
74.99999988
  0
LINE
  5
1FB
100
AcDbEntity
  8
CATALO
  6
SOLID
 62
        7
100
AcDbLine
 10
-0.085870714
 20
-1941.609863006
 30
0.0
 11
1.450257265
 21
-1942.021467257
 31
0.0
  0
LINE
  5
1FC
100
AcDbEntity
  8
CATALO
  6
SOLID
 62
        7
100
AcDbLine
 10
1.450256316
 20
-1942.021467154
 30
0.0
 11
-0.87911449
 21
-1950.714797351
 31
0.0
  0
LINE
  5
1FD
100
AcDbEntity
  8
CATALO
  6
SOLID
 62
        7
100
AcDbLine
 10
-84.129962549
 20
-1919.090326276
 30
0.0
 11
-85.675377325
 21
-1918.676233993
 31
0.0
  0
LINE
  5
1FE
100
AcDbEntity
  8
CATALO
  6
SOLID
 62
        7
100
AcDbLine
 10
-85.675376415
 20
-1918.676234237
 30
0.0
 11
-88.004745338
 21
-1927.369564938
 31
0.0
  0
LINE
  5
1FF
100
AcDbEntity
  8
CATALO
  6
SOLID
 62
        7
100
AcDbLine
 10
-73.931936209
 20
-1875.235451416
 30
0.0
 11
-85.578783826
 21
-1918.702116121
 31
0.0
  0
LINE
  5
200
100
AcDbEntity
  8
CATALO
  6
SOLID
 62
        7
100
AcDbLine
 10
-87.684409333
 20
-1928.490674618
 30
0.0
 11
-116.17882145
 21
-1920.855626516
 31
0.0
  0
LINE
  5
201
100
AcDbEntity
  8
CATALO
  6
SOLID
 62
        7
100
AcDbLine
 10
-116.88592814
 20
-1919.630882033
 30
0.0
 11
-114.815377522
 21
-1911.903475234
 31
0.0
  0
LINE
  5
202
100
AcDbEntity
  8
CATALO
  6
SOLID
 62
        7
100
AcDbLine
 10
-95.238042212
 20
-1916.113925757
 30
0.0
 11
-113.590633195
 21
-1911.196368083
 31
0.0
  0
LINE
  5
203
100
AcDbEntity
  8
CATALO
  6
SOLID
 62
        7
100
AcDbLine
 10
-91.48516991
 20
-1902.108005081
 30
0.0
 11
-83.128982002
 21
-1870.922260237
 31
0.0
  0
LINE
  5
204
100
AcDbEntity
  8
CATALO
  6
SOLID
 62
        7
100
AcDbLine
 10
-71.981826466
 20
-1867.957534513
 30
0.0
 11
-68.496784786
 21
-1854.95117063
 31
0.0
  0
LINE
  5
205
100
AcDbEntity
  8
CATALO
  6
SOLID
 62
        7
100
AcDbLine
 10
-73.913677817
 20
-1869.439896961
 30
0.0
 11
-81.197131036
 21
-1869.439898539
 31
0.0
  0
ARC
  5
206
100
AcDbEntity
  8
CATALO
  6
SOLID
 62
        7
100
AcDbCircle
 10
-66.564909784
 20
-1855.468811469
 30
0.0
 40
2.0
100
AcDbArc
 50
75.000015202
 51
165.000012407
  0
ARC
  5
207
100
AcDbEntity
  8
CATALO
  6
SOLID
 62
        7
100
AcDbCircle
 10
-73.913654993
 20
-1867.439900008
 30
0.0
 40
2.0
100
AcDbArc
 50
270.000012407
 51
345.000012407
  0
LINE
  5
208
100
AcDbEntity
  8
CATALO
  6
SOLID
 62
        7
100
AcDbLine
 10
-66.047295486
 20
-1853.536957347
 30
0.0
 11
-48.660569884
 21
-1858.195711565
 31
0.0
  0
LINE
  5
209
100
AcDbEntity
  8
CATALO
  6
SOLID
 62
        7
100
AcDbLine
 10
-64.110775478
 20
-1854.055482096
 30
0.0
 11
-48.660479351
 21
-1858.19537369
 31
0.0
  0
LINE
  5
20A
100
AcDbEntity
  8
CATALO
  6
SOLID
 62
        7
100
AcDbLine
 10
-64.110865124
 20
-1854.055817789
 30
0.0
 11
-48.66056928
 21
-1858.195709307
 31
0.0
  0
LINE
  5
20B
100
AcDbEntity
  8
CATALO
  6
SOLID
 62
        7
100
AcDbLine
 10
-65.369685141
 20
-1853.718518392
 30
0.0
 11
-48.660569307
 21
-1858.195709408
 31
0.0
  0
LINE
  5
20C
100
AcDbEntity
  8
CATALO
  6
SOLID
 62
        7
100
AcDbLine
 10
-30.206925897
 20
-1885.916246991
 30
0.0
 11
-72.707192561
 21
-1874.528344725
 31
0.0
  0
LINE
  5
20D
100
AcDbEntity
  8
CATALO
  6
SOLID
 62
        7
100
AcDbLine
 10
-53.836816921
 20
-1877.513742899
 30
0.0
 11
-63.979962632
 21
-1874.795895197
 31
0.0
  0
LINE
  5
20E
100
AcDbEntity
  8
CATALO
  6
SOLID
 62
        7
100
AcDbLine
 10
-53.836906849
 20
-1877.514078517
 30
0.0
 11
-65.911903646
 21
-1874.278592876
 31
0.0
  0
LINE
  5
20F
100
AcDbEntity
  8
CATALO
  6
SOLID
 62
        7
100
AcDbLine
 10
-88.71720105
 20
-1903.367314999
 30
0.0
 11
-91.131619331
 21
-1902.720374131
 31
0.0
  0
LINE
  5
210
100
AcDbEntity
  8
CATALO
  6
SOLID
 62
        7
100
AcDbLine
 10
-89.881885796
 20
-1907.713981411
 30
0.0
 11
-92.296304077
 21
-1907.067040543
 31
0.0
  0
LINE
  5
211
100
AcDbEntity
  8
CATALO
  6
SOLID
 62
        7
100
AcDbLine
 10
-88.717199814
 20
-1903.367314388
 30
0.0
 11
-89.881884576
 21
-1907.713980858
 31
0.0
  0
LINE
  5
212
100
AcDbEntity
  8
CATALO
  6
SOLID
 62
        7
100
AcDbLine
 10
-95.238041811
 20
-1916.113925821
 30
0.0
 11
-92.908672149
 21
-1907.420592366
 31
0.0
  0
LINE
  5
213
100
AcDbEntity
  8
CATALO
  6
SOLID
 62
        7
100
AcDbLine
 10
-91.485171816
 20
-1902.108002057
 30
0.0
 11
-91.131618293
 21
-1902.720374416
 31
0.0
  0
LINE
  5
214
100
AcDbEntity
  8
CATALO
  6
SOLID
 62
        7
100
AcDbLine
 10
-92.296303043
 20
-1907.06704082
 30
0.0
 11
-92.908675402
 21
-1907.420594343
 31
0.0
  0
LINE
  5
215
100
AcDbEntity
  8
CATALO
  6
SOLID
 62
        7
100
AcDbLine
 10
11.73900739
 20
-1930.284462438
 30
0.0
 11
10.574321688
 21
-1934.631128656
 31
0.0
  0
LINE
  5
216
100
AcDbEntity
  8
CATALO
  6
SOLID
 62
        7
100
AcDbLine
 10
14.765797826
 20
-1930.577851357
 30
0.0
 11
14.15342539
 21
-1930.931404746
 31
0.0
  0
LINE
  5
217
100
AcDbEntity
  8
CATALO
  6
SOLID
 62
        7
100
AcDbLine
 10
14.765797847
 20
-1930.57785116
 30
0.0
 11
23.12199183
 21
-1899.39211066
 31
0.0
  0
LINE
  5
218
100
AcDbEntity
  8
CATALO
  6
SOLID
 62
        7
100
AcDbLine
 10
11.739008334
 20
-1930.284463467
 30
0.0
 11
14.153426474
 21
-1930.931404858
 31
0.0
  0
LINE
  5
219
100
AcDbEntity
  8
CATALO
  6
SOLID
 62
        7
100
AcDbLine
 10
12.988739701
 20
-1935.278070898
 30
0.0
 11
13.342293091
 21
-1935.890443335
 31
0.0
  0
LINE
  5
21A
100
AcDbEntity
  8
CATALO
  6
SOLID
 62
        7
100
AcDbLine
 10
10.574322638
 20
-1934.631129624
 30
0.0
 11
12.988740778
 21
-1935.278071015
 31
0.0
  0
LINE
  5
21B
100
AcDbEntity
  8
CATALO
  6
SOLID
 62
        7
100
AcDbLine
 10
11.012922235
 20
-1944.583773621
 30
0.0
 11
13.342293099
 21
-1935.890443205
 31
0.0
  0
LINE
  5
21C
100
AcDbEntity
  8
CATALO
  6
SOLID
 62
        7
100
AcDbLine
 10
-88.004745306
 20
-1927.369564821
 30
0.0
 11
-89.229490025
 21
-1928.076671867
 31
0.0
  0
LINE
  5
21D
100
AcDbEntity
  8
CATALO
  6
SOLID
 62
        7
100
AcDbLine
 10
-0.879114476
 20
-1950.714797229
 30
0.0
 11
-0.172007698
 21
-1951.939542102
 31
0.0
  0
LINE
  5
21E
100
AcDbEntity
  8
CATALO
  6
SOLID
 62
        7
100
AcDbLine
 10
-1.458191782
 20
-1950.559643945
 30
0.0
 11
-0.879115805
 21
-1950.714806886
 31
0.0
  0
ARC
  5
21F
100
AcDbEntity
  8
CATALO
  6
SOLID
 62
        7
100
AcDbCircle
 10
-90.553816395
 20
-1904.428110413
 30
0.0
 40
1.5
100
AcDbArc
 50
75.000012407
 51
164.999979623
  0
LINE
  5
220
100
AcDbEntity
  8
CATALO
  6
SOLID
 62
        7
100
AcDbLine
 10
23.396581679
 20
-1958.25472677
 30
0.0
 11
25.98477206
 21
-1948.595468768
 31
0.0
  0
LINE
  5
221
100
AcDbEntity
  8
CATALO
  6
SOLID
 62
        7
100
AcDbLine
 10
12.771397739
 20
-1955.40771729
 30
0.0
 11
15.35958812
 21
-1945.748459288
 31
0.0
  0
LINE
  5
222
100
AcDbEntity
  8
CATALO
  6
SOLID
 62
        7
100
AcDbLine
 10
-61.253201517
 20
-1856.892080668
 30
0.0
 11
-61.253201517
 21
-1854.821529586
 31
0.0
  0
ARC
  5
223
100
AcDbEntity
  8
CATALO
  6
SOLID
 62
        7
100
AcDbCircle
 10
-90.554316751
 20
-1904.427976343
 30
0.0
 40
1.5
100
AcDbArc
 50
345.000012407
 51
75.000012407
  0
LINE
  5
224
100
AcDbEntity
  8
CATALO
  6
SOLID
 62
        7
100
AcDbLine
 10
-116.885928109
 20
-1919.630881915
 30
0.0
 11
-116.178821062
 21
-1920.855626634
 31
0.0
  0
LINE
  5
225
100
AcDbEntity
  8
CATALO
  6
SOLID
 62
        7
100
AcDbLine
 10
-113.590632817
 20
-1911.196368185
 30
0.0
 11
-114.815377536
 21
-1911.903475231
 31
0.0
  0
LINE
  5
226
100
AcDbEntity
  8
CATALO
  6
SOLID
 62
        7
100
AcDbLine
 10
29.365512144
 20
-1949.501335351
 30
0.0
 11
30.072618923
 21
-1950.726080224
 31
0.0
  0
LINE
  5
227
100
AcDbEntity
  8
CATALO
  6
SOLID
 62
        7
100
AcDbLine
 10
28.002066634
 20
-1958.453486449
 30
0.0
 11
26.777321761
 21
-1959.160593227
 31
0.0
  0
LINE
  5
228
100
AcDbEntity
  8
CATALO
  6
SOLID
 62
        7
100
AcDbLine
 10
13.000520763
 20
-1898.528923067
 30
0.0
 11
1.353663733
 21
-1941.99558525
 31
0.0
  0
LINE
  5
229
100
AcDbEntity
  8
CATALO
  6
SOLID
 62
        7
100
AcDbLine
 10
22.91409264
 20
-1958.125444027
 30
0.0
 11
26.777322171
 21
-1959.16059326
 31
0.0
  0
LINE
  5
22A
100
AcDbEntity
  8
CATALO
  6
SOLID
 62
        7
100
AcDbLine
 10
28.002066621
 20
-1958.453486571
 30
0.0
 11
30.072618912
 21
-1950.726080221
 31
0.0
  0
LINE
  5
22B
100
AcDbEntity
  8
CATALO
  6
SOLID
 62
        7
100
AcDbLine
 10
25.502283007
 20
-1948.46618616
 30
0.0
 11
29.365512538
 21
-1949.501335393
 31
0.0
  0
LINE
  5
22C
100
AcDbEntity
  8
CATALO
  6
SOLID
 62
        7
100
AcDbLine
 10
14.953098905
 20
-1891.24180458
 30
0.0
 11
18.435677654
 21
-1878.244643746
 31
0.0
  0
LINE
  5
22D
100
AcDbEntity
  8
CATALO
  6
SOLID
 62
        7
100
AcDbLine
 10
15.882484771
 20
-1893.50069589
 30
0.0
 11
22.180484278
 21
-1897.136847619
 31
0.0
  0
ARC
  5
22E
100
AcDbEntity
  8
CATALO
  6
SOLID
 62
        7
100
AcDbCircle
 10
16.50380664
 20
-1877.726997404
 30
0.0
 40
2.0
100
AcDbArc
 50
344.99999988
 51
74.999997085
  0
ARC
  5
22F
100
AcDbEntity
  8
CATALO
  6
SOLID
 62
        7
100
AcDbCircle
 10
16.882465419
 20
-1891.768636714
 30
0.0
 40
2.0
100
AcDbArc
 50
164.99999988
 51
239.99999988
  0
LINE
  5
230
100
AcDbEntity
  8
CATALO
  6
SOLID
 62
        7
100
AcDbLine
 10
16.343855513
 20
-1875.61358623
 30
0.0
 11
-0.365170698
 21
-1871.136416913
 31
0.0
  0
LINE
  5
231
100
AcDbEntity
  8
CATALO
  6
SOLID
 62
        7
100
AcDbLine
 10
15.085035628
 20
-1875.276286338
 30
0.0
 11
-0.365170671
 21
-1871.136416812
 31
0.0
  0
LINE
  5
232
100
AcDbEntity
  8
CATALO
  6
SOLID
 62
        7
100
AcDbLine
 10
15.08512584
 20
-1875.275950796
 30
0.0
 11
-0.365080743
 21
-1871.136081195
 31
0.0
  0
LINE
  5
233
100
AcDbEntity
  8
CATALO
  6
SOLID
 62
        7
100
AcDbLine
 10
17.021463847
 20
-1875.79515478
 30
0.0
 11
-0.365171276
 21
-1871.13641907
 31
0.0
  0
LINE
  5
234
100
AcDbEntity
  8
CATALO
  6
SOLID
 62
        7
100
AcDbLine
 10
-10.888776569
 20
-1891.092547018
 30
0.0
 11
-27.970741459
 21
-1954.843307879
 31
0.0
  0
LINE
  5
235
100
AcDbEntity
  8
CATALO
  6
SOLID
 62
        7
100
AcDbLine
 10
-37.957825233
 20
-1956.308692529
 30
0.0
 11
-39.153243892
 21
-1951.847329319
 31
0.0
  0
LINE
  5
236
100
AcDbEntity
  8
CATALO
  6
SOLID
 62
        7
100
AcDbLine
 10
5.128657725
 20
-1977.171224428
 30
0.0
 11
5.38747677
 21
-1976.205298602
 31
0.0
  0
LINE
  5
237
100
AcDbEntity
  8
CATALO
  6
SOLID
 62
        7
100
AcDbLine
 10
26.967264501
 20
-1962.317338633
 30
0.0
 11
26.260157723
 21
-1961.09259376
 31
0.0
  0
LINE
  5
238
100
AcDbEntity
  8
CATALO
  6
SOLID
 62
        7
100
AcDbLine
 10
32.26625856
 20
-1921.29083303
 30
0.0
 11
28.592029393
 21
-1917.616603847
 31
0.0
  0
LINE
  5
239
100
AcDbEntity
  8
CATALO
  6
SOLID
 62
        7
100
AcDbLine
 10
21.795874316
 20
-1923.661682806
 30
0.0
 11
31.455132579
 21
-1926.249873257
 31
0.0
  0
LINE
  5
23A
100
AcDbEntity
  8
CATALO
  6
SOLID
 62
        7
100
AcDbLine
 10
27.919599105
 20
-1920.126149087
 30
0.0
 11
32.266258889
 21
-1921.290833065
 31
0.0
  0
LINE
  5
23B
100
AcDbEntity
  8
CATALO
  6
SOLID
 62
        7
100
AcDbLine
 10
20.113539478
 20
-1929.940240928
 30
0.0
 11
21.795874146
 21
-1923.661682472
 31
0.0
  0
LINE
  5
23C
100
AcDbEntity
  8
CATALO
  6
SOLID
 62
        7
100
AcDbLine
 10
29.772797605
 20
-1932.528431364
 30
0.0
 11
31.455132273
 21
-1926.249872909
 31
0.0
  0
LINE
  5
23D
100
AcDbEntity
  8
CATALO
  6
SOLID
 62
        7
100
AcDbLine
 10
20.725918786
 20
-1929.586689379
 30
0.0
 11
23.572939156
 21
-1918.961464706
 31
0.0
  0
LINE
  5
23E
100
AcDbEntity
  8
CATALO
  6
SOLID
 62
        7
100
AcDbLine
 10
29.419238231
 20
-1931.916057324
 30
0.0
 11
32.266258602
 21
-1921.29083265
 31
0.0
  0
LINE
  5
23F
100
AcDbEntity
  8
CATALO
  6
SOLID
 62
        7
100
AcDbLine
 10
27.919598571
 20
-1920.126149029
 30
0.0
 11
23.572938787
 21
-1918.96146505
 31
0.0
  0
LINE
  5
240
100
AcDbEntity
  8
CATALO
  6
SOLID
 62
        7
100
AcDbLine
 10
-17.923567375
 20
-1970.476409364
 30
0.0
 11
-20.338381941
 21
-1969.829361751
 31
0.0
  0
LINE
  5
241
100
AcDbEntity
  8
CATALO
  6
SOLID
 62
        7
100
AcDbLine
 10
-20.338381755
 20
-1969.829361772
 30
0.0
 11
-18.944187914
 21
-1969.455788661
 31
0.0
  0
LINE
  5
242
100
AcDbEntity
  8
CATALO
  6
SOLID
 62
        7
100
AcDbLine
 10
19.134582009
 20
-1980.924100561
 30
0.0
 11
19.393401054
 21
-1979.958174734
 31
0.0
  0
LINE
  5
243
100
AcDbEntity
  8
CATALO
  6
SOLID
 62
        7
100
AcDbLine
 10
17.703037315
 20
-1979.505243146
 30
0.0
 11
17.44421827
 21
-1980.471168972
 31
0.0
  0
LINE
  5
244
100
AcDbEntity
  8
CATALO
  6
SOLID
 62
        7
100
AcDbLine
 10
7.077853375
 20
-1976.658233666
 30
0.0
 11
6.81903433
 21
-1977.624159492
 31
0.0
  0
ARC
  5
245
100
AcDbEntity
  8
CATALO
  6
SOLID
 62
        7
100
AcDbCircle
 10
20.635491096
 20
-1978.22044046
 30
0.0
 40
2.0
100
AcDbArc
 50
254.99999988
 51
344.99999988
  0
LINE
  5
246
100
AcDbEntity
  8
CATALO
  6
SOLID
 62
        7
100
AcDbLine
 10
-17.923567223
 20
-1970.476409381
 30
0.0
 11
-18.944187947
 21
-1969.455788652
 31
0.0
  0
LINE
  5
247
100
AcDbEntity
  8
CATALO
  6
SOLID
 62
        7
100
AcDbLine
 10
0.612356331
 20
-1942.832248587
 30
0.0
 11
-0.094750448
 21
-1941.607503714
 31
0.0
  0
LINE
  5
248
100
AcDbEntity
  8
CATALO
  6
CENTER
 62
        7
100
AcDbLine
 10
20.413831369
 20
-1948.138054365
 30
0.0
 11
32.522901327
 21
-1902.94639005
 31
0.0
  0
LINE
  5
249
100
AcDbEntity
  8
CATALO
  6
SOLID
 62
        7
100
AcDbLine
 10
33.677450112
 20
-1952.7272303
 30
0.0
 11
34.195087319
 21
-1950.795378411
 31
0.0
  0
LINE
  5
24A
100
AcDbEntity
  8
CATALO
  6
SOLID
 62
        7
100
AcDbLine
 10
-2.19068677
 20
-1943.634089731
 30
0.0
 11
-3.355372473
 21
-1947.980755949
 31
0.0
  0
LINE
  5
24B
100
AcDbEntity
  8
CATALO
  6
SOLID
 62
        7
100
AcDbLine
 10
0.612356329
 20
-1942.832248601
 30
0.0
 11
0.224127762
 21
-1944.28113734
 31
0.0
  0
LINE
  5
24C
100
AcDbEntity
  8
CATALO
  6
SOLID
 62
        7
100
AcDbLine
 10
0.224127758
 20
-1944.281137305
 30
0.0
 11
-2.190686807
 21
-1943.634089693
 31
0.0
  0
LINE
  5
24D
100
AcDbEntity
  8
CATALO
  6
SOLID
 62
        7
100
AcDbLine
 10
-0.940557938
 20
-1948.627803463
 30
0.0
 11
-3.355372504
 21
-1947.98075585
 31
0.0
  0
LINE
  5
24E
100
AcDbEntity
  8
CATALO
  6
SOLID
 62
        7
100
AcDbLine
 10
-70.230798617
 20
-1958.013636014
 30
0.0
 11
-65.400726324
 21
-1959.307849985
 31
0.0
  0
LINE
  5
24F
100
AcDbEntity
  8
CATALO
  6
SOLID
 62
        7
100
AcDbLine
 10
-85.355041001
 20
-1919.797353703
 30
0.0
 11
-84.130296129
 21
-1919.090246925
 31
0.0
  0
LINE
  5
250
100
AcDbEntity
  8
CATALO
  6
SOLID
 62
        7
100
AcDbLine
 10
-83.328455039
 20
-1921.893290065
 30
0.0
 11
-84.493140742
 21
-1926.239956284
 31
0.0
  0
LINE
  5
251
100
AcDbEntity
  8
CATALO
  6
SOLID
 62
        7
100
AcDbLine
 10
-85.355041003
 20
-1919.797353717
 30
0.0
 11
-85.743269571
 21
-1921.246242456
 31
0.0
  0
LINE
  5
252
100
AcDbEntity
  8
CATALO
  6
SOLID
 62
        7
100
AcDbLine
 10
-85.74326956
 20
-1921.246242423
 30
0.0
 11
-83.328454994
 21
-1921.893290036
 31
0.0
  0
LINE
  5
253
100
AcDbEntity
  8
CATALO
  6
SOLID
 62
        7
100
AcDbLine
 10
-86.907955257
 20
-1925.59290858
 30
0.0
 11
-84.493140691
 21
-1926.239956193
 31
0.0
  0
LINE
  5
254
100
AcDbEntity
  8
CATALO
  6
SOLID
 62
        7
100
AcDbLine
 10
-75.919926998
 20
-1921.290208735
 30
0.0
 11
-81.613856061
 21
-1942.540241296
 31
0.0
  0
LINE
  5
255
100
AcDbEntity
  8
CATALO
  6
SOLID
 62
        7
100
AcDbLine
 10
-86.907955274
 20
-1925.592908675
 30
0.0
 11
-88.202050404
 21
-1930.422537453
 31
0.0
  0
LINE
  5
256
100
AcDbEntity
  8
CATALO
  6
SOLID
 62
        7
100
AcDbLine
 10
-88.20205038
 20
-1930.422537291
 30
0.0
 11
-116.696861567
 21
-1922.787375644
 31
0.0
  0
LINE
  5
257
100
AcDbEntity
  8
CATALO
  6
SOLID
 62
        7
100
AcDbLine
 10
-117.92160603
 20
-1923.494482456
 30
0.0
 11
-116.696861157
 21
-1922.787375677
 31
0.0
  0
ARC
  5
258
100
AcDbEntity
  8
CATALO
  6
SOLID
 62
        7
100
AcDbCircle
 10
-120.389678086
 20
-1940.432859949
 30
0.0
 40
2.0
100
AcDbArc
 50
164.99999988
 51
254.99999988
  0
LINE
  5
259
100
AcDbEntity
  8
CATALO
  6
SOLID
 62
        7
100
AcDbLine
 10
-94.637763222
 20
-1952.50909276
 30
0.0
 11
-93.223549664
 21
-1954.958582506
 31
0.0
  0
LINE
  5
25A
100
AcDbEntity
  8
CATALO
  6
SOLID
 62
        7
100
AcDbLine
 10
-122.321529704
 20
-1939.915221263
 30
0.0
 11
-117.921606049
 21
-1923.494482632
 31
0.0
  0
LINE
  5
25B
100
AcDbEntity
  8
CATALO
  6
SOLID
 62
        7
100
AcDbLine
 10
-96.759149435
 20
-1948.835192392
 30
0.0
 11
-120.907316502
 21
-1942.364710527
 31
0.0
  0
ARC
  5
25C
100
AcDbEntity
  8
CATALO
  6
SOLID
 62
        7
100
AcDbCircle
 10
-97.535606051
 20
-1951.732970182
 30
0.0
 40
3.0
100
AcDbArc
 50
344.776237623
 51
74.99999988
  0
LINE
  5
25D
100
AcDbEntity
  8
CATALO
  6
SOLID
 62
        7
100
AcDbLine
 10
-68.697315183
 20
-1948.071770024
 30
0.0
 11
-58.132588206
 21
-1950.902580085
 31
0.0
  0
LINE
  5
25E
100
AcDbEntity
  8
CATALO
  6
CENTER
 62
        7
100
AcDbLine
 10
20.163827229
 20
-1949.071082528
 30
0.0
 11
10.547126722
 21
-1984.96109742
 31
0.0
  0
LINE
  5
25F
100
AcDbEntity
  8
CATALO
  6
SOLID
 62
        7
100
AcDbLine
 10
22.879418059
 20
-1960.186727471
 30
0.0
 11
17.703037268
 21
-1979.50524358
 31
0.0
  0
LINE
  5
260
100
AcDbEntity
  8
CATALO
  6
SOLID
 62
        7
100
AcDbLine
 10
12.254234119
 20
-1957.339717991
 30
0.0
 11
7.077853328
 21
-1976.6582341
 31
0.0
  0
LINE
  5
261
100
AcDbEntity
  8
CATALO
  6
SOLID
 62
        7
100
AcDbLine
 10
-50.560194075
 20
-1884.603728161
 30
0.0
 11
-31.242122729
 21
-1889.779989778
 31
0.0
  0
LINE
  5
262
100
AcDbEntity
  8
CATALO
  6
SOLID
 62
        7
100
AcDbLine
 10
-11.924052902
 20
-1894.956251096
 30
0.0
 11
-31.242123408
 21
-1889.779989704
 31
0.0
  0
LINE
  5
263
100
AcDbEntity
  8
CATALO
  6
SOLID
 62
        7
100
AcDbLine
 10
-50.301375243
 20
-1883.637802292
 30
0.0
 11
-30.983303686
 21
-1888.814063965
 31
0.0
  0
LINE
  5
264
100
AcDbEntity
  8
CATALO
  6
SOLID
 62
        7
100
AcDbLine
 10
-11.665233858
 20
-1893.990325283
 30
0.0
 11
-30.983304364
 21
-1888.814063892
 31
0.0
  0
LINE
  5
265
100
AcDbEntity
  8
CATALO
  6
SOLID
 62
        7
100
AcDbLine
 10
-8.305119586
 20
-1939.407541929
 30
0.0
 11
-13.869639127
 21
-1960.174611577
 31
0.0
  0
ARC
  5
266
100
AcDbEntity
  8
CATALO
  6
SOLID
 62
        7
100
AcDbCircle
 10
-79.682003906
 20
-1943.057880126
 30
0.0
 40
2.0
100
AcDbArc
 50
164.99999988
 51
254.99999988
  0
LINE
  5
267
100
AcDbEntity
  8
CATALO
  6
SOLID
 62
        7
100
AcDbLine
 10
-4.030315529
 20
-1973.681808747
 30
0.0
 11
7.56081005
 21
-1976.787641485
 31
0.0
  0
LINE
  5
268
100
AcDbEntity
  8
CATALO
  6
SOLID
 62
        7
100
AcDbLine
 10
-0.940557941
 20
-1948.627803558
 30
0.0
 11
-2.234653072
 21
-1953.457432336
 31
0.0
  0
LINE
  5
269
100
AcDbEntity
  8
CATALO
  6
SOLID
 62
        7
100
AcDbLine
 10
22.396449074
 20
-1960.057316099
 30
0.0
 11
26.260158126
 21
-1961.092593819
 31
0.0
  0
LINE
  5
26A
100
AcDbEntity
  8
CATALO
  6
SOLID
 62
        7
100
AcDbLine
 10
22.567340827
 20
-1978.738077439
 30
0.0
 11
26.967264482
 21
-1962.317338809
 31
0.0
  0
LINE
  5
26B
100
AcDbEntity
  8
CATALO
  6
SOLID
 62
        7
100
AcDbLine
 10
17.220068313
 20
-1979.375831936
 30
0.0
 11
20.117851538
 21
-1980.152290611
 31
0.0
  0
LINE
  5
26C
100
AcDbEntity
  8
CATALO
  6
SOLID
 62
        7
100
AcDbLine
 10
-19.088252911
 20
-1974.823075463
 30
0.0
 11
-17.923567208
 21
-1970.476409245
 31
0.0
  0
LINE
  5
26D
100
AcDbEntity
  8
CATALO
  6
SOLID
 62
        7
100
AcDbLine
 10
-21.503067443
 20
-1974.176027854
 30
0.0
 11
-20.33838174
 21
-1969.829361636
 31
0.0
  0
LINE
  5
26E
100
AcDbEntity
  8
CATALO
  6
CENTER
 62
        7
100
AcDbLine
 10
-21.848648452
 20
-1980.295382804
 30
0.0
 11
-18.518394144
 21
-1967.866704527
 31
0.0
  0
ARC
  5
26F
100
AcDbEntity
  8
CATALO
  6
SOLID
 62
        7
100
AcDbCircle
 10
-90.942545005
 20
-1905.876865166
 30
0.0
 40
1.5
100
AcDbArc
 50
255.000012407
 51
345.000012407
  0
LINE
  5
270
100
AcDbEntity
  8
CATALO
  6
SOLID
 62
        7
100
AcDbLine
 10
-2.234653061
 20
-1953.457432173
 30
0.0
 11
12.737190811
 21
-1957.469125648
 31
0.0
  0
LINE
  5
271
100
AcDbEntity
  8
CATALO
  6
SOLID
 62
        7
100
AcDbLine
 10
-1.717009496
 20
-1951.525560101
 30
0.0
 11
13.254834377
 21
-1955.537253576
 31
0.0
  0
LINE
  5
272
100
AcDbEntity
  8
CATALO
  6
SOLID
 62
        7
100
AcDbLine
 10
11.01292262
 20
-1944.583773746
 30
0.0
 11
15.843024744
 21
-1945.877995709
 31
0.0
  0
ARC
  5
273
100
AcDbEntity
  8
CATALO
  6
SOLID
 62
        7
100
AcDbCircle
 10
-90.942045478
 20
-1905.876999014
 30
0.0
 40
1.5
100
AcDbArc
 50
164.999979623
 51
255.000012407
  0
ARC
  5
274
100
AcDbEntity
  8
CATALO
  6
SOLID
 62
        7
100
AcDbCircle
 10
-85.165571896
 20
-1922.953950955
 30
0.0
 40
1.5
100
AcDbArc
 50
344.99999988
 51
74.99999988
  0
ARC
  5
275
100
AcDbEntity
  8
CATALO
  6
SOLID
 62
        7
100
AcDbCircle
 10
-85.261765024
 20
-1922.928176084
 30
0.0
 40
1.5
100
AcDbArc
 50
74.99999988
 51
165.000012407
  0
LINE
  5
276
100
AcDbEntity
  8
CATALO
  6
SOLID
 62
        7
100
AcDbLine
 10
23.572939115
 20
-1918.961465086
 30
0.0
 11
28.59202951
 21
-1917.616603879
 31
0.0
  0
ARC
  5
277
100
AcDbEntity
  8
CATALO
  6
SOLID
 62
        7
100
AcDbCircle
 10
-85.649993278
 20
-1924.377064908
 30
0.0
 40
1.5
100
AcDbArc
 50
165.000012407
 51
254.99999988
  0
ARC
  5
278
100
AcDbEntity
  8
CATALO
  6
SOLID
 62
        7
100
AcDbCircle
 10
-85.553800467
 20
-1924.402839694
 30
0.0
 40
1.5
100
AcDbArc
 50
254.99999988
 51
344.99999988
  0
LINE
  5
279
100
AcDbEntity
  8
CATALO
  6
SOLID
 62
        7
100
AcDbLine
 10
22.689943071
 20
-1957.030128685
 30
0.0
 11
22.948762118
 21
-1957.996054497
 31
0.0
  0
LINE
  5
27A
100
AcDbEntity
  8
CATALO
  6
SOLID
 62
        7
100
AcDbLine
 10
13.289503988
 20
-1955.407864048
 30
0.0
 11
13.996610766
 21
-1954.700757283
 31
0.0
  0
LINE
  5
27B
100
AcDbEntity
  8
CATALO
  6
SOLID
 62
        7
100
AcDbLine
 10
29.419238206
 20
-1931.916057554
 30
0.0
 11
22.689943033
 21
-1957.030129038
 31
0.0
  0
LINE
  5
27C
100
AcDbEntity
  8
CATALO
  6
SOLID
 62
        7
100
AcDbLine
 10
13.996610757
 20
-1954.700757292
 30
0.0
 11
20.725905929
 21
-1929.586685809
 31
0.0
  0
LINE
  5
27D
100
AcDbEntity
  8
CATALO
  6
SOLID
 62
        7
100
AcDbLine
 10
20.113533463
 20
-1929.940239546
 30
0.0
 11
29.772791726
 21
-1932.528429997
 31
0.0
  0
LINE
  5
27E
100
AcDbEntity
  8
CATALO
  6
SOLID
 62
        7
100
AcDbLine
 10
13.51364785
 20
-1954.571347771
 30
0.0
 11
23.172906113
 21
-1957.159538222
 31
0.0
  0
LINE
  5
27F
100
AcDbEntity
  8
CATALO
  6
SOLID
 62
        7
100
AcDbLine
 10
29.77279159
 20
-1932.528429983
 30
0.0
 11
17.09065838
 21
-1979.858795471
 31
0.0
  0
LINE
  5
280
100
AcDbEntity
  8
CATALO
  6
SOLID
 62
        7
100
AcDbLine
 10
29.419238206
 20
-1931.916057554
 30
0.0
 11
29.772791595
 21
-1932.528429991
 31
0.0
  0
LINE
  5
281
100
AcDbEntity
  8
CATALO
  6
SOLID
 62
        7
100
AcDbLine
 10
20.725905891
 20
-1929.586686162
 30
0.0
 11
29.419238328
 21
-1931.916057568
 31
0.0
  0
LINE
  5
282
100
AcDbEntity
  8
CATALO
  6
SOLID
 62
        7
100
AcDbLine
 10
20.113533463
 20
-1929.940239546
 30
0.0
 11
20.7259059
 21
-1929.586686157
 31
0.0
  0
LINE
  5
283
100
AcDbEntity
  8
CATALO
  6
SOLID
 62
        7
100
AcDbLine
 10
7.431400325
 20
-1977.27060437
 30
0.0
 11
20.113533535
 21
-1929.940238881
 31
0.0
  0
ARC
  5
284
100
AcDbEntity
  8
CATALO
  6
SOLID
 62
        7
100
AcDbCircle
 10
6.948439084
 20
-1977.141196349
 30
0.0
 40
0.5
100
AcDbArc
 50
254.99999988
 51
344.99999988
  0
ARC
  5
285
100
AcDbEntity
  8
CATALO
  6
SOLID
 62
        7
100
AcDbCircle
 10
17.573623168
 20
-1979.988205867
 30
0.0
 40
0.5
100
AcDbArc
 50
164.99999988
 51
254.99999988
  0
LINE
  5
286
100
AcDbEntity
  8
CATALO
  6
SOLID
 62
        7
100
AcDbLine
 10
5.128657725
 20
-1977.171224428
 30
0.0
 11
19.134582206
 21
-1980.924100582
 31
0.0
  0
LINE
  5
287
100
AcDbEntity
  8
CATALO
  6
SOLID
 62
        7
100
AcDbLine
 10
19.134582009
 20
-1980.924100561
 30
0.0
 11
19.056936292
 21
-1981.21387832
 31
0.0
  0
LINE
  5
288
100
AcDbEntity
  8
CATALO
  6
SOLID
 62
        7
100
AcDbLine
 10
5.128657725
 20
-1977.171224428
 30
0.0
 11
5.051012008
 21
-1977.461002187
 31
0.0
  0
LINE
  5
289
100
AcDbEntity
  8
CATALO
  6
SOLID
 62
        7
100
AcDbLine
 10
17.167308179
 20
-1987.02273869
 30
0.0
 11
3.783047559
 21
-1983.436436865
 31
0.0
  0
ARC
  5
28A
100
AcDbEntity
  8
CATALO
  6
SOLID
 62
        7
100
AcDbCircle
 10
18.225702625
 20
-1983.072765239
 30
0.0
 40
4.089315121
100
AcDbArc
 50
220.615740879
 51
289.384258881
  0
LINE
  5
28B
100
AcDbEntity
  8
CATALO
  6
SOLID
 62
        7
100
AcDbLine
 10
15.121532446
 20
-1985.734837378
 30
0.0
 11
16.515394302
 21
-1980.532874111
 31
0.0
  0
ARC
  5
28C
100
AcDbEntity
  8
CATALO
  6
SOLID
 62
        7
100
AcDbCircle
 10
14.431348736
 20
-1970.464965587
 30
0.0
 40
15.285463353
100
AcDbArc
 50
237.412039935
 51
272.587959825
  0
LINE
  5
28D
100
AcDbEntity
  8
CATALO
  6
SOLID
 62
        7
100
AcDbLine
 10
6.198692158
 20
-1983.343969509
 30
0.0
 11
7.592554015
 21
-1978.142006242
 31
0.0
  0
ARC
  5
28E
100
AcDbEntity
  8
CATALO
  6
SOLID
 62
        7
100
AcDbCircle
 10
4.841442013
 20
-1979.486463386
 30
0.0
 40
4.089315121
100
AcDbArc
 50
220.615740879
 51
289.384258881
  0
LINE
  5
28F
100
AcDbEntity
  8
CATALO
  6
SOLID
 62
        7
100
AcDbLine
 10
3.131133863
 20
-1976.94657238
 30
0.0
 11
1.737272006
 21
-1982.148535647
 31
0.0
  0
LINE
  5
290
100
AcDbEntity
  8
CATALO
  6
SOLID
 62
        7
100
AcDbLine
 10
20.976814438
 20
-1981.728308119
 30
0.0
 11
3.131133612
 21
-1976.946572353
 31
0.0
  0
LINE
  5
291
100
AcDbEntity
  8
CATALO
  6
SOLID
 62
        7
100
AcDbLine
 10
19.58295259
 20
-1986.930271313
 30
0.0
 11
20.976814446
 21
-1981.728308046
 31
0.0
  0
ARC
  5
292
100
AcDbEntity
  8
CATALO
  6
SOLID
 62
        7
100
AcDbCircle
 10
12.799251889
 20
-1932.121481826
 30
0.0
 40
1.5
100
AcDbArc
 50
345.000020137
 51
74.999987353
  0
ARC
  5
293
100
AcDbEntity
  8
CATALO
  6
SOLID
 62
        7
100
AcDbCircle
 10
12.799752245
 20
-1932.121615897
 30
0.0
 40
1.5
100
AcDbArc
 50
74.999987353
 51
164.999987353
  0
ARC
  5
294
100
AcDbEntity
  8
CATALO
  6
SOLID
 62
        7
100
AcDbCircle
 10
12.411523358
 20
-1933.57050455
 30
0.0
 40
1.5
100
AcDbArc
 50
164.999987353
 51
254.999987353
  0
ARC
  5
295
100
AcDbEntity
  8
CATALO
  6
SOLID
 62
        7
100
AcDbCircle
 10
12.411023831
 20
-1933.570370702
 30
0.0
 40
1.5
100
AcDbArc
 50
254.999987353
 51
345.000020137
  0
ARC
  5
296
100
AcDbEntity
  8
CATALO
  6
SOLID
 62
        7
100
AcDbCircle
 10
-1.033831928
 20
-1945.496982926
 30
0.0
 40
1.5
100
AcDbArc
 50
344.999987353
 51
74.99999988
  0
ARC
  5
297
100
AcDbEntity
  8
CATALO
  6
SOLID
 62
        7
100
AcDbCircle
 10
-1.130025056
 20
-1945.471208055
 30
0.0
 40
1.5
100
AcDbArc
 50
74.99999988
 51
164.99999988
  0
ARC
  5
298
100
AcDbEntity
  8
CATALO
  6
SOLID
 62
        7
100
AcDbCircle
 10
-1.518253627
 20
-1946.920096794
 30
0.0
 40
1.5
100
AcDbArc
 50
164.99999988
 51
254.99999988
  0
ARC
  5
299
100
AcDbEntity
  8
CATALO
  6
SOLID
 62
        7
100
AcDbCircle
 10
-1.422060816
 20
-1946.94587158
 30
0.0
 40
1.5
100
AcDbArc
 50
254.99999988
 51
344.999987353
  0
ARC
  5
29A
100
AcDbEntity
  8
CATALO
  6
SOLID
 62
        7
100
AcDbCircle
 10
-15.780173265
 20
-1915.146173141
 30
0.0
 40
1.5
100
AcDbArc
 50
74.999989864
 51
164.999989864
  0
ARC
  5
29B
100
AcDbEntity
  8
CATALO
  6
SOLID
 62
        7
100
AcDbCircle
 10
6.082566405
 20
-1920.486642611
 30
0.0
 40
1.0
100
AcDbArc
 50
344.999989864
 51
74.999989864
  0
CIRCLE
  5
29C
100
AcDbEntity
  8
CATALO
  6
SOLID
 62
        7
100
AcDbCircle
 10
-7.743181839
 20
-1927.652442322
 30
0.0
 40
7.666666985
  0
LINE
  5
29D
100
AcDbEntity
  8
CATALO
  6
SOLID
 62
        7
100
AcDbLine
 10
-8.600511476
 20
-1920.033880858
 30
0.0
 11
-7.471301694
 21
-1915.819615561
 31
0.0
  0
LINE
  5
29E
100
AcDbEntity
  8
CATALO
  6
SOLID
 62
        7
100
AcDbLine
 10
-18.12498462
 20
-1936.776321496
 30
0.0
 11
-15.148563636
 21
-1925.668175021
 31
0.0
  0
LINE
  5
29F
100
AcDbEntity
  8
CATALO
  6
SOLID
 62
        7
100
AcDbLine
 10
-0.337698822
 20
-1929.636736681
 30
0.0
 11
2.638722162
 21
-1918.528590205
 31
0.0
  0
LINE
  5
2A0
100
AcDbEntity
  8
CATALO
  6
SOLID
 62
        7
100
AcDbLine
 10
-7.145626071
 20
-1939.718233835
 30
0.0
 11
-5.907109672
 21
-1935.09603098
 31
0.0
  0
ARC
  5
2A1
100
AcDbEntity
  8
CATALO
  6
SOLID
 62
        7
100
AcDbCircle
 10
-20.956557584
 20
-1934.464688751
 30
0.0
 40
1.5
100
AcDbArc
 50
164.999989864
 51
254.999989864
  0
LINE
  5
2A2
100
AcDbEntity
  8
CATALO
  6
SOLID
 62
        7
100
AcDbLine
 10
-17.229011495
 20
-1914.757957548
 30
0.0
 11
-22.405395815
 21
-1934.076473158
 31
0.0
  0
LINE
  5
2A3
100
AcDbEntity
  8
CATALO
  6
SOLID
 62
        7
100
AcDbLine
 10
-7.471301683
 20
-1915.819615518
 30
0.0
 11
-15.39189382
 21
-1913.697297749
 31
0.0
  0
LINE
  5
2A4
100
AcDbEntity
  8
CATALO
  6
SOLID
 62
        7
100
AcDbLine
 10
2.638722173
 20
-1918.528590162
 30
0.0
 11
-7.471301487
 21
-1915.81961557
 31
0.0
  0
LINE
  5
2A5
100
AcDbEntity
  8
CATALO
  6
SOLID
 62
        7
100
AcDbLine
 10
6.341436527
 20
-1919.520730185
 30
0.0
 11
2.638722263
 21
-1918.528590187
 31
0.0
  0
LINE
  5
2A6
100
AcDbEntity
  8
CATALO
  6
SOLID
 62
        7
100
AcDbLine
 10
1.742749049
 20
-1940.546954111
 30
0.0
 11
7.048542977
 21
-1920.745475611
 31
0.0
  0
ARC
  5
2A7
100
AcDbEntity
  8
CATALO
  6
SOLID
 62
        7
100
AcDbCircle
 10
0.293809587
 20
-1940.158711503
 30
0.0
 40
1.5
100
AcDbArc
 50
254.999989864
 51
344.999989864
  0
LINE
  5
2A8
100
AcDbEntity
  8
CATALO
  6
SOLID
 62
        7
100
AcDbLine
 10
-7.145626071
 20
-1939.718233835
 30
0.0
 11
-0.09436861
 21
-1941.607613914
 31
0.0
  0
LINE
  5
2A9
100
AcDbEntity
  8
CATALO
  6
SOLID
 62
        7
100
AcDbLine
 10
-8.305121037
 20
-1939.407547875
 30
0.0
 11
-7.145626283
 21
-1939.718233778
 31
0.0
  0
LINE
  5
2AA
100
AcDbEntity
  8
CATALO
  6
SOLID
 62
        7
100
AcDbLine
 10
-21.344736083
 20
-1935.913591081
 30
0.0
 11
-18.12498471
 21
-1936.776321472
 31
0.0
  0
ARC
  5
2AB
100
AcDbEntity
  8
CATALO
  6
SOLID
 62
        7
100
AcDbCircle
 10
-57.314981826
 20
-1904.016946854
 30
0.0
 40
1.5
100
AcDbArc
 50
344.999989864
 51
74.999989864
  0
ARC
  5
2AC
100
AcDbEntity
  8
CATALO
  6
SOLID
 62
        7
100
AcDbCircle
 10
-78.918902279
 20
-1897.710551604
 30
0.0
 40
1.0
100
AcDbArc
 50
74.999989864
 51
164.999989864
  0
CIRCLE
  5
2AD
100
AcDbEntity
  8
CATALO
  6
SOLID
 62
        7
100
AcDbCircle
 10
-70.528357572
 20
-1910.829193283
 30
0.0
 40
7.666666985
  0
LINE
  5
2AE
100
AcDbEntity
  8
CATALO
  6
SOLID
 62
        7
100
AcDbLine
 10
-65.97650542
 20
-1904.660018737
 30
0.0
 11
-64.847295638
 21
-1900.445753439
 31
0.0
  0
LINE
  5
2AF
100
AcDbEntity
  8
CATALO
  6
SOLID
 62
        7
100
AcDbLine
 10
-66.099296854
 20
-1923.921634179
 30
0.0
 11
-63.122875871
 21
-1912.813487703
 31
0.0
  0
LINE
  5
2B0
100
AcDbEntity
  8
CATALO
  6
SOLID
 62
        7
100
AcDbLine
 10
-77.933740477
 20
-1908.844925271
 30
0.0
 11
-74.957319494
 21
-1897.736778795
 31
0.0
  0
LINE
  5
2B1
100
AcDbEntity
  8
CATALO
  6
SOLID
 62
        7
100
AcDbLine
 10
-77.078655403
 20
-1920.979721841
 30
0.0
 11
-75.840139005
 21
-1916.357518986
 31
0.0
  0
ARC
  5
2B2
100
AcDbEntity
  8
CATALO
  6
SOLID
 62
        7
100
AcDbCircle
 10
-62.491366146
 20
-1923.335462464
 30
0.0
 40
1.5
100
AcDbArc
 50
254.999989864
 51
344.999989864
  0
LINE
  5
2B3
100
AcDbEntity
  8
CATALO
  6
SOLID
 62
        7
100
AcDbLine
 10
-55.866043461
 20
-1904.405188708
 30
0.0
 11
-61.042427781
 21
-1923.723704318
 31
0.0
  0
LINE
  5
2B4
100
AcDbEntity
  8
CATALO
  6
SOLID
 62
        7
100
AcDbLine
 10
-64.847295626
 20
-1900.445753396
 30
0.0
 11
-56.926703489
 21
-1902.568071165
 31
0.0
  0
LINE
  5
2B5
100
AcDbEntity
  8
CATALO
  6
SOLID
 62
        7
100
AcDbLine
 10
-74.957319482
 20
-1897.736778752
 30
0.0
 11
-64.847295821
 21
-1900.445753344
 31
0.0
  0
LINE
  5
2B6
100
AcDbEntity
  8
CATALO
  6
SOLID
 62
        7
100
AcDbLine
 10
-78.660033836
 20
-1896.744638729
 30
0.0
 11
-74.957319572
 21
-1897.736778728
 31
0.0
  0
LINE
  5
2B7
100
AcDbEntity
  8
CATALO
  6
SOLID
 62
        7
100
AcDbLine
 10
-85.190572875
 20
-1917.253224223
 30
0.0
 11
-79.884778947
 21
-1897.451745722
 31
0.0
  0
ARC
  5
2B8
100
AcDbEntity
  8
CATALO
  6
SOLID
 62
        7
100
AcDbCircle
 10
-83.741733317
 20
-1917.641439712
 30
0.0
 40
1.5
100
AcDbArc
 50
164.999989864
 51
254.999989864
  0
LINE
  5
2B9
100
AcDbEntity
  8
CATALO
  6
SOLID
 62
        7
100
AcDbLine
 10
-77.078655403
 20
-1920.979721841
 30
0.0
 11
-84.129912864
 21
-1919.090341761
 31
0.0
  0
LINE
  5
2BA
100
AcDbEntity
  8
CATALO
  6
SOLID
 62
        7
100
AcDbLine
 10
-75.919925546
 20
-1921.29020279
 30
0.0
 11
-77.078655191
 21
-1920.979721897
 31
0.0
  0
LINE
  5
2BB
100
AcDbEntity
  8
CATALO
  6
SOLID
 62
        7
100
AcDbLine
 10
-62.879545391
 20
-1924.784364594
 30
0.0
 11
-66.099296764
 21
-1923.921634203
 31
0.0
  0
ARC
  5
2BC
100
AcDbEntity
  8
CATALO
  6
SOLID
 62
        7
100
AcDbCircle
 10
-15.003714836
 20
-1912.248392885
 30
0.0
 40
1.5
100
AcDbArc
 50
164.999989864
 51
254.999989864
  0
ARC
  5
2BD
100
AcDbEntity
  8
CATALO
  6
SOLID
 62
        7
100
AcDbCircle
 10
6.600205618
 20
-1918.554788135
 30
0.0
 40
1.0
100
AcDbArc
 50
254.999989864
 51
344.999989864
  0
CIRCLE
  5
2BE
100
AcDbEntity
  8
CATALO
  6
SOLID
 62
        7
100
AcDbCircle
 10
-1.79033909
 20
-1905.436146456
 30
0.0
 40
7.666666985
  0
LINE
  5
2BF
100
AcDbEntity
  8
CATALO
  6
SOLID
 62
        7
100
AcDbLine
 10
-6.342091889
 20
-1911.605350178
 30
0.0
 11
-7.471301671
 21
-1915.819615475
 31
0.0
  0
LINE
  5
2C0
100
AcDbEntity
  8
CATALO
  6
SOLID
 62
        7
100
AcDbLine
 10
-6.219300454
 20
-1892.343734735
 30
0.0
 11
-9.195721438
 21
-1903.451881211
 31
0.0
  0
LINE
  5
2C1
100
AcDbEntity
  8
CATALO
  6
SOLID
 62
        7
100
AcDbLine
 10
5.615143168
 20
-1907.420443644
 30
0.0
 11
2.638722185
 21
-1918.52859012
 31
0.0
  0
LINE
  5
2C2
100
AcDbEntity
  8
CATALO
  6
SOLID
 62
        7
100
AcDbLine
 10
4.760058094
 20
-1895.285647074
 30
0.0
 11
3.521541696
 21
-1899.907849928
 31
0.0
  0
ARC
  5
2C3
100
AcDbEntity
  8
CATALO
  6
SOLID
 62
        7
100
AcDbCircle
 10
-9.827330516
 20
-1892.929877275
 30
0.0
 40
1.5
100
AcDbArc
 50
74.999989864
 51
164.999989864
  0
LINE
  5
2C4
100
AcDbEntity
  8
CATALO
  6
SOLID
 62
        7
100
AcDbLine
 10
-16.452553847
 20
-1911.860180206
 30
0.0
 11
-11.276169528
 21
-1892.541664596
 31
0.0
  0
LINE
  5
2C5
100
AcDbEntity
  8
CATALO
  6
SOLID
 62
        7
100
AcDbLine
 10
-7.471301683
 20
-1915.819615518
 30
0.0
 11
-15.39189382
 21
-1913.697297749
 31
0.0
  0
LINE
  5
2C6
100
AcDbEntity
  8
CATALO
  6
SOLID
 62
        7
100
AcDbLine
 10
2.638722173
 20
-1918.528590162
 30
0.0
 11
-7.471301487
 21
-1915.81961557
 31
0.0
  0
LINE
  5
2C7
100
AcDbEntity
  8
CATALO
  6
SOLID
 62
        7
100
AcDbLine
 10
6.341436527
 20
-1919.520730185
 30
0.0
 11
2.638722263
 21
-1918.528590187
 31
0.0
  0
LINE
  5
2C8
100
AcDbEntity
  8
CATALO
  6
SOLID
 62
        7
100
AcDbLine
 10
12.871975566
 20
-1899.012144692
 30
0.0
 11
7.566181638
 21
-1918.813623192
 31
0.0
  0
ARC
  5
2C9
100
AcDbEntity
  8
CATALO
  6
SOLID
 62
        7
100
AcDbCircle
 10
11.423036655
 20
-1898.623900027
 30
0.0
 40
1.5
100
AcDbArc
 50
344.999989864
 51
74.999989864
  0
LINE
  5
2CA
100
AcDbEntity
  8
CATALO
  6
SOLID
 62
        7
100
AcDbLine
 10
4.760058094
 20
-1895.285647074
 30
0.0
 11
11.811315555
 21
-1897.175027153
 31
0.0
  0
LINE
  5
2CB
100
AcDbEntity
  8
CATALO
  6
SOLID
 62
        7
100
AcDbLine
 10
-6.219300454
 20
-1892.343734735
 30
0.0
 11
4.760057882
 21
-1895.285647017
 31
0.0
  0
LINE
  5
2CC
100
AcDbEntity
  8
CATALO
  6
SOLID
 62
        7
100
AcDbLine
 10
-9.439051918
 20
-1891.48100432
 30
0.0
 11
-6.219300545
 21
-1892.343734711
 31
0.0
  0
ARC
  5
2CD
100
AcDbEntity
  8
CATALO
  6
SOLID
 62
        7
100
AcDbCircle
 10
-56.538523397
 20
-1901.119166598
 30
0.0
 40
1.5
100
AcDbArc
 50
254.999989864
 51
344.999989864
  0
ARC
  5
2CE
100
AcDbEntity
  8
CATALO
  6
SOLID
 62
        7
100
AcDbCircle
 10
-78.401263067
 20
-1895.778697128
 30
0.0
 40
1.0
100
AcDbArc
 50
164.999989864
 51
254.999989864
  0
CIRCLE
  5
2CF
100
AcDbEntity
  8
CATALO
  6
SOLID
 62
        7
100
AcDbCircle
 10
-64.575514823
 20
-1888.612897417
 30
0.0
 40
7.666666985
  0
LINE
  5
2D0
100
AcDbEntity
  8
CATALO
  6
SOLID
 62
        7
100
AcDbLine
 10
-63.718085833
 20
-1896.231488056
 30
0.0
 11
-64.847295615
 21
-1900.445753354
 31
0.0
  0
LINE
  5
2D1
100
AcDbEntity
  8
CATALO
  6
SOLID
 62
        7
100
AcDbLine
 10
-54.193612689
 20
-1879.489047418
 30
0.0
 11
-57.170033673
 21
-1890.597193894
 31
0.0
  0
LINE
  5
2D2
100
AcDbEntity
  8
CATALO
  6
SOLID
 62
        7
100
AcDbLine
 10
-71.980898487
 20
-1886.628632233
 30
0.0
 11
-74.957319471
 21
-1897.736778709
 31
0.0
  0
LINE
  5
2D3
100
AcDbEntity
  8
CATALO
  6
SOLID
 62
        7
100
AcDbLine
 10
-65.172971238
 20
-1876.54713508
 30
0.0
 11
-66.411487637
 21
-1881.169337934
 31
0.0
  0
ARC
  5
2D4
100
AcDbEntity
  8
CATALO
  6
SOLID
 62
        7
100
AcDbCircle
 10
-51.362139078
 20
-1881.800650988
 30
0.0
 40
1.5
100
AcDbArc
 50
-15.000010136
 51
74.999989864
  0
LINE
  5
2D5
100
AcDbEntity
  8
CATALO
  6
SOLID
 62
        7
100
AcDbLine
 10
-55.089585814
 20
-1901.507411367
 30
0.0
 11
-49.913201494
 21
-1882.188895757
 31
0.0
  0
LINE
  5
2D6
100
AcDbEntity
  8
CATALO
  6
SOLID
 62
        7
100
AcDbLine
 10
-64.847295626
 20
-1900.445753396
 30
0.0
 11
-56.926703489
 21
-1902.568071165
 31
0.0
  0
LINE
  5
2D7
100
AcDbEntity
  8
CATALO
  6
SOLID
 62
        7
100
AcDbLine
 10
-74.957319482
 20
-1897.736778752
 30
0.0
 11
-64.847295821
 21
-1900.445753344
 31
0.0
  0
LINE
  5
2D8
100
AcDbEntity
  8
CATALO
  6
SOLID
 62
        7
100
AcDbLine
 10
-78.660033836
 20
-1896.744638729
 30
0.0
 11
-74.957319572
 21
-1897.736778728
 31
0.0
  0
LINE
  5
2D9
100
AcDbEntity
  8
CATALO
  6
SOLID
 62
        7
100
AcDbLine
 10
-74.061346358
 20
-1875.718414803
 30
0.0
 11
-79.367140285
 21
-1895.519893303
 31
0.0
  0
ARC
  5
2DA
100
AcDbEntity
  8
CATALO
  6
SOLID
 62
        7
100
AcDbCircle
 10
-72.612506249
 20
-1876.106628236
 30
0.0
 40
1.5
100
AcDbArc
 50
74.999989864
 51
164.999989864
  0
LINE
  5
2DB
100
AcDbEntity
  8
CATALO
  6
SOLID
 62
        7
100
AcDbLine
 10
-65.172971238
 20
-1876.54713508
 30
0.0
 11
-72.224228699
 21
-1874.657755
 31
0.0
  0
LINE
  5
2DC
100
AcDbEntity
  8
CATALO
  6
SOLID
 62
        7
100
AcDbLine
 10
-54.193612689
 20
-1879.489047418
 30
0.0
 11
-65.172971026
 21
-1876.547135136
 31
0.0
  0
LINE
  5
2DD
100
AcDbEntity
  8
CATALO
  6
SOLID
 62
        7
100
AcDbLine
 10
-50.973861226
 20
-1880.351777833
 30
0.0
 11
-54.193612599
 21
-1879.489047442
 31
0.0
  0
LINE
  5
2DE
100
AcDbEntity
  8
CATALO
  6
SOLID
 62
        7
100
AcDbLine
 10
-20.252938768
 20
-1979.169741679
 30
0.0
 11
-22.667753334
 21
-1978.522694066
 31
0.0
  0
LINE
  5
2DF
100
AcDbEntity
  8
CATALO
  6
SOLID
 62
        7
100
AcDbLine
 10
-21.503067637
 20
-1974.176027909
 30
0.0
 11
-39.614315302
 21
-1969.323133723
 31
0.0
  0
LINE
  5
2E0
100
AcDbEntity
  8
CATALO
  6
SOLID
 62
        7
100
AcDbLine
 10
-93.223549656
 20
-1954.958582476
 30
0.0
 11
-63.762810614
 21
-1962.852563711
 31
0.0
  0
LINE
  5
2E1
100
AcDbEntity
  8
CATALO
  6
SOLID
 62
        7
100
AcDbLine
 10
-31.593691559
 20
-1968.366414175
 30
0.0
 11
-36.423764076
 21
-1967.072201038
 31
0.0
  0
LINE
  5
2E2
100
AcDbEntity
  8
CATALO
  6
SOLID
 62
        7
100
AcDbLine
 10
-31.593691234
 20
-1968.366414262
 30
0.0
 11
-29.781959084
 21
-1961.604933166
 31
0.0
  0
LINE
  5
2E3
100
AcDbEntity
  8
CATALO
  6
SOLID
 62
        7
100
AcDbLine
 10
-7.70449166
 20
-1975.802798125
 30
0.0
 11
-10.15397562
 21
-1977.217007973
 31
0.0
  0
ARC
  5
2E4
100
AcDbEntity
  8
CATALO
  6
SOLID
 62
        7
100
AcDbCircle
 10
-4.806822648
 20
-1976.579578629
 30
0.0
 40
3.0
100
AcDbArc
 50
74.999993411
 51
165.223755668
  0
LINE
  5
2E5
100
AcDbEntity
  8
CATALO
  6
SOLID
 62
        7
100
AcDbLine
 10
-15.725323551
 20
-1976.759741952
 30
0.0
 11
-15.984142596
 21
-1977.725667778
 31
0.0
  0
LINE
  5
2E6
100
AcDbEntity
  8
CATALO
  6
SOLID
 62
        7
100
AcDbLine
 10
-28.765321981
 20
-1973.265684854
 30
0.0
 11
-15.725323326
 21
-1976.759741963
 31
0.0
  0
LINE
  5
2E7
100
AcDbEntity
  8
CATALO
  6
SOLID
 62
        7
100
AcDbLine
 10
-28.058215198
 20
-1974.490429712
 30
0.0
 11
-15.984142369
 21
-1977.725667775
 31
0.0
  0
LINE
  5
2E8
100
AcDbEntity
  8
CATALO
  6
SOLID
 62
        7
100
AcDbLine
 10
-28.058215255
 20
-1974.490429733
 30
0.0
 11
-29.093491435
 21
-1978.354133038
 31
0.0
  0
LINE
  5
2E9
100
AcDbEntity
  8
CATALO
  6
SOLID
 62
        7
100
AcDbLine
 10
-28.765322023
 20
-1973.265684863
 30
0.0
 11
-30.059417248
 21
-1978.095313994
 31
0.0
  0
LINE
  5
2EA
100
AcDbEntity
  8
CATALO
  6
SOLID
 62
        7
100
AcDbLine
 10
-99.643240563
 20
-1990.508669502
 30
0.0
 11
-61.006207511
 21
-2000.861431306
 31
0.0
  0
LINE
  5
2EB
100
AcDbEntity
  8
CATALO
  6
SOLID
 62
        7
100
AcDbLine
 10
-91.878669254
 20
-1961.53089512
 30
0.0
 11
-99.643240607
 21
-1990.508669909
 31
0.0
  0
LINE
  5
2EC
100
AcDbEntity
  8
CATALO
  6
SOLID
 62
        7
100
AcDbLine
 10
-53.24163646
 20
-1971.883656896
 30
0.0
 11
-91.878669511
 21
-1961.530895092
 31
0.0
  0
LINE
  5
2ED
100
AcDbEntity
  8
CATALO
  6
SOLID
 62
        7
100
AcDbLine
 10
-73.267259784
 20
-1965.482531236
 30
0.0
 11
-73.526078821
 21
-1966.448457031
 31
0.0
  0
LINE
  5
2EE
100
AcDbEntity
  8
CATALO
  6
SOLID
 62
        7
100
AcDbLine
 10
-51.688722483
 20
-1966.088101989
 30
0.0
 11
-71.973164835
 21
-1960.652902042
 31
0.0
  0
LINE
  5
2EF
100
AcDbEntity
  8
CATALO
  6
SOLID
 62
        7
100
AcDbLine
 10
-53.24163703
 20
-1971.883656835
 30
0.0
 11
-14.604603978
 21
-1982.236418639
 31
0.0
  0
LINE
  5
2F0
100
AcDbEntity
  8
CATALO
  6
SOLID
 62
        7
100
AcDbLine
 10
-22.369175545
 20
-2011.214192993
 30
0.0
 11
-61.006208597
 21
-2000.861431189
 31
0.0
  0
LINE
  5
2F1
100
AcDbEntity
  8
CATALO
  6
SOLID
 62
        7
100
AcDbLine
 10
-14.604604236
 20
-1982.236418611
 30
0.0
 11
-22.369175589
 21
-2011.2141934
 31
0.0
  0
LINE
  5
2F2
100
AcDbEntity
  8
CATALO
  6
SOLID
 62
        7
100
AcDbLine
 10
-31.404280416
 20
-1971.523301906
 30
0.0
 11
-32.957194686
 21
-1977.318856863
 31
0.0
  0
LINE
  5
2F3
100
AcDbEntity
  8
CATALO
  6
SOLID
 62
        7
100
AcDbLine
 10
-39.614622272
 20
-1969.32334739
 30
0.0
 11
-31.404280131
 21
-1971.523301936
 31
0.0
  0
LINE
  5
2F4
100
AcDbEntity
  8
CATALO
  6
CENTER
 62
        7
100
AcDbLine
 10
-21.0199292
 20
-1851.63060725
 30
0.0
 11
-61.006208107
 21
-2000.861431736
 31
0.0
  0
LINE
  5
2F5
100
AcDbEntity
  8
CATALO
  6
SOLID
 62
        7
100
AcDbLine
 10
-51.202921202
 20
-1937.228784599
 30
0.0
 11
-47.320635412
 21
-1922.739896781
 31
0.0
  0
LINE
  5
2F6
100
AcDbEntity
  8
CATALO
  6
SOLID
 62
        7
100
AcDbLine
 10
-47.321511435
 20
-1922.743167316
 30
0.0
 11
-40.569228228
 21
-1924.550686231
 31
0.0
  0
LINE
  5
2F7
100
AcDbEntity
  8
CATALO
  6
SOLID
 62
        7
100
AcDbLine
 10
-50.237057976
 20
-1937.48783722
 30
0.0
 11
-46.354772186
 21
-1922.998949402
 31
0.0
  0
LINE
  5
2F8
100
AcDbEntity
  8
CATALO
  6
SOLID
 62
        7
100
AcDbLine
 10
-37.680836039
 20
-1940.855521288
 30
0.0
 11
-33.798550249
 21
-1926.36663347
 31
0.0
  0
LINE
  5
2F9
100
AcDbEntity
  8
CATALO
  6
SOLID
 62
        7
100
AcDbLine
 10
-38.646699265
 20
-1940.596468668
 30
0.0
 11
-34.764413475
 21
-1926.10758085
 31
0.0
  0
LINE
  5
2FA
100
AcDbEntity
  8
CATALO
  6
SOLID
 62
        7
100
AcDbLine
 10
-33.798550526
 20
-1926.366633801
 30
0.0
 11
-40.549958766
 21
-1924.555849467
 31
0.0
  0
LINE
  5
2FB
100
AcDbEntity
  8
CATALO
  6
SOLID
 62
        7
100
AcDbLine
 10
-51.203797203
 20
-1937.23205493
 30
0.0
 11
-44.448010114
 21
-1939.0405118
 31
0.0
  0
LINE
  5
2FC
100
AcDbEntity
  8
CATALO
  6
SOLID
 62
        7
100
AcDbLine
 10
-54.119732578
 20
-1946.182617361
 30
0.0
 11
-51.291303991
 21
-1943.354188785
 31
0.0
  0
LINE
  5
2FD
100
AcDbEntity
  8
CATALO
  6
SOLID
 62
        7
100
AcDbLine
 10
-51.291304046
 20
-1943.354188742
 30
0.0
 11
-49.754814818
 21
-1937.619932877
 31
0.0
  0
LINE
  5
2FE
100
AcDbEntity
  8
CATALO
  6
SOLID
 62
        7
100
AcDbLine
 10
-51.291304058
 20
-1943.354188852
 30
0.0
 11
-45.978712013
 21
-1944.7776936
 31
0.0
  0
LINE
  5
2FF
100
AcDbEntity
  8
CATALO
  6
SOLID
 62
        7
100
AcDbLine
 10
-39.630844873
 20
-1950.064898176
 30
0.0
 11
-40.666120142
 21
-1946.20119824
 31
0.0
  0
LINE
  5
300
100
AcDbEntity
  8
CATALO
  6
SOLID
 62
        7
100
AcDbLine
 10
-40.666120106
 20
-1946.201198222
 30
0.0
 11
-39.129630878
 21
-1940.466942357
 31
0.0
  0
LINE
  5
301
100
AcDbEntity
  8
CATALO
  6
SOLID
 62
        7
100
AcDbLine
 10
-37.680836294
 20
-1940.855521415
 30
0.0
 11
-44.435747963
 21
-1939.043797433
 31
0.0
  0
LINE
  5
302
100
AcDbEntity
  8
CATALO
  6
SOLID
 62
        7
100
AcDbLine
 10
-40.666120118
 20
-1946.201198332
 30
0.0
 11
-45.978712162
 21
-1944.777693584
 31
0.0
  0
LINE
  5
303
100
AcDbEntity
  8
CATALO
  6
SOLID
 62
        7
100
AcDbLine
 10
-62.986354225
 20
-1959.954790213
 30
0.0
 11
-60.527646971
 21
-1950.778769821
 31
0.0
  0
LINE
  5
304
100
AcDbEntity
  8
CATALO
  6
SOLID
 62
        7
100
AcDbLine
 10
-59.915273929
 20
-1950.425211774
 30
0.0
 11
-48.324164014
 21
-1953.531040316
 31
0.0
  0
LINE
  5
305
100
AcDbEntity
  8
CATALO
  6
SOLID
 62
        7
100
AcDbLine
 10
-59.915274038
 20
-1950.425211763
 30
0.0
 11
-60.527646474
 21
-1950.778765152
 31
0.0
  0
LINE
  5
306
100
AcDbEntity
  8
CATALO
  6
SOLID
 62
        7
100
AcDbLine
 10
-66.790250528
 20
-1978.606076172
 30
0.0
 11
-67.387101296
 21
-1976.378598764
 31
0.0
  0
LINE
  5
307
100
AcDbEntity
  8
CATALO
  6
L_DASH
 62
        7
100
AcDbLine
 10
-64.764730867
 20
-1979.148817776
 30
0.0
 11
-62.176540416
 21
-1969.489559513
 31
0.0
  0
LINE
  5
308
100
AcDbEntity
  8
CATALO
  6
SOLID
 62
        7
100
AcDbLine
 10
-66.790250405
 20
-1978.606076207
 30
0.0
 11
-55.829916279
 21
-1981.542888885
 31
0.0
  0
LINE
  5
309
100
AcDbEntity
  8
CATALO
  6
CENTER
 62
        7
100
AcDbLine
 10
-63.575181971
 20
-1983.40269318
 30
0.0
 11
-59.367719584
 21
-1967.700229781
 31
0.0
  0
LINE
  5
30A
100
AcDbEntity
  8
CATALO
  6
L_DASH
 62
        7
100
AcDbLine
 10
-60.418064709
 20
-1980.313503472
 30
0.0
 11
-57.829874258
 21
-1970.654245209
 31
0.0
  0
LINE
  5
30B
100
AcDbEntity
  8
CATALO
  6
SOLID
 62
        7
100
AcDbLine
 10
-62.17653975
 20
-1969.489554589
 30
0.0
 11
-57.829873531
 21
-1970.654240292
 31
0.0
  0
LINE
  5
30C
100
AcDbEntity
  8
CATALO
  6
L_DASH
 62
        7
100
AcDbLine
 10
-62.176539882
 20
-1969.489554574
 30
0.0
 11
-59.666990969
 21
-1968.817122975
 31
0.0
  0
LINE
  5
30D
100
AcDbEntity
  8
CATALO
  6
L_DASH
 62
        7
100
AcDbLine
 10
-57.829873725
 20
-1970.654240271
 30
0.0
 11
-59.666991028
 21
-1968.81712296
 31
0.0
  0
LINE
  5
30E
100
AcDbEntity
  8
CATALO
  6
CENTER
 62
        7
100
AcDbLine
 10
-50.052220593
 20
-1987.026159791
 30
0.0
 11
-45.844758206
 21
-1971.323696392
 31
0.0
  0
LINE
  5
30F
100
AcDbEntity
  8
CATALO
  6
L_DASH
 62
        7
100
AcDbLine
 10
-46.895103331
 20
-1983.936970083
 30
0.0
 11
-44.30691288
 21
-1974.27771182
 31
0.0
  0
LINE
  5
310
100
AcDbEntity
  8
CATALO
  6
L_DASH
 62
        7
100
AcDbLine
 10
-51.241769489
 20
-1982.772284387
 30
0.0
 11
-48.653579038
 21
-1973.113026124
 31
0.0
  0
LINE
  5
311
100
AcDbEntity
  8
CATALO
  6
SOLID
 62
        7
100
AcDbLine
 10
-44.875489728
 20
-1984.480958505
 30
0.0
 11
-55.833537117
 21
-1981.541918258
 31
0.0
  0
LINE
  5
312
100
AcDbEntity
  8
CATALO
  6
SOLID
 62
        7
100
AcDbLine
 10
-44.306912479
 20
-1974.277706867
 30
0.0
 11
-48.653578697
 21
-1973.113021164
 31
0.0
  0
LINE
  5
313
100
AcDbEntity
  8
CATALO
  6
L_DASH
 62
        7
100
AcDbLine
 10
-44.306912347
 20
-1974.277706882
 30
0.0
 11
-46.14402965
 21
-1972.440589571
 31
0.0
  0
LINE
  5
314
100
AcDbEntity
  8
CATALO
  6
L_DASH
 62
        7
100
AcDbLine
 10
-48.653578504
 20
-1973.113021185
 30
0.0
 11
-46.144029591
 21
-1972.440589586
 31
0.0
  0
LINE
  5
315
100
AcDbEntity
  8
CATALO
  6
SOLID
 62
        7
100
AcDbLine
 10
-38.837391594
 20
-1966.425485302
 30
0.0
 11
-36.37724856
 21
-1957.25297942
 31
0.0
  0
LINE
  5
316
100
AcDbEntity
  8
CATALO
  6
SOLID
 62
        7
100
AcDbLine
 10
-44.873249062
 20
-1984.478719065
 30
0.0
 11
-43.242000368
 21
-1982.848259113
 31
0.0
  0
LINE
  5
317
100
AcDbEntity
  8
CATALO
  6
SOLID
 62
        7
100
AcDbLine
 10
-36.730652753
 20
-1956.640516999
 30
0.0
 11
-48.321478476
 21
-1953.531760295
 31
0.0
  0
LINE
  5
318
100
AcDbEntity
  8
CATALO
  6
SOLID
 62
        7
100
AcDbLine
 10
-36.730652649
 20
-1956.640517027
 30
0.0
 11
-36.377247352
 21
-1957.252974941
 31
0.0
  0
LINE
  5
319
100
AcDbEntity
  8
CATALO
  6
SOLID
 62
        7
100
AcDbLine
 10
-8.305119586
 20
-1939.407541929
 30
0.0
 11
-13.99904865
 21
-1960.65757449
 31
0.0
  0
LINE
  5
31A
100
AcDbEntity
  8
CATALO
  6
SOLID
 62
        7
100
AcDbLine
 10
-39.153243892
 20
-1951.847329319
 30
0.0
 11
-39.630844873
 21
-1950.064898176
 31
0.0
  0
LINE
  5
31B
100
AcDbEntity
  8
CATALO
  6
SOLID
 62
        7
100
AcDbLine
 10
-68.419067191
 20
-1951.252161037
 30
0.0
 11
-68.697315349
 21
-1948.071769963
 31
0.0
  0
LINE
  5
31C
100
AcDbEntity
  8
CATALO
  6
SOLID
 62
        7
100
AcDbLine
 10
-70.230798956
 20
-1958.013635978
 30
0.0
 11
-68.41906564
 21
-1951.252155194
 31
0.0
  0
LINE
  5
31D
100
AcDbEntity
  8
CATALO
  6
SOLID
 62
        7
100
AcDbLine
 10
-30.02351621
 20
-1961.540218014
 30
0.0
 11
-37.026478451
 21
-1959.663779937
 31
0.0
  0
LINE
  5
31E
100
AcDbEntity
  8
CATALO
  6
SOLID
 62
        7
100
AcDbLine
 10
-38.838211257
 20
-1966.42526068
 30
0.0
 11
-31.59376756
 21
-1968.366403518
 31
0.0
  0
LINE
  5
31F
100
AcDbEntity
  8
CATALO
  6
SOLID
 62
        7
100
AcDbLine
 10
-32.412946763
 20
-1966.59399094
 30
0.0
 11
-35.793687155
 21
-1965.688124282
 31
0.0
  0
LINE
  5
320
100
AcDbEntity
  8
CATALO
  6
SOLID
 62
        7
100
AcDbLine
 10
-30.98944195
 20
-1961.281398998
 30
0.0
 11
-32.412946698
 21
-1966.593991043
 31
0.0
  0
LINE
  5
321
100
AcDbEntity
  8
CATALO
  6
SOLID
 62
        7
100
AcDbLine
 10
-30.541154223
 20
-1963.472069647
 30
0.0
 11
-30.023516132
 21
-1961.540217995
 31
0.0
  0
LINE
  5
322
100
AcDbEntity
  8
CATALO
  6
SOLID
 62
        7
100
AcDbLine
 10
-30.299672769
 20
-1963.536774408
 30
0.0
 11
-30.541154226
 21
-1963.472069647
 31
0.0
  0
LINE
  5
323
100
AcDbEntity
  8
CATALO
  6
SOLID
 62
        7
100
AcDbLine
 10
-31.593767983
 20
-1968.366403431
 30
0.0
 11
-30.299672758
 21
-1963.536774299
 31
0.0
  0
LINE
  5
324
100
AcDbEntity
  8
CATALO
  6
SOLID
 62
        7
100
AcDbLine
 10
-34.809518197
 20
-1962.015156199
 30
0.0
 11
-34.62900133
 21
-1961.341458077
 31
0.0
  0
CIRCLE
  5
325
100
AcDbEntity
  8
CATALO
  6
SOLID
 62
        7
100
AcDbCircle
 10
-35.654282026
 20
-1962.823677206
 30
0.0
 40
1.0
  0
LINE
  5
326
100
AcDbEntity
  8
CATALO
  6
SOLID
 62
        7
100
AcDbLine
 10
-35.793687032
 20
-1965.688124288
 30
0.0
 11
-35.325691796
 21
-1963.941542289
 31
0.0
  0
LINE
  5
327
100
AcDbEntity
  8
CATALO
  6
SOLID
 62
        7
100
AcDbLine
 10
-34.629001336
 20
-1961.341458138
 30
0.0
 11
-37.285297358
 21
-1960.629705764
 31
0.0
  0
LINE
  5
328
100
AcDbEntity
  8
CATALO
  6
SOLID
 62
        7
100
AcDbLine
 10
-36.077890055
 20
-1960.953229573
 30
0.0
 11
-37.673525908
 21
-1962.078594502
 31
0.0
  0
LINE
  5
329
100
AcDbEntity
  8
CATALO
  6
SOLID
 62
        7
100
AcDbLine
 10
-37.389322865
 20
-1966.813489217
 30
0.0
 11
-36.871684774
 21
-1964.881637564
 31
0.0
  0
LINE
  5
32A
100
AcDbEntity
  8
CATALO
  6
SOLID
 62
        7
100
AcDbLine
 10
-36.871684777
 20
-1964.881637584
 30
0.0
 11
-37.673525897
 21
-1962.078594449
 31
0.0
  0
LINE
  5
32B
100
AcDbEntity
  8
CATALO
  6
SOLID
 62
        7
100
AcDbLine
 10
-36.010770376
 20
-1963.757976068
 30
0.0
 11
-35.325691789
 21
-1963.941542322
 31
0.0
  0
LINE
  5
32C
100
AcDbEntity
  8
CATALO
  6
SOLID
 62
        7
100
AcDbLine
 10
-35.422494906
 20
-1961.850909637
 30
0.0
 11
-34.809518194
 21
-1962.015156252
 31
0.0
  0
LINE
  5
32D
100
AcDbEntity
  8
CATALO
  6
SOLID
 62
        7
100
AcDbLine
 10
-36.871684777
 20
-1964.881637584
 30
0.0
 11
-38.320573516
 21
-1964.493409017
 31
0.0
  0
LINE
  5
32E
100
AcDbEntity
  8
CATALO
  6
SOLID
 62
        7
100
AcDbLine
 10
-68.177585663
 20
-1951.316865806
 30
0.0
 11
-61.174623423
 21
-1953.193303883
 31
0.0
  0
LINE
  5
32F
100
AcDbEntity
  8
CATALO
  6
SOLID
 62
        7
100
AcDbLine
 10
-62.986357227
 20
-1959.954784518
 30
0.0
 11
-70.230800924
 21
-1958.01364168
 31
0.0
  0
LINE
  5
330
100
AcDbEntity
  8
CATALO
  6
SOLID
 62
        7
100
AcDbLine
 10
-68.63516459
 20
-1956.88827682
 30
0.0
 11
-65.254424198
 21
-1957.794143478
 31
0.0
  0
LINE
  5
331
100
AcDbEntity
  8
CATALO
  6
SOLID
 62
        7
100
AcDbLine
 10
-67.211659927
 20
-1951.575684862
 30
0.0
 11
-68.635164675
 21
-1956.888276907
 31
0.0
  0
LINE
  5
332
100
AcDbEntity
  8
CATALO
  6
SOLID
 62
        7
100
AcDbLine
 10
-68.695223825
 20
-1953.248717423
 30
0.0
 11
-68.177585735
 21
-1951.316865771
 31
0.0
  0
LINE
  5
333
100
AcDbEntity
  8
CATALO
  6
SOLID
 62
        7
100
AcDbLine
 10
-68.936705278
 20
-1953.184012663
 30
0.0
 11
-68.695223822
 21
-1953.248717424
 31
0.0
  0
LINE
  5
334
100
AcDbEntity
  8
CATALO
  6
SOLID
 62
        7
100
AcDbLine
 10
-70.230800492
 20
-1958.013641685
 30
0.0
 11
-68.936705267
 21
-1953.184012554
 31
0.0
  0
LINE
  5
335
100
AcDbEntity
  8
CATALO
  6
SOLID
 62
        7
100
AcDbLine
 10
-64.270255485
 20
-1954.121175369
 30
0.0
 11
-64.089738618
 21
-1953.447477246
 31
0.0
  0
CIRCLE
  5
336
100
AcDbEntity
  8
CATALO
  6
SOLID
 62
        7
100
AcDbCircle
 10
-63.942926734
 20
-1955.243757638
 30
0.0
 40
1.0
  0
LINE
  5
337
100
AcDbEntity
  8
CATALO
  6
SOLID
 62
        7
100
AcDbLine
 10
-65.25442432
 20
-1957.794143458
 30
0.0
 11
-64.786429084
 21
-1956.047561458
 31
0.0
  0
LINE
  5
338
100
AcDbEntity
  8
CATALO
  6
SOLID
 62
        7
100
AcDbLine
 10
-64.089738624
 20
-1953.447477307
 30
0.0
 11
-61.433442602
 21
-1954.159229681
 31
0.0
  0
LINE
  5
339
100
AcDbEntity
  8
CATALO
  6
SOLID
 62
        7
100
AcDbLine
 10
-62.640849905
 20
-1953.835705873
 30
0.0
 11
-61.821671194
 21
-1955.60811842
 31
0.0
  0
LINE
  5
33A
100
AcDbEntity
  8
CATALO
  6
SOLID
 62
        7
100
AcDbLine
 10
-64.435245621
 20
-1959.566555995
 30
0.0
 11
-63.917607531
 21
-1957.634704342
 31
0.0
  0
LINE
  5
33B
100
AcDbEntity
  8
CATALO
  6
SOLID
 62
        7
100
AcDbLine
 10
-63.917607533
 20
-1957.634704363
 30
0.0
 11
-61.821671176
 21
-1955.608118369
 31
0.0
  0
LINE
  5
33C
100
AcDbEntity
  8
CATALO
  6
SOLID
 62
        7
100
AcDbLine
 10
-64.10135051
 20
-1956.231127743
 30
0.0
 11
-64.786429097
 21
-1956.047561489
 31
0.0
  0
LINE
  5
33D
100
AcDbEntity
  8
CATALO
  6
SOLID
 62
        7
100
AcDbLine
 10
-63.657278788
 20
-1954.285422034
 30
0.0
 11
-64.2702555
 21
-1954.121175419
 31
0.0
  0
LINE
  5
33E
100
AcDbEntity
  8
CATALO
  6
SOLID
 62
        7
100
AcDbLine
 10
-63.917607533
 20
-1957.634704363
 30
0.0
 11
-62.468718793
 21
-1958.02293293
 31
0.0
  0
LINE
  5
33F
100
AcDbEntity
  8
CATALO
  6
SOLID
 62
        7
100
AcDbLine
 10
-22.14739913
 20
-1933.110296416
 30
0.0
 11
-27.468852685
 21
-1931.684417234
 31
0.0
  0
LINE
  5
340
100
AcDbEntity
  8
CATALO
  6
SOLID
 62
        7
100
AcDbLine
 10
-66.606959761
 20
-1944.491128275
 30
0.0
 11
-65.899852714
 21
-1945.715872994
 31
0.0
  0
LINE
  5
341
100
AcDbEntity
  8
CATALO
  6
SOLID
 62
        7
100
AcDbLine
 10
-56.241053845
 20
-1948.303938095
 30
0.0
 11
-65.899853266
 21
-1945.715872832
 31
0.0
  0
ARC
  5
342
100
AcDbEntity
  8
CATALO
  6
SOLID
 62
        7
100
AcDbCircle
 10
-15.930898886
 20
-1960.139937376
 30
0.0
 40
2.0
100
AcDbArc
 50
254.99999988
 51
344.99999988
  0
LINE
  5
343
100
AcDbEntity
  8
CATALO
  6
SOLID
 62
        7
100
AcDbLine
 10
-29.781960649
 20
-1961.604939005
 30
0.0
 11
-27.950795584
 21
-1958.989763308
 31
0.0
  0
LINE
  5
344
100
AcDbEntity
  8
CATALO
  6
SOLID
 62
        7
100
AcDbLine
 10
-16.448467925
 20
-1962.071800631
 30
0.0
 11
-38.515523229
 21
-1956.158955062
 31
0.0
  0
INSERT
  5
34F
100
AcDbEntity
  8
0
100
AcDbBlockReference
  2
*H13
 10
0.0
 20
0.0
 30
0.0
  0
INSERT
  5
35A
100
AcDbEntity
  8
0
100
AcDbBlockReference
  2
*H14
 10
0.0
 20
0.0
 30
0.0
  0
INSERT
  5
365
100
AcDbEntity
  8
0
100
AcDbBlockReference
  2
*H15
 10
0.0
 20
0.0
 30
0.0
  0
INSERT
  5
370
100
AcDbEntity
  8
0
100
AcDbBlockReference
  2
*H16
 10
0.0
 20
0.0
 30
0.0
  0
INSERT
  5
37E
100
AcDbEntity
  8
0
100
AcDbBlockReference
  2
*H17
 10
0.0
 20
0.0
 30
0.0
  0
INSERT
  5
38B
100
AcDbEntity
  8
0
100
AcDbBlockReference
  2
*H18
 10
0.0
 20
0.0
 30
0.0
  0
INSERT
  5
398
100
AcDbEntity
  8
0
100
AcDbBlockReference
  2
*H19
 10
0.0
 20
0.0
 30
0.0
  0
INSERT
  5
3A6
100
AcDbEntity
  8
0
100
AcDbBlockReference
  2
*H20
 10
0.0
 20
0.0
 30
0.0
  0
INSERT
  5
3B4
100
AcDbEntity
  8
0
100
AcDbBlockReference
  2
*H21
 10
0.0
 20
0.0
 30
0.0
  0
INSERT
  5
3C1
100
AcDbEntity
  8
0
100
AcDbBlockReference
  2
*H22
 10
0.0
 20
0.0
 30
0.0
  0
INSERT
  5
3CE
100
AcDbEntity
  8
0
100
AcDbBlockReference
  2
*H23
 10
0.0
 20
0.0
 30
0.0
  0
INSERT
  5
3DC
100
AcDbEntity
  8
0
100
AcDbBlockReference
  2
*H24
 10
0.0
 20
0.0
 30
0.0
  0
INSERT
  5
3F5
100
AcDbEntity
  8
0
100
AcDbBlockReference
  2
*H25
 10
0.0
 20
0.0
 30
0.0
  0
INSERT
  5
40D
100
AcDbEntity
  8
0
100
AcDbBlockReference
  2
*H26
 10
0.0
 20
0.0
 30
0.0
  0
INSERT
  5
426
100
AcDbEntity
  8
0
100
AcDbBlockReference
  2
*H27
 10
0.0
 20
0.0
 30
0.0
  0
INSERT
  5
43E
100
AcDbEntity
  8
0
100
AcDbBlockReference
  2
*H28
 10
0.0
 20
0.0
 30
0.0
  0
LINE
  5
43F
100
AcDbEntity
  8
CATALO
  6
SOLID
 62
        7
100
AcDbLine
 10
-12.604530121
 20
-1955.453161417
 30
0.0
 11
-0.969454159
 21
-1948.735647211
 31
0.0
  0
INSERT
  5
445
100
AcDbEntity
  8
0
100
AcDbBlockReference
  2
*H29
 10
0.0
 20
0.0
 30
0.0
  0
INSERT
  5
455
100
AcDbEntity
  8
0
100
AcDbBlockReference
  2
*H30
 10
0.0
 20
0.0
 30
0.0
  0
INSERT
  5
466
100
AcDbEntity
  8
0
100
AcDbBlockReference
  2
*H31
 10
0.0
 20
0.0
 30
0.0
  0
INSERT
  5
47D
100
AcDbEntity
  8
0
100
AcDbBlockReference
  2
*H32
 10
0.0
 20
0.0
 30
0.0
  0
INSERT
  5
486
100
AcDbEntity
  8
0
100
AcDbBlockReference
  2
*H33
 10
0.0
 20
0.0
 30
0.0
  0
INSERT
  5
49D
100
AcDbEntity
  8
0
100
AcDbBlockReference
  2
*H34
 10
0.0
 20
0.0
 30
0.0
  0
INSERT
  5
4A6
100
AcDbEntity
  8
0
100
AcDbBlockReference
  2
*H35
 10
0.0
 20
0.0
 30
0.0
  0
LINE
  5
4A7
100
AcDbEntity
  8
CATALO
  6
SOLID
 62
        7
100
AcDbLine
 10
-60.78353214
 20
-1922.757780197
 30
0.0
 11
-52.515131005
 21
-1924.973289684
 31
0.0
  0
LINE
  5
4A8
100
AcDbEntity
  8
CATALO
  6
SOLID
 62
        7
100
AcDbLine
 10
-134.859752062
 20
-1961.116875124
 30
0.0
 11
-134.859776556
 21
-1907.567818827
 31
0.0
  0
LINE
  5
4A9
100
AcDbEntity
  8
CATALO
  6
SOLID
 62
        7
100
AcDbLine
 10
-36.738723959
 20
-1844.810977507
 30
0.0
 11
-3.89808717
 21
-1853.610591918
 31
0.0
  0
LINE
  5
4AA
100
AcDbEntity
  8
CATALO
  6
SOLID
 62
        7
100
AcDbLine
 10
0.570989153
 20
-1836.931772017
 30
0.0
 11
-3.89808717
 21
-1853.610591918
 31
0.0
  0
LINE
  5
4AB
100
AcDbEntity
  8
CATALO
  6
SOLID
 62
        7
100
AcDbLine
 10
11.411498991
 20
-1844.743389034
 30
0.0
 11
39.362492637
 21
-1870.763429122
 31
0.0
  0
ARC
  5
4AC
100
AcDbEntity
  8
CATALO
  6
SOLID
 62
        7
100
AcDbCircle
 10
155.193950336
 20
-1812.382071994
 30
0.0
 40
143.0
100
AcDbArc
 50
195.341278215
 51
224.320512452
  0
LINE
  5
4AD
100
AcDbEntity
  8
CATALO
  6
SOLID
 62
        7
100
AcDbLine
 10
50.377136581
 20
-1930.732006112
 30
0.0
 11
65.302348974
 21
-1946.847362278
 31
0.0
  0
LINE
  5
4AE
100
AcDbEntity
  8
CATALO
  6
SOLID
 62
        7
100
AcDbLine
 10
65.302348974
 20
-1946.847362278
 30
0.0
 11
92.397398883
 21
-1984.041495342
 31
0.0
  0
ARC
  5
4AF
100
AcDbEntity
  8
CATALO
  6
SOLID
 62
        7
100
AcDbCircle
 10
80.193470565
 20
-1930.597675268
 30
0.0
 40
10.0
100
AcDbArc
 50
57.607401983
 51
180.0
  0
ARC
  5
4B0
100
AcDbEntity
  8
CATALO
  6
SOLID
 62
        7
100
AcDbCircle
 10
155.193949466
 20
-1812.382075243
 30
0.0
 40
141.0
100
AcDbArc
 50
196.682283915
 51
223.684327564
  0
LINE
  5
4B1
100
AcDbEntity
  8
CATALO
  6
SOLID
 62
        7
100
AcDbLine
 10
39.362492637
 20
-1870.763429122
 30
0.0
 11
55.522163883
 21
-1892.911278745
 31
0.0
  0
LINE
  5
4B2
100
AcDbEntity
  8
CATALO
  6
SOLID
 62
        7
100
AcDbLine
 10
55.522163883
 20
-1892.911278745
 30
0.0
 11
50.377136581
 21
-1930.732006112
 31
0.0
  0
LINE
  5
4B3
100
AcDbEntity
  8
CATALO
  6
CENTER
 62
        7
100
AcDbLine
 10
69.4441883
 20
-1843.592436453
 30
0.0
 11
37.337403433
 21
-1855.278350463
 31
0.0
  0
ARC
  5
4B4
100
AcDbEntity
  8
CATALO
  6
SOLID
 62
        7
100
AcDbCircle
 10
51.82776205
 20
-1850.004291242
 30
0.0
 40
8.0
100
AcDbArc
 50
20.0
 51
200.0
  0
LINE
  5
4B5
100
AcDbEntity
  8
CATALO
  6
SOLID
 62
        7
100
AcDbLine
 10
-32.269650245
 20
-1828.132153059
 30
0.0
 11
-36.738723884
 21
-1844.810977527
 31
0.0
  0
ARC
  5
4B6
100
AcDbEntity
  8
CATALO
  6
SOLID
 62
        7
100
AcDbCircle
 10
-41.929768236
 20
-1825.543723151
 30
0.0
 40
10.0
100
AcDbArc
 50
345.0
 51
60.0
  0
LINE
  5
4B7
100
AcDbEntity
  8
CATALO
  6
SOLID
 62
        7
100
AcDbLine
 10
-43.867617448
 20
-1812.877898704
 30
0.0
 11
-12.813102501
 21
-1821.198930905
 31
0.0
  0
LINE
  5
4B8
100
AcDbEntity
  8
CATALO
  6
SOLID
 62
        7
100
AcDbLine
 10
-36.929746355
 20
-1816.883480369
 30
0.0
 11
-43.86761777
 21
-1812.87789844
 31
0.0
  0
LINE
  5
4B9
100
AcDbEntity
  8
CATALO
  6
SOLID
 62
        7
100
AcDbLine
 10
-32.270488092
 20
-1828.131924858
 30
0.0
 11
-34.166785385
 21
-1835.209002704
 31
0.0
  0
ARC
  5
4BA
100
AcDbEntity
  8
CATALO
  6
SOLID
 62
        7
100
AcDbCircle
 10
10.230226383
 20
-1839.519951586
 30
0.0
 40
10.0
100
AcDbArc
 50
90.0
 51
165.0
  0
LINE
  5
4BB
100
AcDbEntity
  8
CATALO
  6
SOLID
 62
        7
100
AcDbLine
 10
15.244842494
 20
-1828.717034333
 30
0.0
 11
-12.813104084
 21
-1821.198930206
 31
0.0
  0
LINE
  5
4BC
100
AcDbEntity
  8
CATALO
  6
SOLID
 62
        7
100
AcDbLine
 10
10.230247416
 20
-1829.519962468
 30
0.0
 11
15.052790127
 21
-1829.519962468
 31
0.0
  0
LINE
  5
4BD
100
AcDbEntity
  8
CATALO
  6
SOLID
 62
        7
100
AcDbLine
 10
17.339141845
 20
-1819.96123558
 30
0.0
 11
11.411498991
 21
-1844.743389034
 31
0.0
  0
LINE
  5
4BE
100
AcDbEntity
  8
CATALO
  6
SOLID
 62
        7
100
AcDbLine
 10
-126.786057142
 20
-1727.381586667
 30
0.0
 11
-134.806042812
 21
-1727.381586667
 31
0.0
  0
ARC
  5
4BF
100
AcDbEntity
  8
CATALO
  6
SOLID
 62
        7
100
AcDbCircle
 10
-126.786057142
 20
-1732.381586667
 30
0.0
 40
5.0
100
AcDbArc
 50
0.0
 51
90.0
  0
LINE
  5
4C0
100
AcDbEntity
  8
CATALO
  6
L_DASH
 62
        7
100
AcDbLine
 10
-39.614649817
 20
-1969.323340035
 30
0.0
 11
-48.932135441
 21
-2004.096669782
 31
0.0
  0
LINE
  5
4C1
100
AcDbEntity
  8
CATALO
  6
SOLID
 62
        7
100
AcDbLine
 10
-50.485049386
 20
-2009.892224775
 30
0.0
 11
-54.367335062
 21
-2024.381112169
 31
0.0
  0
LINE
  5
4C2
100
AcDbEntity
  8
CATALO
  6
SOLID
 62
        7
100
AcDbLine
 10
-47.227635684
 20
-2023.188360311
 30
0.0
 11
-41.692965593
 21
-2024.671370692
 31
0.0
  0
LINE
  5
4C3
100
AcDbEntity
  8
CATALO
  6
SOLID
 62
        7
100
AcDbLine
 10
-53.59087824
 20
-2021.483334607
 30
0.0
 11
-46.5405237
 21
-2020.624023476
 31
0.0
  0
LINE
  5
4C4
100
AcDbEntity
  8
CATALO
  6
SOLID
 62
        7
100
AcDbLine
 10
-53.59087824
 20
-2021.483334607
 30
0.0
 11
-47.914747668
 21
-2025.752697145
 31
0.0
  0
LINE
  5
4C5
100
AcDbEntity
  8
CATALO
  6
SOLID
 62
        7
100
AcDbLine
 10
-46.5405237
 20
-2020.624023476
 30
0.0
 11
-47.914747668
 21
-2025.752697145
 31
0.0
  0
INSERT
  5
50A
100
AcDbEntity
  8
0
100
AcDbBlockReference
  2
*H36
 10
0.0
 20
0.0
 30
0.0
  0
LINE
  5
50B
100
AcDbEntity
  8
CATALO
  6
SOLID
 62
        7
100
AcDbLine
 10
-77.739023584
 20
-2015.012858563
 30
0.0
 11
-83.415154156
 21
-2010.743496024
 31
0.0
  0
LINE
  5
50C
100
AcDbEntity
  8
CATALO
  6
SOLID
 62
        7
100
AcDbLine
 10
-77.739023584
 20
-2015.012858563
 30
0.0
 11
-84.789378124
 21
-2015.872169693
 31
0.0
  0
LINE
  5
50D
100
AcDbEntity
  8
CATALO
  6
SOLID
 62
        7
100
AcDbLine
 10
-83.415154156
 20
-2010.743496024
 30
0.0
 11
-84.789378124
 21
-2015.872169693
 31
0.0
  0
LINE
  5
50E
100
AcDbEntity
  8
CATALO
  6
SOLID
 62
        7
100
AcDbLine
 10
-84.10226614
 20
-2013.307832859
 30
0.0
 11
-89.636936231
 21
-2011.824822477
 31
0.0
  0
INSERT
  5
553
100
AcDbEntity
  8
0
100
AcDbBlockReference
  2
*H37
 10
0.0
 20
0.0
 30
0.0
  0
LINE
  5
554
100
AcDbEntity
  8
CATALO
  6
SOLID
 62
        7
100
AcDbLine
 10
-74.633195043
 20
-2003.421748647
 30
0.0
 11
-78.51548072
 21
-2017.910636042
 31
0.0
  0
LINE
  5
555
100
AcDbEntity
  8
CATALO
  6
L_DASH
 62
        7
100
AcDbLine
 10
-63.762795149
 20
-1962.852863943
 30
0.0
 11
-73.080280772
 21
-1997.62619369
 31
0.0
  0
LINE
  5
556
100
AcDbEntity
  8
CATALO
  6
SOLID
 62
        7
100
AcDbLine
 10
-77.739023584
 20
-2015.012858563
 30
0.0
 11
-53.107915014
 21
-2021.612744213
 31
0.0
  0
LINE
  5
557
100
AcDbEntity
  8
CATALO
  6
SOLID
 62
        7
100
AcDbLine
 10
-103.453324199
 20
-2041.434717379
 30
0.0
 11
-35.355913576
 21
-2059.681363562
 31
0.0
  0
LINE
  5
558
100
AcDbEntity
  8
CATALO
  6
SOLID
 62
        7
100
AcDbLine
 10
-112.62997968
 20
-2038.975839954
 30
0.0
 11
-104.205508174
 21
-2044.241906191
 31
0.0
  0
LINE
  5
559
100
AcDbEntity
  8
CATALO
  6
SOLID
 62
        7
100
AcDbLine
 10
-104.205508174
 20
-2044.241906191
 30
0.0
 11
-103.453324199
 21
-2041.434717379
 31
0.0
  0
LINE
  5
55A
100
AcDbEntity
  8
CATALO
  6
SOLID
 62
        7
100
AcDbLine
 10
-112.62997968
 20
-2038.975839954
 30
0.0
 11
-102.701140224
 21
-2038.627528567
 31
0.0
  0
LINE
  5
55B
100
AcDbEntity
  8
CATALO
  6
SOLID
 62
        7
100
AcDbLine
 10
-102.701140224
 20
-2038.627528567
 30
0.0
 11
-103.453324199
 21
-2041.434717379
 31
0.0
  0
INSERT
  5
5B7
100
AcDbEntity
  8
0
100
AcDbBlockReference
  2
*H38
 10
0.0
 20
0.0
 30
0.0
  0
INSERT
  5
613
100
AcDbEntity
  8
0
100
AcDbBlockReference
  2
*H39
 10
0.0
 20
0.0
 30
0.0
  0
LINE
  5
614
100
AcDbEntity
  8
CATALO
  6
SOLID
 62
        7
100
AcDbLine
 10
-35.355914594
 20
-2059.681363289
 30
0.0
 11
-45.28475405
 21
-2060.029674676
 31
0.0
  0
LINE
  5
615
100
AcDbEntity
  8
CATALO
  6
SOLID
 62
        7
100
AcDbLine
 10
-45.28475405
 20
-2060.029674676
 30
0.0
 11
-44.532570075
 21
-2057.222485864
 31
0.0
  0
LINE
  5
616
100
AcDbEntity
  8
CATALO
  6
SOLID
 62
        7
100
AcDbLine
 10
-35.355914594
 20
-2059.681363289
 30
0.0
 11
-43.780386099
 21
-2054.415297052
 31
0.0
  0
LINE
  5
617
100
AcDbEntity
  8
CATALO
  6
SOLID
 62
        7
100
AcDbLine
 10
-43.780386099
 20
-2054.415297052
 30
0.0
 11
-44.532570075
 21
-2057.222485864
 31
0.0
  0
LINE
  5
618
100
AcDbEntity
  8
CATALO
  6
SOLID
 62
        7
100
AcDbLine
 10
-104.110854441
 20
-2007.182031728
 30
0.0
 11
-113.924074905
 21
-2043.805469085
 31
0.0
  0
LINE
  5
619
100
AcDbEntity
  8
CATALO
  6
SOLID
 62
        7
100
AcDbLine
 10
-26.836788338
 20
-2027.887555337
 30
0.0
 11
-36.650008802
 21
-2064.510992693
 31
0.0
  0
LWPOLYLINE
  5
61A
100
AcDbEntity
  8
CATALO
  6
SOLID
 62
        7
100
AcDbPolyline
 90
      188
 70
        0
 10
155.19394615
 20
-1997.847584882
 10
153.576292273
 20
-1994.357508369
 10
151.988495303
 20
-1990.833345618
 10
151.21512344
 20
-1989.047829954
 10
150.460412144
 20
-1987.241010392
 10
149.728093527
 20
-1985.408626151
 10
149.021899703
 20
-1983.546416452
 10
147.892674616
 20
-1980.352190835
 10
146.792566317
 20
-1977.117176629
 10
145.666454474
 20
-1973.896754839
 10
145.076422119
 20
-1972.309322664
 10
144.459218753
 20
-1970.74630647
 10
143.807954335
 20
-1969.214628884
 10
143.115738822
 20
-1967.72121253
 10
142.375682173
 20
-1966.272980034
 10
141.580894347
 20
-1964.876854022
 10
141.160823104
 20
-1964.200494268
 10
140.724485301
 20
-1963.53975712
 10
140.271019683
 20
-1962.895507906
 10
139.799564994
 20
-1962.268611954
 10
139.30925998
 20
-1961.659934592
 10
138.799243385
 20
-1961.070341148
 10
138.268653954
 20
-1960.500696952
 10
137.716630432
 20
-1959.95186733
 10
137.073481493
 20
-1959.36349613
 10
136.404081603
 20
-1958.800609859
 10
135.710048994
 20
-1958.261593569
 10
134.993001899
 20
-1957.744832309
 10
134.254558548
 20
-1957.248711129
 10
133.496337175
 20
-1956.771615082
 10
132.719956011
 20
-1956.311929216
 10
131.927033288
 20
-1955.868038583
 10
130.298036095
 20
-1955.021183215
 10
128.622291453
 20
-1954.218129384
 10
126.912745217
 20
-1953.445957492
 10
125.182343244
 20
-1952.691747944
 10
121.710755515
 20
-1951.185537496
 10
119.995461471
 20
-1950.407697404
 10
118.311095117
 20
-1949.596141272
 10
116.670602308
 20
-1948.737949504
 10
115.870854064
 20
-1948.287327883
 10
115.086928902
 20
-1947.820202504
 10
114.320445055
 20
-1947.334958418
 10
113.573020755
 20
-1946.829980676
 10
112.846274233
 20
-1946.303654327
 10
112.141823723
 20
-1945.754364424
 10
111.487404645
 20
-1945.20408992
 10
110.854301478
 20
-1944.631974559
 10
110.24177276
 20
-1944.038847539
 10
109.649077029
 20
-1943.425538059
 10
109.075472824
 20
-1942.792875316
 10
108.520218682
 20
-1942.14168851
 10
107.982573143
 20
-1941.472806839
 10
107.461794744
 20
-1940.787059502
 10
106.957142024
 20
-1940.085275697
 10
106.467873522
 20
-1939.368284623
 10
105.532523321
 20
-1937.891997463
 10
104.649812448
 20
-1936.36483161
 10
103.81380921
 20
-1934.793420652
 10
103.018581912
 20
-1933.184398179
 10
102.258198863
 20
-1931.54439778
 10
101.526728368
 20
-1929.880053042
 10
100.818238733
 20
-1928.197997555
 10
98.095454928
 20
-1921.425339892
 10
96.66912209
 20
-1917.958730943
 10
95.217165616
 20
-1914.549072892
 10
93.742920878
 20
-1911.186282882
 10
92.249723249
 20
-1907.86027806
 10
89.219810817
 20
-1901.278292556
 10
86.154111305
 20
-1894.722453541
 10
83.190328143
 20
-1888.38861393
 10
80.189455374
 20
-1882.03322549
 10
78.666147352
 20
-1878.856450029
 10
77.122811286
 20
-1875.685086845
 10
75.555861963
 20
-1872.522735767
 10
73.961714169
 20
-1869.372996621
 10
72.336782689
 20
-1866.239469237
 10
70.677482311
 20
-1863.125753442
 10
68.980227819
 20
-1860.035449064
 10
67.241434001
 20
-1856.972155932
 10
65.457515642
 20
-1853.939473873
 10
63.624887529
 20
-1850.941002716
 10
61.739964446
 20
-1847.980342289
 10
59.799161182
 20
-1845.06109242
 10
58.615395399
 20
-1843.343180755
 10
57.411374966
 20
-1841.640362941
 10
56.187942191
 20
-1839.951764178
 10
54.945939384
 20
-1838.276509665
 10
53.686208854
 20
-1836.6137246
 10
52.409592908
 20
-1834.962534182
 10
49.809074007
 20
-1831.691438085
 10
47.151121154
 20
-1828.456222963
 10
44.442472817
 20
-1825.249890408
 10
41.689867469
 20
-1822.065442011
 10
38.900043579
 20
-1818.895879363
 10
36.063553834
 20
-1815.725895209
 10
33.182156727
 20
-1812.591833554
 10
31.720194888
 20
-1811.047012526
 10
30.241698578
 20
-1809.521658758
 10
28.744898587
 20
-1808.019267794
 10
27.228025705
 20
-1806.543335178
 10
25.689310721
 20
-1805.097356456
 10
24.126984425
 20
-1803.684827173
 10
22.539277608
 20
-1802.309242872
 10
20.924421059
 20
-1800.9740991
 10
19.280645567
 20
-1799.6828914
 10
17.606181923
 20
-1798.439115317
 10
15.899260917
 20
-1797.246266396
 10
14.158113338
 20
-1796.107840182
 10
12.644818661
 20
-1795.181531015
 10
11.106867441
 20
-1794.294881858
 10
9.545799351
 20
-1793.445402251
 10
7.963154067
 20
-1792.630601734
 10
6.360471264
 20
-1791.847989845
 10
4.739290617
 20
-1791.095076124
 10
3.1011518
 20
-1790.36937011
 10
1.44759449
 20
-1789.668381343
 10
-0.21984164
 20
-1788.989619362
 10
-1.899616914
 20
-1788.330593706
 10
-5.290026193
 20
-1787.061789526
 10
-8.711315949
 20
-1785.842045119
 10
-12.151168781
 20
-1784.651436799
 10
-19.708164235
 20
-1782.042992666
 10
-23.455508261
 20
-1780.69218948
 10
-25.313963745
 20
-1779.994075997
 10
-27.159445121
 20
-1779.276605402
 10
-28.989830076
 20
-1778.536615808
 10
-30.802996292
 20
-1777.770945325
 10
-32.596821455
 20
-1776.976432065
 10
-34.369183248
 20
-1776.149914139
 10
-36.117959358
 20
-1775.288229659
 10
-37.841027467
 20
-1774.388216736
 10
-39.53626526
 20
-1773.446713481
 10
-41.201550423
 20
-1772.460558006
 10
-42.356598039
 20
-1771.737169962
 10
-43.496471667
 20
-1770.991021773
 10
-44.621937203
 20
-1770.22311487
 10
-45.733760542
 20
-1769.434450684
 10
-46.83270758
 20
-1768.626030647
 10
-47.91954421
 20
-1767.798856187
 10
-50.05994983
 20
-1766.092249728
 10
-52.161104562
 20
-1764.322642752
 10
-54.229135567
 20
-1762.498046707
 10
-56.270170005
 20
-1760.626473038
 10
-58.290335036
 20
-1758.715933192
 10
-60.295757821
 20
-1756.774438615
 10
-62.29256552
 20
-1754.810000753
 10
-66.284844301
 20
-1750.844340963
 10
-70.31618866
 20
-1746.88304539
 10
-72.361828333
 20
-1744.924062801
 10
-74.435615881
 20
-1742.990205605
 10
-76.309349967
 20
-1741.298361331
 10
-78.21297618
 20
-1739.646722979
 10
-80.149246416
 20
-1738.049257501
 10
-81.13048301
 20
-1737.275204263
 10
-82.12091257
 20
-1736.519931853
 10
-83.120879082
 20
-1735.785186137
 10
-84.130726535
 20
-1735.072712987
 10
-85.150798915
 20
-1734.384258272
 10
-86.181440209
 20
-1733.72156786
 10
-87.222994403
 20
-1733.086387621
 10
-88.275805485
 20
-1732.480463424
 10
-89.340217441
 20
-1731.905541138
 10
-90.416574258
 20
-1731.363366633
 10
-91.644821501
 20
-1730.79285183
 10
-92.88820434
 20
-1730.264821233
 10
-94.146234531
 20
-1729.777904385
 10
-95.418423828
 20
-1729.330730827
 10
-96.704283986
 20
-1728.921930101
 10
-98.003326761
 20
-1728.550131748
 10
-99.315063906
 20
-1728.213965311
 10
-100.639007178
 20
-1727.912060331
 10
-101.974668331
 20
-1727.64304635
 10
-103.32155912
 20
-1727.405552909
 10
-104.6791913
 20
-1727.19820955
 10
-106.047076626
 20
-1727.019645815
 10
-107.424726853
 20
-1726.868491246
 10
-108.811653736
 20
-1726.743375384
 10
-110.20736903
 20
-1726.642927771
 10
-111.611384489
 20
-1726.565777949
 10
-113.02321187
 20
-1726.510555459
 10
-114.442362926
 20
-1726.475889844
 10
-117.300683084
 20
-1726.462747403
 10
-120.182439005
 20
-1726.515386959
 10
-123.083724728
 20
-1726.622844847
 10
-126.000634293
 20
-1726.774157399
 10
-128.929261738
 20
-1726.958360951
 10
-134.806046431
 20
-1727.381586385
  0
ARC
  5
61B
100
AcDbEntity
  8
CATALO
  6
SOLID
 62
        7
100
AcDbCircle
 10
155.193950336
 20
-1812.382075476
 30
0.0
 40
102.0
100
AcDbArc
 50
200.0
 51
222.227038318
  0
ARC
  5
61C
100
AcDbEntity
  8
CATALO
  6
SOLID
 62
        7
100
AcDbCircle
 10
155.193950336
 20
-1812.382075476
 30
0.0
 40
118.0
100
AcDbArc
 50
200.0
 51
239.270856744
  0
LINE
  5
61D
100
AcDbEntity
  8
CATALO
  6
SOLID
 62
        7
100
AcDbLine
 10
154.977185252
 20
-1997.38206957
 30
0.0
 11
70.193446797
 21
-1997.38206957
 31
0.0
  0
LINE
  5
61E
100
AcDbEntity
  8
CATALO
  6
SOLID
 62
        7
100
AcDbLine
 10
-114.81592153
 20
-1726.470027065
 30
0.0
 11
-114.839320948
 21
-1837.127420155
 31
0.0
  0
LINE
  5
61F
100
AcDbEntity
  8
CATALO
  6
CENTER
 62
        7
100
AcDbLine
 10
-38.643602706
 20
-1820.041160863
 30
0.0
 11
-27.666642067
 21
-1779.074586046
 31
0.0
  0
LINE
  5
620
100
AcDbEntity
  8
CATALO
  6
SOLID
 62
        7
100
AcDbLine
 10
-43.86761748
 20
-1812.877898807
 30
0.0
 11
-34.065216744
 21
-1776.294841223
 31
0.0
  0
LINE
  5
621
100
AcDbEntity
  8
CATALO
  6
L_DASH
 62
        7
100
AcDbLine
 10
-31.945288871
 20
-1824.986413115
 30
0.0
 11
-20.375387595
 21
-1781.806953715
 31
0.0
  0
LINE
  5
622
100
AcDbEntity
  8
CATALO
  6
L_DASH
 62
        7
100
AcDbLine
 10
1.862114175
 20
-1834.045079308
 30
0.0
 11
12.32598487
 21
-1794.99338223
 31
0.0
  0
LINE
  5
623
100
AcDbEntity
  8
CATALO
  6
CENTER
 62
        7
100
AcDbLine
 10
10.135650261
 20
-1833.111522084
 30
0.0
 11
19.124686901
 21
-1799.563980631
 31
0.0
  0
LINE
  5
624
100
AcDbEntity
  8
CATALO
  6
SOLID
 62
        7
100
AcDbLine
 10
22.995117464
 20
-1811.778887739
 30
0.0
 11
24.96323681
 21
-1804.433766342
 31
0.0
  0
LINE
  5
625
100
AcDbEntity
  8
CATALO
  6
SOLID
 62
        7
100
AcDbLine
 10
26.857906475
 20
-1806.190694743
 30
0.0
 11
17.339141845
 21
-1819.96123558
 31
0.0
  0
INSERT
  5
649
100
AcDbEntity
  8
0
100
AcDbBlockReference
  2
*H40
 10
0.0
 20
0.0
 30
0.0
  0
ARC
  5
64A
100
AcDbEntity
  8
CATALO
  6
SOLID
 62
        7
100
AcDbCircle
 10
155.193949466
 20
-1812.382075243
 30
0.0
 40
130.0
100
AcDbArc
 50
176.675446465
 51
206.409079853
  0
ARC
  5
64B
100
AcDbEntity
  8
CATALO
  6
SOLID
 62
        7
100
AcDbCircle
 10
155.193949466
 20
-1812.382075243
 30
0.0
 40
130.0
100
AcDbArc
 50
237.607403003
 51
245.855661621
  0
TEXT
  5
64C
100
AcDbEntity
  8
CATALO
  6
SOLID
 62
        7
100
AcDbText
 10
-91.298057556
 20
-2042.398803711
 30
0.0
 40
5.0
  1
%%c 80 mm
 50
-15.000000417
 72
        5
 11
-60.574503736
 21
-2050.631155386
 31
0.0
100
AcDbText
  0
TEXT
  5
64D
100
AcDbEntity
  8
CATALO
  6
SOLID
 62
        7
100
AcDbText
 10
-85.193504333
 20
-2024.301757813
 30
0.0
 40
5.0
  1
%%c 25 mm
 50
-15.000000417
 72
        5
 11
-54.469950513
 21
-2032.534109487
 31
0.0
100
AcDbText
  0
ENDBLK
  5
64E
100
AcDbEntity
  8
0
100
AcDbBlockEnd
  0
BLOCK
  5
61
100
AcDbEntity
  8
0
100
AcDbBlockBegin
  2
*H1
 70
        0
 10
0.0
 20
0.0
 30
0.0
  3
*H1
  1

  0
LINE
  5
62
100
AcDbEntity
  8
CATALO
  6
SOLID
 62
        7
100
AcDbLine
 10
-70.519073486
 20
-1961.042358398
 30
0.0
 11
-66.844818115
 21
-1958.920898438
 31
0.0
  0
LINE
  5
63
100
AcDbEntity
  8
CATALO
  6
SOLID
 62
        7
100
AcDbLine
 10
-70.040008545
 20
-1957.301513672
 30
0.0
 11
-74.617095947
 21
-1959.944091797
 31
0.0
  0
LINE
  5
64
100
AcDbEntity
  8
CATALO
  6
SOLID
 62
        7
100
AcDbLine
 10
-78.715179443
 20
-1958.846069336
 30
0.0
 11
-68.941925049
 21
-1953.203491211
 31
0.0
  0
LINE
  5
65
100
AcDbEntity
  8
CATALO
  6
SOLID
 62
        7
100
AcDbLine
 10
-68.570159912
 20
-1949.524780273
 30
0.0
 11
-82.813262939
 21
-1957.748046875
 31
0.0
  0
LINE
  5
66
100
AcDbEntity
  8
CATALO
  6
SOLID
 62
        7
100
AcDbLine
 10
-86.911346436
 20
-1956.649902344
 30
0.0
 11
-70.989654541
 21
-1947.457519531
 31
0.0
  0
LINE
  5
67
100
AcDbEntity
  8
CATALO
  6
SOLID
 62
        7
100
AcDbLine
 10
-75.087738037
 20
-1946.35949707
 30
0.0
 11
-91.009429932
 21
-1955.551879883
 31
0.0
  0
LINE
  5
68
100
AcDbEntity
  8
CATALO
  6
SOLID
 62
        7
100
AcDbLine
 10
-93.913116455
 20
-1953.764160156
 30
0.0
 11
-79.185821533
 21
-1945.261352539
 31
0.0
  0
LINE
  5
69
100
AcDbEntity
  8
CATALO
  6
SOLID
 62
        7
100
AcDbLine
 10
-81.658721924
 20
-1943.224975586
 30
0.0
 11
-94.712005615
 21
-1950.761352539
 31
0.0
  0
LINE
  5
6A
100
AcDbEntity
  8
CATALO
  6
SOLID
 62
        7
100
AcDbLine
 10
-97.180328369
 20
-1948.722290039
 30
0.0
 11
-80.724639893
 21
-1939.221557617
 31
0.0
  0
LINE
  5
6B
100
AcDbEntity
  8
CATALO
  6
SOLID
 62
        7
100
AcDbLine
 10
-79.626617432
 20
-1935.123535156
 30
0.0
 11
-101.278411865
 21
-1947.624389648
 31
0.0
  0
LINE
  5
6C
100
AcDbEntity
  8
CATALO
  6
SOLID
 62
        7
100
AcDbLine
 10
-105.376495361
 20
-1946.526123047
 30
0.0
 11
-78.5284729
 21
-1931.025512695
 31
0.0
  0
LINE
  5
6D
100
AcDbEntity
  8
CATALO
  6
SOLID
 62
        7
100
AcDbLine
 10
-77.430389404
 20
-1926.927368164
 30
0.0
 11
-109.474578857
 21
-1945.428100586
 31
0.0
  0
LINE
  5
6E
100
AcDbEntity
  8
CATALO
  6
SOLID
 62
        7
100
AcDbLine
 10
-113.572662354
 20
-1944.329956055
 30
0.0
 11
-89.077728271
 21
-1930.187866211
 31
0.0
  0
LINE
  5
6F
100
AcDbEntity
  8
CATALO
  6
SOLID
 62
        7
100
AcDbLine
 10
-87.967437744
 20
-1929.546875
 30
0.0
 11
-76.332366943
 21
-1922.829345703
 31
0.0
  0
LINE
  5
70
100
AcDbEntity
  8
CATALO
  6
SOLID
 62
        7
100
AcDbLine
 10
-78.478851318
 20
-1920.604492188
 30
0.0
 11
-83.8074646
 21
-1923.681030273
 31
0.0
  0
LINE
  5
71
100
AcDbEntity
  8
CATALO
  6
SOLID
 62
        7
100
AcDbLine
 10
-93.175811768
 20
-1929.08996582
 30
0.0
 11
-117.670684814
 21
-1943.231933594
 31
0.0
  0
LINE
  5
72
100
AcDbEntity
  8
CATALO
  6
SOLID
 62
        7
100
AcDbLine
 10
-121.587615967
 20
-1942.029174805
 30
0.0
 11
-97.273895264
 21
-1927.991699219
 31
0.0
  0
LINE
  5
73
100
AcDbEntity
  8
CATALO
  6
SOLID
 62
        7
100
AcDbLine
 10
-85.638824463
 20
-1921.274169922
 30
0.0
 11
-82.57699585
 21
-1919.506591797
 31
0.0
  0
LINE
  5
74
100
AcDbEntity
  8
CATALO
  6
SOLID
 62
        7
100
AcDbLine
 10
-101.37197876
 20
-1926.893798828
 30
0.0
 11
-122.027923584
 21
-1938.819335938
 31
0.0
  0
LINE
  5
75
100
AcDbEntity
  8
CATALO
  6
SOLID
 62
        7
100
AcDbLine
 10
-120.929840088
 20
-1934.721313477
 30
0.0
 11
-105.470062256
 21
-1925.795532227
 31
0.0
  0
LINE
  5
76
100
AcDbEntity
  8
CATALO
  6
SOLID
 62
        7
100
AcDbLine
 10
-109.568145752
 20
-1924.697509766
 30
0.0
 11
-119.831756592
 21
-1930.623168945
 31
0.0
  0
LINE
  5
77
100
AcDbEntity
  8
CATALO
  6
SOLID
 62
        7
100
AcDbLine
 10
-118.733673096
 20
-1926.525146484
 30
0.0
 11
-113.666229248
 21
-1923.599365234
 31
0.0
  0
ENDBLK
  5
78
100
AcDbEntity
  8
0
100
AcDbBlockEnd
  0
BLOCK
  5
AB
100
AcDbEntity
  8
0
100
AcDbBlockBegin
  2
*H2
 70
        0
 10
0.0
 20
0.0
 30
0.0
  3
*H2
  1

  0
LINE
  5
AC
100
AcDbEntity
  8
CATALO
  6
SOLID
 62
        7
100
AcDbLine
 10
-50.306304932
 20
-1862.648925781
 30
0.0
 11
-50.819793701
 21
-1861.759765625
 31
0.0
  0
LINE
  5
AD
100
AcDbEntity
  8
CATALO
  6
SOLID
 62
        7
100
AcDbLine
 10
-51.350128174
 20
-1860.841064453
 30
0.0
 11
-51.881439209
 21
-1859.920654297
 31
0.0
  0
LINE
  5
AE
100
AcDbEntity
  8
CATALO
  6
SOLID
 62
        7
100
AcDbLine
 10
-52.674163818
 20
-1862.547607422
 30
0.0
 11
-51.788360596
 21
-1864.08203125
 31
0.0
  0
LINE
  5
AF
100
AcDbEntity
  8
CATALO
  6
SOLID
 62
        7
100
AcDbLine
 10
-52.522369385
 20
-1866.810791016
 30
0.0
 11
-53.456451416
 21
-1865.192626953
 31
0.0
  0
LINE
  5
B0
100
AcDbEntity
  8
CATALO
  6
SOLID
 62
        7
100
AcDbLine
 10
-58.709503174
 20
-1856.094116211
 30
0.0
 11
-59.113372803
 21
-1855.394775391
 31
0.0
  0
LINE
  5
B1
100
AcDbEntity
  8
CATALO
  6
SOLID
 62
        7
100
AcDbLine
 10
-60.855804443
 20
-1856.376708984
 30
0.0
 11
-59.441558838
 21
-1858.826171875
 31
0.0
  0
LINE
  5
B2
100
AcDbEntity
  8
CATALO
  6
SOLID
 62
        7
100
AcDbLine
 10
-56.18850708
 20
-1864.460693359
 30
0.0
 11
-54.77432251
 21
-1866.91027832
 31
0.0
  0
LINE
  5
B3
100
AcDbEntity
  8
CATALO
  6
SOLID
 62
        7
100
AcDbLine
 10
-57.506378174
 20
-1866.178222656
 30
0.0
 11
-58.920562744
 21
-1863.728515625
 31
0.0
  0
LINE
  5
B4
100
AcDbEntity
  8
CATALO
  6
SOLID
 62
        7
100
AcDbLine
 10
-60.173614502
 20
-1861.558227539
 30
0.0
 11
-61.76461792
 21
-1858.802490234
 31
0.0
  0
LINE
  5
B5
100
AcDbEntity
  8
CATALO
  6
SOLID
 62
        7
100
AcDbLine
 10
-62.496673584
 20
-1861.534667969
 30
0.0
 11
-60.238372803
 21
-1865.446044922
 31
0.0
  0
LINE
  5
B6
100
AcDbEntity
  8
CATALO
  6
SOLID
 62
        7
100
AcDbLine
 10
-62.970428467
 20
-1864.713989258
 30
0.0
 11
-63.228729248
 21
-1864.266601563
 31
0.0
  0
ENDBLK
  5
B7
100
AcDbEntity
  8
0
100
AcDbBlockEnd
  0
BLOCK
  5
BA
100
AcDbEntity
  8
0
100
AcDbBlockBegin
  2
*H3
 70
        0
 10
0.0
 20
0.0
 30
0.0
  3
*H3
  1

  0
LINE
  5
BB
100
AcDbEntity
  8
CATALO
  6
SOLID
 62
        7
100
AcDbLine
 10
-51.777984619
 20
-1860.725341797
 30
0.0
 11
-52.677947998
 21
-1861.244873047
 31
0.0
  0
LINE
  5
BC
100
AcDbEntity
  8
CATALO
  6
SOLID
 62
        7
100
AcDbLine
 10
-52.785308838
 20
-1861.653320313
 30
0.0
 11
-51.357757568
 21
-1860.829101563
 31
0.0
  0
LINE
  5
BD
100
AcDbEntity
  8
CATALO
  6
SOLID
 62
        7
100
AcDbLine
 10
-51.092071533
 20
-1861.022094727
 30
0.0
 11
-52.7550354
 21
-1861.982177734
 31
0.0
  0
LINE
  5
BE
100
AcDbEntity
  8
CATALO
  6
SOLID
 62
        7
100
AcDbLine
 10
-52.623260498
 20
-1862.252563477
 30
0.0
 11
-50.939605713
 21
-1861.280517578
 31
0.0
  0
LINE
  5
BF
100
AcDbEntity
  8
CATALO
  6
SOLID
 62
        7
100
AcDbLine
 10
-50.842803955
 20
-1861.571044922
 30
0.0
 11
-52.39944458
 21
-1862.469726563
 31
0.0
  0
LINE
  5
C0
100
AcDbEntity
  8
CATALO
  6
SOLID
 62
        7
100
AcDbLine
 10
-52.106658936
 20
-1862.647094727
 30
0.0
 11
-50.853179932
 21
-1861.923339844
 31
0.0
  0
LINE
  5
C1
100
AcDbEntity
  8
CATALO
  6
SOLID
 62
        7
100
AcDbLine
 10
-51.486907959
 20
-1862.635864258
 30
0.0
 11
-51.497772217
 21
-1862.641967773
 31
0.0
  0
ENDBLK
  5
C2
100
AcDbEntity
  8
0
100
AcDbBlockEnd
  0
BLOCK
  5
D5
100
AcDbEntity
  8
0
100
AcDbBlockBegin
  2
*H4
 70
        0
 10
0.0
 20
0.0
 30
0.0
  3
*H4
  1

  0
LINE
  5
D6
100
AcDbEntity
  8
CATALO
  6
SOLID
 62
        7
100
AcDbLine
 10
-1.166595459
 20
-1875.815917969
 30
0.0
 11
-0.27722168
 21
-1875.302490234
 31
0.0
  0
LINE
  5
D7
100
AcDbEntity
  8
CATALO
  6
SOLID
 62
        7
100
AcDbLine
 10
0.641418457
 20
-1874.772094727
 30
0.0
 11
1.561676025
 21
-1874.240722656
 31
0.0
  0
LINE
  5
D8
100
AcDbEntity
  8
CATALO
  6
SOLID
 62
        7
100
AcDbLine
 10
0.934692383
 20
-1876.912109375
 30
0.0
 11
-0.599609375
 21
-1877.797973633
 31
0.0
  0
LINE
  5
D9
100
AcDbEntity
  8
CATALO
  6
SOLID
 62
        7
100
AcDbLine
 10
-1.328277588
 20
-1880.528198242
 30
0.0
 11
0.289672852
 21
-1879.593994141
 31
0.0
  0
LINE
  5
DA
100
AcDbEntity
  8
CATALO
  6
SOLID
 62
        7
100
AcDbLine
 10
9.388244629
 20
-1874.340820313
 30
0.0
 11
10.087646484
 21
-1873.937011719
 31
0.0
  0
LINE
  5
DB
100
AcDbEntity
  8
CATALO
  6
SOLID
 62
        7
100
AcDbLine
 10
11.105682373
 20
-1875.658691406
 30
0.0
 11
8.656188965
 21
-1877.072998047
 31
0.0
  0
LINE
  5
DC
100
AcDbEntity
  8
CATALO
  6
SOLID
 62
        7
100
AcDbLine
 10
3.021728516
 20
-1880.325927734
 30
0.0
 11
0.572235107
 21
-1881.740234375
 31
0.0
  0
LINE
  5
DD
100
AcDbEntity
  8
CATALO
  6
SOLID
 62
        7
100
AcDbLine
 10
3.304290771
 20
-1882.472167969
 30
0.0
 11
5.75378418
 21
-1881.057983398
 31
0.0
  0
LINE
  5
DE
100
AcDbEntity
  8
CATALO
  6
SOLID
 62
        7
100
AcDbLine
 10
7.924133301
 20
-1879.804931641
 30
0.0
 11
10.679840088
 21
-1878.213989258
 31
0.0
  0
LINE
  5
DF
100
AcDbEntity
  8
CATALO
  6
SOLID
 62
        7
100
AcDbLine
 10
9.947753906
 20
-1880.946044922
 30
0.0
 11
6.036346436
 21
-1883.204345703
 31
0.0
  0
LINE
  5
E0
100
AcDbEntity
  8
CATALO
  6
SOLID
 62
        7
100
AcDbLine
 10
8.7684021
 20
-1883.936279297
 30
0.0
 11
9.21572876
 21
-1883.678100586
 31
0.0
  0
ENDBLK
  5
E1
100
AcDbEntity
  8
0
100
AcDbBlockEnd
  0
BLOCK
  5
E4
100
AcDbEntity
  8
0
100
AcDbBlockBegin
  2
*H5
 70
        0
 10
0.0
 20
0.0
 30
0.0
  3
*H5
  1

  0
LINE
  5
E5
100
AcDbEntity
  8
CATALO
  6
SOLID
 62
        7
100
AcDbLine
 10
1.069793701
 20
-1874.885742188
 30
0.0
 11
1.589385986
 21
-1875.785766602
 31
0.0
  0
LINE
  5
E6
100
AcDbEntity
  8
CATALO
  6
SOLID
 62
        7
100
AcDbLine
 10
1.478179932
 20
-1876.193115234
 30
0.0
 11
0.653961182
 21
-1874.76550293
 31
0.0
  0
LINE
  5
E7
100
AcDbEntity
  8
CATALO
  6
SOLID
 62
        7
100
AcDbLine
 10
0.327362061
 20
-1874.799926758
 30
0.0
 11
1.287475586
 21
-1876.462890625
 31
0.0
  0
LINE
  5
E8
100
AcDbEntity
  8
CATALO
  6
SOLID
 62
        7
100
AcDbLine
 10
1.038208008
 20
-1876.631103516
 30
0.0
 11
0.066131592
 21
-1874.947387695
 31
0.0
  0
LINE
  5
E9
100
AcDbEntity
  8
CATALO
  6
SOLID
 62
        7
100
AcDbLine
 10
-0.162963867
 20
-1875.150634766
 30
0.0
 11
0.735717773
 21
-1876.707275391
 31
0.0
  0
LINE
  5
EA
100
AcDbEntity
  8
CATALO
  6
SOLID
 62
        7
100
AcDbLine
 10
0.39352417
 20
-1876.714477539
 30
0.0
 11
-0.330200195
 21
-1875.4609375
 31
0.0
  0
LINE
  5
EB
100
AcDbEntity
  8
CATALO
  6
SOLID
 62
        7
100
AcDbLine
 10
-0.137512207
 20
-1876.394897461
 30
0.0
 11
-0.131225586
 21
-1876.405517578
 31
0.0
  0
ENDBLK
  5
EC
100
AcDbEntity
  8
0
100
AcDbBlockEnd
  0
BLOCK
  5
FF
100
AcDbEntity
  8
0
100
AcDbBlockBegin
  2
*H6
 70
        0
 10
0.0
 20
0.0
 30
0.0
  3
*H6
  1

  0
LINE
  5
100
100
AcDbEntity
  8
CATALO
  6
SOLID
 62
        7
100
AcDbLine
 10
-52.894439697
 20
-1872.308227539
 30
0.0
 11
-53.407928467
 21
-1871.418823242
 31
0.0
  0
LINE
  5
101
100
AcDbEntity
  8
CATALO
  6
SOLID
 62
        7
100
AcDbLine
 10
-53.938323975
 20
-1870.500244141
 30
0.0
 11
-54.46963501
 21
-1869.579956055
 31
0.0
  0
LINE
  5
102
100
AcDbEntity
  8
CATALO
  6
SOLID
 62
        7
100
AcDbLine
 10
-55.262359619
 20
-1872.20690918
 30
0.0
 11
-54.376495361
 21
-1873.741210938
 31
0.0
  0
LINE
  5
103
100
AcDbEntity
  8
CATALO
  6
SOLID
 62
        7
100
AcDbLine
 10
-55.11050415
 20
-1876.469970703
 30
0.0
 11
-56.044647217
 21
-1874.851928711
 31
0.0
  0
LINE
  5
104
100
AcDbEntity
  8
CATALO
  6
SOLID
 62
        7
100
AcDbLine
 10
-61.29776001
 20
-1865.753417969
 30
0.0
 11
-61.701507568
 21
-1865.053955078
 31
0.0
  0
LINE
  5
105
100
AcDbEntity
  8
CATALO
  6
SOLID
 62
        7
100
AcDbLine
 10
-63.444000244
 20
-1866.035888672
 30
0.0
 11
-62.029754639
 21
-1868.485473633
 31
0.0
  0
LINE
  5
106
100
AcDbEntity
  8
CATALO
  6
SOLID
 62
        7
100
AcDbLine
 10
-58.776702881
 20
-1874.119873047
 30
0.0
 11
-57.362518311
 21
-1876.569335938
 31
0.0
  0
LINE
  5
107
100
AcDbEntity
  8
CATALO
  6
SOLID
 62
        7
100
AcDbLine
 10
-60.094512939
 20
-1875.837402344
 30
0.0
 11
-61.508758545
 21
-1873.387817383
 31
0.0
  0
LINE
  5
108
100
AcDbEntity
  8
CATALO
  6
SOLID
 62
        7
100
AcDbLine
 10
-62.761810303
 20
-1871.217529297
 30
0.0
 11
-64.352813721
 21
-1868.461791992
 31
0.0
  0
LINE
  5
109
100
AcDbEntity
  8
CATALO
  6
SOLID
 62
        7
100
AcDbLine
 10
-65.084869385
 20
-1871.193847656
 30
0.0
 11
-62.826629639
 21
-1875.105224609
 31
0.0
  0
LINE
  5
10A
100
AcDbEntity
  8
CATALO
  6
SOLID
 62
        7
100
AcDbLine
 10
-65.558685303
 20
-1874.373291016
 30
0.0
 11
-65.816925049
 21
-1873.92590332
 31
0.0
  0
ENDBLK
  5
10B
100
AcDbEntity
  8
0
100
AcDbBlockEnd
  0
BLOCK
  5
10E
100
AcDbEntity
  8
0
100
AcDbBlockBegin
  2
*H7
 70
        0
 10
0.0
 20
0.0
 30
0.0
  3
*H7
  1

  0
LINE
  5
10F
100
AcDbEntity
  8
CATALO
  6
SOLID
 62
        7
100
AcDbLine
 10
-54.36618042
 20
-1870.384521484
 30
0.0
 11
-55.266082764
 21
-1870.904052734
 31
0.0
  0
LINE
  5
110
100
AcDbEntity
  8
CATALO
  6
SOLID
 62
        7
100
AcDbLine
 10
-55.373504639
 20
-1871.3125
 30
0.0
 11
-53.945892334
 21
-1870.48828125
 31
0.0
  0
LINE
  5
111
100
AcDbEntity
  8
CATALO
  6
SOLID
 62
        7
100
AcDbLine
 10
-53.680267334
 20
-1870.681396484
 30
0.0
 11
-55.343231201
 21
-1871.641479492
 31
0.0
  0
LINE
  5
112
100
AcDbEntity
  8
CATALO
  6
SOLID
 62
        7
100
AcDbLine
 10
-55.211456299
 20
-1871.911743164
 30
0.0
 11
-53.527801514
 21
-1870.939697266
 31
0.0
  0
LINE
  5
113
100
AcDbEntity
  8
CATALO
  6
SOLID
 62
        7
100
AcDbLine
 10
-53.430999756
 20
-1871.23034668
 30
0.0
 11
-54.987579346
 21
-1872.12890625
 31
0.0
  0
LINE
  5
114
100
AcDbEntity
  8
CATALO
  6
SOLID
 62
        7
100
AcDbLine
 10
-54.694854736
 20
-1872.306396484
 30
0.0
 11
-53.441375732
 21
-1871.582641602
 31
0.0
  0
LINE
  5
115
100
AcDbEntity
  8
CATALO
  6
SOLID
 62
        7
100
AcDbLine
 10
-54.07510376
 20
-1872.294921875
 30
0.0
 11
-54.085968018
 21
-1872.301269531
 31
0.0
  0
ENDBLK
  5
116
100
AcDbEntity
  8
0
100
AcDbBlockEnd
  0
BLOCK
  5
123
100
AcDbEntity
  8
0
100
AcDbBlockBegin
  2
*H8
 70
        0
 10
0.0
 20
0.0
 30
0.0
  3
*H8
  1

  0
LINE
  5
124
100
AcDbEntity
  8
CATALO
  6
SOLID
 62
        7
100
AcDbLine
 10
-38.837127686
 20
-1952.163452148
 30
0.0
 11
-34.454498291
 21
-1949.633178711
 31
0.0
  0
LINE
  5
125
100
AcDbEntity
  8
CATALO
  6
SOLID
 62
        7
100
AcDbLine
 10
-30.166168213
 20
-1943.693115234
 30
0.0
 11
-39.343231201
 21
-1948.991577148
 31
0.0
  0
LINE
  5
126
100
AcDbEntity
  8
CATALO
  6
SOLID
 62
        7
100
AcDbLine
 10
-38.24520874
 20
-1944.893432617
 30
0.0
 11
-28.315429688
 21
-1939.160644531
 31
0.0
  0
LINE
  5
127
100
AcDbEntity
  8
CATALO
  6
SOLID
 62
        7
100
AcDbLine
 10
-27.637451172
 20
-1935.304931641
 30
0.0
 11
-37.759490967
 21
-1941.148925781
 31
0.0
  0
LINE
  5
128
100
AcDbEntity
  8
CATALO
  6
SOLID
 62
        7
100
AcDbLine
 10
-36.661407471
 20
-1937.05090332
 30
0.0
 11
-27.47177124
 21
-1931.745239258
 31
0.0
  0
LINE
  5
129
100
AcDbEntity
  8
CATALO
  6
SOLID
 62
        7
100
AcDbLine
 10
-27.544128418
 20
-1928.322875977
 30
0.0
 11
-35.563323975
 21
-1932.952758789
 31
0.0
  0
LINE
  5
12A
100
AcDbEntity
  8
CATALO
  6
SOLID
 62
        7
100
AcDbLine
 10
-53.322113037
 20
-1943.205810547
 30
0.0
 11
-57.052032471
 21
-1945.359375
 31
0.0
  0
LINE
  5
12B
100
AcDbEntity
  8
CATALO
  6
SOLID
 62
        7
100
AcDbLine
 10
-56.309661865
 20
-1941.466674805
 30
0.0
 11
-52.224029541
 21
-1939.107788086
 31
0.0
  0
LINE
  5
12C
100
AcDbEntity
  8
CATALO
  6
SOLID
 62
        7
100
AcDbLine
 10
-52.129058838
 20
-1939.052978516
 30
0.0
 11
-51.611663818
 21
-1938.754272461
 31
0.0
  0
LINE
  5
12D
100
AcDbEntity
  8
CATALO
  6
SOLID
 62
        7
100
AcDbLine
 10
-34.465240479
 20
-1928.854736328
 30
0.0
 11
-27.615234375
 21
-1924.900024414
 31
0.0
  0
LINE
  5
12E
100
AcDbEntity
  8
CATALO
  6
SOLID
 62
        7
100
AcDbLine
 10
-27.396331787
 20
-1921.309326172
 30
0.0
 11
-33.367156982
 21
-1924.756591797
 31
0.0
  0
LINE
  5
12F
100
AcDbEntity
  8
CATALO
  6
SOLID
 62
        7
100
AcDbLine
 10
-50.513580322
 20
-1934.65612793
 30
0.0
 11
-54.91293335
 21
-1937.196044922
 31
0.0
  0
LINE
  5
130
100
AcDbEntity
  8
CATALO
  6
SOLID
 62
        7
100
AcDbLine
 10
-53.440460205
 20
-1932.881835938
 30
0.0
 11
-49.415496826
 21
-1930.558105469
 31
0.0
  0
LINE
  5
131
100
AcDbEntity
  8
CATALO
  6
SOLID
 62
        7
100
AcDbLine
 10
-32.269134521
 20
-1920.658569336
 30
0.0
 11
-26.45413208
 21
-1917.301269531
 31
0.0
  0
LINE
  5
132
100
AcDbEntity
  8
CATALO
  6
SOLID
 62
        7
100
AcDbLine
 10
-25.109130859
 20
-1913.060668945
 30
0.0
 11
-31.171051025
 21
-1916.560668945
 31
0.0
  0
LINE
  5
133
100
AcDbEntity
  8
CATALO
  6
SOLID
 62
        7
100
AcDbLine
 10
-48.317474365
 20
-1926.459960938
 30
0.0
 11
-53.082305908
 21
-1929.2109375
 31
0.0
  0
LINE
  5
134
100
AcDbEntity
  8
CATALO
  6
SOLID
 62
        7
100
AcDbLine
 10
-52.589508057
 20
-1925.462402344
 30
0.0
 11
-47.219390869
 21
-1922.361938477
 31
0.0
  0
LINE
  5
135
100
AcDbEntity
  8
CATALO
  6
SOLID
 62
        7
100
AcDbLine
 10
-31.297698975
 20
-1913.169555664
 30
0.0
 11
-24.296813965
 21
-1909.127563477
 31
0.0
  0
LINE
  5
136
100
AcDbEntity
  8
CATALO
  6
SOLID
 62
        7
100
AcDbLine
 10
-24.274169922
 20
-1905.650390625
 30
0.0
 11
-30.199584961
 21
-1909.071411133
 31
0.0
  0
LINE
  5
137
100
AcDbEntity
  8
CATALO
  6
SOLID
 62
        7
100
AcDbLine
 10
-46.121307373
 20
-1918.263793945
 30
0.0
 11
-51.886505127
 21
-1921.592407227
 31
0.0
  0
LINE
  5
138
100
AcDbEntity
  8
CATALO
  6
SOLID
 62
        7
100
AcDbLine
 10
-50.921356201
 20
-1917.571044922
 30
0.0
 11
-45.023223877
 21
-1914.165771484
 31
0.0
  0
LINE
  5
139
100
AcDbEntity
  8
CATALO
  6
SOLID
 62
        7
100
AcDbLine
 10
-32.112884521
 20
-1906.711914063
 30
0.0
 11
-25.103790283
 21
-1902.665283203
 31
0.0
  0
LINE
  5
13A
100
AcDbEntity
  8
CATALO
  6
SOLID
 62
        7
100
AcDbLine
 10
-27.201416016
 20
-1900.412353516
 30
0.0
 11
-34.309051514
 21
-1904.515869141
 31
0.0
  0
LINE
  5
13B
100
AcDbEntity
  8
CATALO
  6
SOLID
 62
        7
100
AcDbLine
 10
-42.700408936
 20
-1909.360595703
 30
0.0
 11
-49.609466553
 21
-1913.349487305
 31
0.0
  0
LINE
  5
13C
100
AcDbEntity
  8
CATALO
  6
SOLID
 62
        7
100
AcDbLine
 10
-47.845916748
 20
-1908.8671875
 30
0.0
 11
-30.841217041
 21
-1899.049560547
 31
0.0
  0
LINE
  5
13D
100
AcDbEntity
  8
CATALO
  6
SOLID
 62
        7
100
AcDbLine
 10
-35.306243896
 20
-1898.163452148
 30
0.0
 11
-45.434051514
 21
-1904.010620117
 31
0.0
  0
ENDBLK
  5
13E
100
AcDbEntity
  8
0
100
AcDbBlockEnd
  0
BLOCK
  5
14D
100
AcDbEntity
  8
0
100
AcDbBlockBegin
  2
*H9
 70
        0
 10
0.0
 20
0.0
 30
0.0
  3
*H9
  1

  0
LINE
  5
14E
100
AcDbEntity
  8
CATALO
  6
SOLID
 62
        7
100
AcDbLine
 10
-3.754821777
 20
-1885.475219727
 30
0.0
 11
-2.86541748
 21
-1884.961669922
 31
0.0
  0
LINE
  5
14F
100
AcDbEntity
  8
CATALO
  6
SOLID
 62
        7
100
AcDbLine
 10
-1.946777344
 20
-1884.431274414
 30
0.0
 11
-1.026519775
 21
-1883.900146484
 31
0.0
  0
LINE
  5
150
100
AcDbEntity
  8
CATALO
  6
SOLID
 62
        7
100
AcDbLine
 10
-1.6534729
 20
-1886.571411133
 30
0.0
 11
-3.187805176
 21
-1887.457275391
 31
0.0
  0
LINE
  5
151
100
AcDbEntity
  8
CATALO
  6
SOLID
 62
        7
100
AcDbLine
 10
-3.916473389
 20
-1890.187255859
 30
0.0
 11
-2.298492432
 21
-1889.253173828
 31
0.0
  0
LINE
  5
152
100
AcDbEntity
  8
CATALO
  6
SOLID
 62
        7
100
AcDbLine
 10
6.800048828
 20
-1884.00012207
 30
0.0
 11
7.499450684
 21
-1883.596313477
 31
0.0
  0
LINE
  5
153
100
AcDbEntity
  8
CATALO
  6
SOLID
 62
        7
100
AcDbLine
 10
8.517486572
 20
-1885.317993164
 30
0.0
 11
6.067993164
 21
-1886.732177734
 31
0.0
  0
LINE
  5
154
100
AcDbEntity
  8
CATALO
  6
SOLID
 62
        7
100
AcDbLine
 10
0.433532715
 20
-1889.985229492
 30
0.0
 11
-2.015960693
 21
-1891.399414063
 31
0.0
  0
LINE
  5
155
100
AcDbEntity
  8
CATALO
  6
SOLID
 62
        7
100
AcDbLine
 10
0.716094971
 20
-1892.131469727
 30
0.0
 11
3.165618896
 21
-1890.717285156
 31
0.0
  0
LINE
  5
156
100
AcDbEntity
  8
CATALO
  6
SOLID
 62
        7
100
AcDbLine
 10
5.335968018
 20
-1889.464233398
 30
0.0
 11
8.09161377
 21
-1887.873291016
 31
0.0
  0
LINE
  5
157
100
AcDbEntity
  8
CATALO
  6
SOLID
 62
        7
100
AcDbLine
 10
7.359588623
 20
-1890.605224609
 30
0.0
 11
3.448150635
 21
-1892.863525391
 31
0.0
  0
LINE
  5
158
100
AcDbEntity
  8
CATALO
  6
SOLID
 62
        7
100
AcDbLine
 10
6.180206299
 20
-1893.595581055
 30
0.0
 11
6.627502441
 21
-1893.337402344
 31
0.0
  0
ENDBLK
  5
159
100
AcDbEntity
  8
0
100
AcDbBlockEnd
  0
BLOCK
  5
15D
100
AcDbEntity
  8
0
100
AcDbBlockBegin
  2
*H10
 70
        0
 10
0.0
 20
0.0
 30
0.0
  3
*H10
  1

  0
LINE
  5
15E
100
AcDbEntity
  8
CATALO
  6
SOLID
 62
        7
100
AcDbLine
 10
-1.518371582
 20
-1884.545043945
 30
0.0
 11
-0.998840332
 21
-1885.445068359
 31
0.0
  0
LINE
  5
15F
100
AcDbEntity
  8
CATALO
  6
SOLID
 62
        7
100
AcDbLine
 10
-1.110046387
 20
-1885.852539063
 30
0.0
 11
-1.934265137
 21
-1884.424804688
 31
0.0
  0
LINE
  5
160
100
AcDbEntity
  8
CATALO
  6
SOLID
 62
        7
100
AcDbLine
 10
-2.260803223
 20
-1884.459106445
 30
0.0
 11
-1.300720215
 21
-1886.122070313
 31
0.0
  0
LINE
  5
161
100
AcDbEntity
  8
CATALO
  6
SOLID
 62
        7
100
AcDbLine
 10
-1.549987793
 20
-1886.290283203
 30
0.0
 11
-2.522064209
 21
-1884.606689453
 31
0.0
  0
LINE
  5
162
100
AcDbEntity
  8
CATALO
  6
SOLID
 62
        7
100
AcDbLine
 10
-2.75112915
 20
-1884.809814453
 30
0.0
 11
-1.85244751
 21
-1886.366455078
 31
0.0
  0
LINE
  5
163
100
AcDbEntity
  8
CATALO
  6
SOLID
 62
        7
100
AcDbLine
 10
-2.194671631
 20
-1886.373779297
 30
0.0
 11
-2.918365479
 21
-1885.120239258
 31
0.0
  0
LINE
  5
164
100
AcDbEntity
  8
CATALO
  6
SOLID
 62
        7
100
AcDbLine
 10
-2.72567749
 20
-1886.053955078
 30
0.0
 11
-2.719451904
 21
-1886.064819336
 31
0.0
  0
ENDBLK
  5
165
100
AcDbEntity
  8
0
100
AcDbBlockEnd
  0
BLOCK
  5
169
100
AcDbEntity
  8
0
100
AcDbBlockBegin
  2
*H11
 70
        0
 10
0.0
 20
0.0
 30
0.0
  3
*H11
  1

  0
LINE
  5
16A
100
AcDbEntity
  8
CATALO
  6
SOLID
 62
        7
100
AcDbLine
 10
18.868988037
 20
-1979.817626953
 30
0.0
 11
22.901977539
 21
-1977.489257813
 31
0.0
  0
LINE
  5
16B
100
AcDbEntity
  8
CATALO
  6
SOLID
 62
        7
100
AcDbLine
 10
24.000030518
 20
-1973.391113281
 30
0.0
 11
18.488677979
 21
-1976.573120117
 31
0.0
  0
LINE
  5
16C
100
AcDbEntity
  8
CATALO
  6
SOLID
 62
        7
100
AcDbLine
 10
19.586761475
 20
-1972.475097656
 30
0.0
 11
25.098114014
 21
-1969.29309082
 31
0.0
  0
LINE
  5
16D
100
AcDbEntity
  8
CATALO
  6
SOLID
 62
        7
100
AcDbLine
 10
26.19619751
 20
-1965.194946289
 30
0.0
 11
20.684814453
 21
-1968.376953125
 31
0.0
  0
LINE
  5
16E
100
AcDbEntity
  8
CATALO
  6
SOLID
 62
        7
100
AcDbLine
 10
21.782928467
 20
-1964.278930664
 30
0.0
 11
26.520568848
 21
-1961.543579102
 31
0.0
  0
ENDBLK
  5
16F
100
AcDbEntity
  8
0
100
AcDbBlockEnd
  0
BLOCK
  5
172
100
AcDbEntity
  8
0
100
AcDbBlockBegin
  2
*H12
 70
        0
 10
0.0
 20
0.0
 30
0.0
  3
*H12
  1

  0
LINE
  5
173
100
AcDbEntity
  8
CATALO
  6
SOLID
 62
        7
100
AcDbLine
 10
5.511749268
 20
-1976.238525391
 30
0.0
 11
7.497467041
 21
-1975.092163086
 31
0.0
  0
LINE
  5
174
100
AcDbEntity
  8
CATALO
  6
SOLID
 62
        7
100
AcDbLine
 10
8.595550537
 20
-1970.994018555
 30
0.0
 11
1.413696289
 21
-1975.14050293
 31
0.0
  0
LINE
  5
175
100
AcDbEntity
  8
CATALO
  6
SOLID
 62
        7
100
AcDbLine
 10
-2.684387207
 20
-1974.042480469
 30
0.0
 11
9.693634033
 21
-1966.895996094
 31
0.0
  0
LINE
  5
176
100
AcDbEntity
  8
CATALO
  6
SOLID
 62
        7
100
AcDbLine
 10
10.791687012
 20
-1962.797851563
 30
0.0
 11
-12.905761719
 21
-1976.479614258
 31
0.0
  0
LINE
  5
177
100
AcDbEntity
  8
CATALO
  6
SOLID
 62
        7
100
AcDbLine
 10
-17.003845215
 20
-1975.381591797
 30
0.0
 11
11.889801025
 21
-1958.699829102
 31
0.0
  0
LINE
  5
178
100
AcDbEntity
  8
CATALO
  6
SOLID
 62
        7
100
AcDbLine
 10
9.516265869
 20
-1956.606079102
 30
0.0
 11
-18.548706055
 21
-1972.809326172
 31
0.0
  0
LINE
  5
179
100
AcDbEntity
  8
CATALO
  6
SOLID
 62
        7
100
AcDbLine
 10
-25.199981689
 20
-1973.185424805
 30
0.0
 11
-20.512481689
 21
-1970.479125977
 31
0.0
  0
LINE
  5
17A
100
AcDbEntity
  8
CATALO
  6
SOLID
 62
        7
100
AcDbLine
 10
-18.869476318
 20
-1969.530639648
 30
0.0
 11
5.418212891
 21
-1955.50793457
 31
0.0
  0
LINE
  5
17B
100
AcDbEntity
  8
CATALO
  6
SOLID
 62
        7
100
AcDbLine
 10
1.320129395
 20
-1954.409912109
 30
0.0
 11
-29.298065186
 21
-1972.087402344
 31
0.0
  0
LINE
  5
17C
100
AcDbEntity
  8
CATALO
  6
SOLID
 62
        7
100
AcDbLine
 10
-33.396514893
 20
-1970.989501953
 30
0.0
 11
-17.474456787
 21
-1961.796875
 31
0.0
  0
LINE
  5
17D
100
AcDbEntity
  8
CATALO
  6
SOLID
 62
        7
100
AcDbLine
 10
-13.724151611
 20
-1959.631591797
 30
0.0
 11
-2.089080811
 21
-1952.9140625
 31
0.0
  0
LINE
  5
17E
100
AcDbEntity
  8
CATALO
  6
SOLID
 62
        7
100
AcDbLine
 10
-2.929534912
 20
-1946.391479492
 30
0.0
 11
-11.502746582
 21
-1951.341186523
 31
0.0
  0
LINE
  5
17F
100
AcDbEntity
  8
CATALO
  6
SOLID
 62
        7
100
AcDbLine
 10
-25.764862061
 20
-1959.575439453
 30
0.0
 11
-29.873840332
 21
-1961.947753906
 31
0.0
  0
LINE
  5
180
100
AcDbEntity
  8
CATALO
  6
SOLID
 62
        7
100
AcDbLine
 10
-38.012298584
 20
-1966.646484375
 30
0.0
 11
-39.058746338
 21
-1967.250732422
 31
0.0
  0
ENDBLK
  5
181
100
AcDbEntity
  8
0
100
AcDbBlockEnd
  0
BLOCK
  5
346
100
AcDbEntity
  8
0
100
AcDbBlockBegin
  2
*H13
 70
        0
 10
0.0
 20
0.0
 30
0.0
  3
*H13
  1

  0
LINE
  5
347
100
AcDbEntity
  8
CATALO
  6
SOLID
 62
        7
100
AcDbLine
 10
-63.9034729
 20
-1954.274169922
 30
0.0
 11
-64.803314209
 21
-1954.793823242
 31
0.0
  0
LINE
  5
348
100
AcDbEntity
  8
CATALO
  6
SOLID
 62
        7
100
AcDbLine
 10
-64.910736084
 20
-1955.202270508
 30
0.0
 11
-63.483184814
 21
-1954.378051758
 31
0.0
  0
LINE
  5
349
100
AcDbEntity
  8
CATALO
  6
SOLID
 62
        7
100
AcDbLine
 10
-63.217498779
 20
-1954.571044922
 30
0.0
 11
-64.880523682
 21
-1955.53112793
 31
0.0
  0
LINE
  5
34A
100
AcDbEntity
  8
CATALO
  6
SOLID
 62
        7
100
AcDbLine
 10
-64.748687744
 20
-1955.801513672
 30
0.0
 11
-63.065093994
 21
-1954.829345703
 31
0.0
  0
LINE
  5
34B
100
AcDbEntity
  8
CATALO
  6
SOLID
 62
        7
100
AcDbLine
 10
-62.968292236
 20
-1955.119995117
 30
0.0
 11
-64.524810791
 21
-1956.018676758
 31
0.0
  0
LINE
  5
34C
100
AcDbEntity
  8
CATALO
  6
SOLID
 62
        7
100
AcDbLine
 10
-64.232147217
 20
-1956.196166992
 30
0.0
 11
-62.978668213
 21
-1955.472290039
 31
0.0
  0
LINE
  5
34D
100
AcDbEntity
  8
CATALO
  6
SOLID
 62
        7
100
AcDbLine
 10
-63.61239624
 20
-1956.184692383
 30
0.0
 11
-63.623260498
 21
-1956.190917969
 31
0.0
  0
ENDBLK
  5
34E
100
AcDbEntity
  8
0
100
AcDbBlockEnd
  0
BLOCK
  5
351
100
AcDbEntity
  8
0
100
AcDbBlockBegin
  2
*H14
 70
        0
 10
0.0
 20
0.0
 30
0.0
  3
*H14
  1

  0
LINE
  5
352
100
AcDbEntity
  8
CATALO
  6
SOLID
 62
        7
100
AcDbLine
 10
-62.431793213
 20
-1956.197875977
 30
0.0
 11
-62.945159912
 21
-1955.30871582
 31
0.0
  0
LINE
  5
353
100
AcDbEntity
  8
CATALO
  6
SOLID
 62
        7
100
AcDbLine
 10
-63.475616455
 20
-1954.389892578
 30
0.0
 11
-64.006866455
 21
-1953.469604492
 31
0.0
  0
LINE
  5
354
100
AcDbEntity
  8
CATALO
  6
SOLID
 62
        7
100
AcDbLine
 10
-67.446075439
 20
-1951.512817383
 30
0.0
 11
-67.27444458
 21
-1951.810058594
 31
0.0
  0
LINE
  5
355
100
AcDbEntity
  8
CATALO
  6
SOLID
 62
        7
100
AcDbLine
 10
-64.799591064
 20
-1956.096679688
 30
0.0
 11
-63.913848877
 21
-1957.630981445
 31
0.0
  0
LINE
  5
356
100
AcDbEntity
  8
CATALO
  6
SOLID
 62
        7
100
AcDbLine
 10
-65.228302002
 20
-1959.354003906
 30
0.0
 11
-66.288970947
 21
-1957.516845703
 31
0.0
  0
LINE
  5
357
100
AcDbEntity
  8
CATALO
  6
SOLID
 62
        7
100
AcDbLine
 10
-68.006561279
 20
-1954.542114258
 30
0.0
 11
-68.763885498
 21
-1953.23034668
 31
0.0
  0
LINE
  5
358
100
AcDbEntity
  8
CATALO
  6
SOLID
 62
        7
100
AcDbLine
 10
-69.622467041
 20
-1955.743164063
 30
0.0
 11
-67.960418701
 21
-1958.621948242
 31
0.0
  0
ENDBLK
  5
359
100
AcDbEntity
  8
0
100
AcDbBlockEnd
  0
BLOCK
  5
35C
100
AcDbEntity
  8
0
100
AcDbBlockBegin
  2
*H15
 70
        0
 10
0.0
 20
0.0
 30
0.0
  3
*H15
  1

  0
LINE
  5
35D
100
AcDbEntity
  8
CATALO
  6
SOLID
 62
        7
100
AcDbLine
 10
-35.203826904
 20
-1961.964233398
 30
0.0
 11
-34.684173584
 21
-1962.864257813
 31
0.0
  0
LINE
  5
35E
100
AcDbEntity
  8
CATALO
  6
SOLID
 62
        7
100
AcDbLine
 10
-34.795379639
 20
-1963.271606445
 30
0.0
 11
-35.619659424
 21
-1961.844116211
 31
0.0
  0
LINE
  5
35F
100
AcDbEntity
  8
CATALO
  6
SOLID
 62
        7
100
AcDbLine
 10
-35.946136475
 20
-1961.878417969
 30
0.0
 11
-34.986053467
 21
-1963.541381836
 31
0.0
  0
LINE
  5
360
100
AcDbEntity
  8
CATALO
  6
SOLID
 62
        7
100
AcDbLine
 10
-35.23538208
 20
-1963.709594727
 30
0.0
 11
-36.207489014
 21
-1962.025878906
 31
0.0
  0
LINE
  5
361
100
AcDbEntity
  8
CATALO
  6
SOLID
 62
        7
100
AcDbLine
 10
-36.436553955
 20
-1962.229125977
 30
0.0
 11
-35.537872314
 21
-1963.785766602
 31
0.0
  0
LINE
  5
362
100
AcDbEntity
  8
CATALO
  6
SOLID
 62
        7
100
AcDbLine
 10
-35.880157471
 20
-1963.79296875
 30
0.0
 11
-36.603790283
 21
-1962.539428711
 31
0.0
  0
LINE
  5
363
100
AcDbEntity
  8
CATALO
  6
SOLID
 62
        7
100
AcDbLine
 10
-36.41116333
 20
-1963.473144531
 30
0.0
 11
-36.404876709
 21
-1963.484130859
 31
0.0
  0
ENDBLK
  5
364
100
AcDbEntity
  8
0
100
AcDbBlockEnd
  0
BLOCK
  5
367
100
AcDbEntity
  8
0
100
AcDbBlockBegin
  2
*H16
 70
        0
 10
0.0
 20
0.0
 30
0.0
  3
*H16
  1

  0
LINE
  5
368
100
AcDbEntity
  8
CATALO
  6
SOLID
 62
        7
100
AcDbLine
 10
-37.440216064
 20
-1962.89440918
 30
0.0
 11
-36.550811768
 21
-1962.380859375
 31
0.0
  0
LINE
  5
369
100
AcDbEntity
  8
CATALO
  6
SOLID
 62
        7
100
AcDbLine
 10
-35.632232666
 20
-1961.850585938
 30
0.0
 11
-34.711883545
 21
-1961.319213867
 31
0.0
  0
LINE
  5
36A
100
AcDbEntity
  8
CATALO
  6
SOLID
 62
        7
100
AcDbLine
 10
-30.755157471
 20
-1961.344116211
 30
0.0
 11
-31.052215576
 21
-1961.51574707
 31
0.0
  0
LINE
  5
36B
100
AcDbEntity
  8
CATALO
  6
SOLID
 62
        7
100
AcDbLine
 10
-35.33883667
 20
-1963.990600586
 30
0.0
 11
-36.873199463
 21
-1964.876464844
 31
0.0
  0
LINE
  5
36C
100
AcDbEntity
  8
CATALO
  6
SOLID
 62
        7
100
AcDbLine
 10
-36.596282959
 20
-1967.026000977
 30
0.0
 11
-34.759185791
 21
-1965.965332031
 31
0.0
  0
LINE
  5
36D
100
AcDbEntity
  8
CATALO
  6
SOLID
 62
        7
100
AcDbLine
 10
-31.78427124
 20
-1964.247802734
 30
0.0
 11
-30.47253418
 21
-1963.490478516
 31
0.0
  0
LINE
  5
36E
100
AcDbEntity
  8
CATALO
  6
SOLID
 62
        7
100
AcDbLine
 10
-30.985443115
 20
-1966.095947266
 30
0.0
 11
-33.86428833
 21
-1967.758056641
 31
0.0
  0
ENDBLK
  5
36F
100
AcDbEntity
  8
0
100
AcDbBlockEnd
  0
BLOCK
  5
372
100
AcDbEntity
  8
0
100
AcDbBlockBegin
  2
*H17
 70
        0
 10
0.0
 20
0.0
 30
0.0
  3
*H17
  1

  0
LINE
  5
373
100
AcDbEntity
  8
CATALO
  6
SOLID
 62
        7
100
AcDbLine
 10
-51.944671631
 20
-1880.091674805
 30
0.0
 11
-50.173370361
 21
-1883.159790039
 31
0.0
  0
LINE
  5
374
100
AcDbEntity
  8
CATALO
  6
SOLID
 62
        7
100
AcDbLine
 10
-51.015106201
 20
-1886.301513672
 30
0.0
 11
-54.432830811
 21
-1880.381835938
 31
0.0
  0
LINE
  5
375
100
AcDbEntity
  8
CATALO
  6
SOLID
 62
        7
100
AcDbLine
 10
-55.274688721
 20
-1883.523681641
 30
0.0
 11
-51.857086182
 21
-1889.443359375
 31
0.0
  0
LINE
  5
376
100
AcDbEntity
  8
CATALO
  6
SOLID
 62
        7
100
AcDbLine
 10
-52.698822021
 20
-1892.585205078
 30
0.0
 11
-56.116546631
 21
-1886.665649414
 31
0.0
  0
LINE
  5
377
100
AcDbEntity
  8
CATALO
  6
SOLID
 62
        7
100
AcDbLine
 10
-56.958404541
 20
-1889.807373047
 30
0.0
 11
-53.540802002
 21
-1895.727050781
 31
0.0
  0
LINE
  5
378
100
AcDbEntity
  8
CATALO
  6
SOLID
 62
        7
100
AcDbLine
 10
-54.382537842
 20
-1898.868896484
 30
0.0
 11
-58.032684326
 21
-1892.546630859
 31
0.0
  0
LINE
  5
379
100
AcDbEntity
  8
CATALO
  6
SOLID
 62
        7
100
AcDbLine
 10
-59.622650146
 20
-1894.392700195
 30
0.0
 11
-55.285491943
 21
-1901.904907227
 31
0.0
  0
LINE
  5
37A
100
AcDbEntity
  8
CATALO
  6
SOLID
 62
        7
100
AcDbLine
 10
-57.674224854
 20
-1902.367919922
 30
0.0
 11
-61.567901611
 21
-1895.623535156
 31
0.0
  0
LINE
  5
37B
100
AcDbEntity
  8
CATALO
  6
SOLID
 62
        7
100
AcDbLine
 10
-63.767120361
 20
-1896.414428711
 30
0.0
 11
-60.816009521
 21
-1901.525878906
 31
0.0
  0
LINE
  5
37C
100
AcDbEntity
  8
CATALO
  6
SOLID
 62
        7
100
AcDbLine
 10
-63.95791626
 20
-1900.684204102
 30
0.0
 11
-64.608978271
 21
-1899.556396484
 31
0.0
  0
ENDBLK
  5
37D
100
AcDbEntity
  8
0
100
AcDbBlockEnd
  0
BLOCK
  5
380
100
AcDbEntity
  8
0
100
AcDbBlockBegin
  2
*H18
 70
        0
 10
0.0
 20
0.0
 30
0.0
  3
*H18
  1

  0
LINE
  5
381
100
AcDbEntity
  8
CATALO
  6
SOLID
 62
        7
100
AcDbLine
 10
-74.536346436
 20
-1896.165771484
 30
0.0
 11
-76.528289795
 21
-1897.315795898
 31
0.0
  0
LINE
  5
382
100
AcDbEntity
  8
CATALO
  6
SOLID
 62
        7
100
AcDbLine
 10
-79.277801514
 20
-1896.247436523
 30
0.0
 11
-73.694488525
 21
-1893.023925781
 31
0.0
  0
LINE
  5
383
100
AcDbEntity
  8
CATALO
  6
SOLID
 62
        7
100
AcDbLine
 10
-72.85269165
 20
-1889.882080078
 30
0.0
 11
-78.772186279
 21
-1893.299804688
 31
0.0
  0
LINE
  5
384
100
AcDbEntity
  8
CATALO
  6
SOLID
 62
        7
100
AcDbLine
 10
-77.930450439
 20
-1890.157958984
 30
0.0
 11
-72.01083374
 21
-1886.740234375
 31
0.0
  0
LINE
  5
385
100
AcDbEntity
  8
CATALO
  6
SOLID
 62
        7
100
AcDbLine
 10
-66.310760498
 20
-1880.793579102
 30
0.0
 11
-68.112823486
 21
-1881.834106445
 31
0.0
  0
LINE
  5
386
100
AcDbEntity
  8
CATALO
  6
SOLID
 62
        7
100
AcDbLine
 10
-68.459320068
 20
-1882.034057617
 30
0.0
 11
-77.088470459
 21
-1887.015991211
 31
0.0
  0
LINE
  5
387
100
AcDbEntity
  8
CATALO
  6
SOLID
 62
        7
100
AcDbLine
 10
-76.246734619
 20
-1883.874145508
 30
0.0
 11
-65.468780518
 21
-1877.651611328
 31
0.0
  0
LINE
  5
388
100
AcDbEntity
  8
CATALO
  6
SOLID
 62
        7
100
AcDbLine
 10
-67.210235596
 20
-1876.001220703
 30
0.0
 11
-75.404754639
 21
-1880.732299805
 31
0.0
  0
LINE
  5
389
100
AcDbEntity
  8
CATALO
  6
SOLID
 62
        7
100
AcDbLine
 10
-74.563018799
 20
-1877.590454102
 30
0.0
 11
-70.352081299
 21
-1875.159301758
 31
0.0
  0
ENDBLK
  5
38A
100
AcDbEntity
  8
0
100
AcDbBlockEnd
  0
BLOCK
  5
38D
100
AcDbEntity
  8
0
100
AcDbBlockBegin
  2
*H19
 70
        0
 10
0.0
 20
0.0
 30
0.0
  3
*H19
  1

  0
LINE
  5
38E
100
AcDbEntity
  8
CATALO
  6
SOLID
 62
        7
100
AcDbLine
 10
-7.790130615
 20
-1891.922973633
 30
0.0
 11
-6.640197754
 21
-1893.914672852
 31
0.0
  0
LINE
  5
38F
100
AcDbEntity
  8
CATALO
  6
SOLID
 62
        7
100
AcDbLine
 10
-7.482086182
 20
-1897.056518555
 30
0.0
 11
-10.602081299
 21
-1891.65246582
 31
0.0
  0
LINE
  5
390
100
AcDbEntity
  8
CATALO
  6
SOLID
 62
        7
100
AcDbLine
 10
-11.741546631
 20
-1894.278686523
 30
0.0
 11
-8.323822021
 21
-1900.198364258
 31
0.0
  0
LINE
  5
391
100
AcDbEntity
  8
CATALO
  6
SOLID
 62
        7
100
AcDbLine
 10
-9.165802002
 20
-1903.340209961
 30
0.0
 11
-12.583526611
 21
-1897.420654297
 31
0.0
  0
LINE
  5
392
100
AcDbEntity
  8
CATALO
  6
SOLID
 62
        7
100
AcDbLine
 10
-13.425292969
 20
-1900.5625
 30
0.0
 11
-8.693115234
 21
-1908.759277344
 31
0.0
  0
LINE
  5
393
100
AcDbEntity
  8
CATALO
  6
SOLID
 62
        7
100
AcDbLine
 10
-8.579193115
 20
-1908.956176758
 30
0.0
 11
-6.566375732
 21
-1912.442504883
 31
0.0
  0
LINE
  5
394
100
AcDbEntity
  8
CATALO
  6
SOLID
 62
        7
100
AcDbLine
 10
-7.408233643
 20
-1915.584350586
 30
0.0
 11
-14.267272949
 21
-1903.704345703
 31
0.0
  0
LINE
  5
395
100
AcDbEntity
  8
CATALO
  6
SOLID
 62
        7
100
AcDbLine
 10
-15.109008789
 20
-1906.846191406
 30
0.0
 11
-10.37802124
 21
-1915.040893555
 31
0.0
  0
LINE
  5
396
100
AcDbEntity
  8
CATALO
  6
SOLID
 62
        7
100
AcDbLine
 10
-13.519866943
 20
-1914.198852539
 30
0.0
 11
-15.950958252
 21
-1909.988037109
 31
0.0
  0
ENDBLK
  5
397
100
AcDbEntity
  8
0
100
AcDbBlockEnd
  0
BLOCK
  5
39A
100
AcDbEntity
  8
0
100
AcDbBlockBegin
  2
*H20
 70
        0
 10
0.0
 20
0.0
 30
0.0
  3
*H20
  1

  0
LINE
  5
39B
100
AcDbEntity
  8
CATALO
  6
SOLID
 62
        7
100
AcDbLine
 10
7.879882813
 20
-1917.642700195
 30
0.0
 11
5.170715332
 21
-1919.20690918
 31
0.0
  0
LINE
  5
39C
100
AcDbEntity
  8
CATALO
  6
SOLID
 62
        7
100
AcDbLine
 10
2.802185059
 20
-1917.918579102
 30
0.0
 11
8.721832275
 21
-1914.500854492
 31
0.0
  0
LINE
  5
39D
100
AcDbEntity
  8
CATALO
  6
SOLID
 62
        7
100
AcDbLine
 10
9.563598633
 20
-1911.359008789
 30
0.0
 11
3.644042969
 21
-1914.776733398
 31
0.0
  0
LINE
  5
39E
100
AcDbEntity
  8
CATALO
  6
SOLID
 62
        7
100
AcDbLine
 10
4.485900879
 20
-1911.634887695
 30
0.0
 11
10.405548096
 21
-1908.217163086
 31
0.0
  0
LINE
  5
39F
100
AcDbEntity
  8
CATALO
  6
SOLID
 62
        7
100
AcDbLine
 10
11.247406006
 20
-1905.075317383
 30
0.0
 11
5.327758789
 21
-1908.493041992
 31
0.0
  0
LINE
  5
3A0
100
AcDbEntity
  8
CATALO
  6
SOLID
 62
        7
100
AcDbLine
 10
5.845092773
 20
-1905.538452148
 30
0.0
 11
12.089263916
 21
-1901.93347168
 31
0.0
  0
LINE
  5
3A1
100
AcDbEntity
  8
CATALO
  6
SOLID
 62
        7
100
AcDbLine
 10
12.884674072
 20
-1898.818359375
 30
0.0
 11
5.48223877
 21
-1903.092163086
 31
0.0
  0
LINE
  5
3A2
100
AcDbEntity
  8
CATALO
  6
SOLID
 62
        7
100
AcDbLine
 10
4.430297852
 20
-1901.043701172
 30
0.0
 11
11.346832275
 21
-1897.050537109
 31
0.0
  0
LINE
  5
3A3
100
AcDbEntity
  8
CATALO
  6
SOLID
 62
        7
100
AcDbLine
 10
8.204956055
 20
-1896.208618164
 30
0.0
 11
3.837036133
 21
-1898.73046875
 31
0.0
  0
LINE
  5
3A4
100
AcDbEntity
  8
CATALO
  6
SOLID
 62
        7
100
AcDbLine
 10
4.678924561
 20
-1895.588500977
 30
0.0
 11
5.063110352
 21
-1895.366821289
 31
0.0
  0
ENDBLK
  5
3A5
100
AcDbEntity
  8
0
100
AcDbBlockEnd
  0
BLOCK
  5
3A8
100
AcDbEntity
  8
0
100
AcDbBlockBegin
  2
*H21
 70
        0
 10
0.0
 20
0.0
 30
0.0
  3
*H21
  1

  0
LINE
  5
3A9
100
AcDbEntity
  8
CATALO
  6
SOLID
 62
        7
100
AcDbLine
 10
-63.850311279
 20
-1924.524169922
 30
0.0
 11
-60.78237915
 21
-1922.752929688
 31
0.0
  0
LINE
  5
3AA
100
AcDbEntity
  8
CATALO
  6
SOLID
 62
        7
100
AcDbLine
 10
-59.940643311
 20
-1919.610961914
 30
0.0
 11
-65.860076904
 21
-1923.028686523
 31
0.0
  0
LINE
  5
3AB
100
AcDbEntity
  8
CATALO
  6
SOLID
 62
        7
100
AcDbLine
 10
-65.018218994
 20
-1919.88684082
 30
0.0
 11
-59.098602295
 21
-1916.469238281
 31
0.0
  0
LINE
  5
3AC
100
AcDbEntity
  8
CATALO
  6
SOLID
 62
        7
100
AcDbLine
 10
-58.256744385
 20
-1913.327392578
 30
0.0
 11
-64.176422119
 21
-1916.745117188
 31
0.0
  0
LINE
  5
3AD
100
AcDbEntity
  8
CATALO
  6
SOLID
 62
        7
100
AcDbLine
 10
-63.334564209
 20
-1913.603027344
 30
0.0
 11
-57.41494751
 21
-1910.185546875
 31
0.0
  0
LINE
  5
3AE
100
AcDbEntity
  8
CATALO
  6
SOLID
 62
        7
100
AcDbLine
 10
-56.572906494
 20
-1907.043579102
 30
0.0
 11
-62.895172119
 21
-1910.693725586
 31
0.0
  0
LINE
  5
3AF
100
AcDbEntity
  8
CATALO
  6
SOLID
 62
        7
100
AcDbLine
 10
-63.349212646
 20
-1908.300048828
 30
0.0
 11
-55.837188721
 21
-1903.962890625
 31
0.0
  0
LINE
  5
3B0
100
AcDbEntity
  8
CATALO
  6
SOLID
 62
        7
100
AcDbLine
 10
-57.674224854
 20
-1902.367919922
 30
0.0
 11
-64.418487549
 21
-1906.261474609
 31
0.0
  0
LINE
  5
3B1
100
AcDbEntity
  8
CATALO
  6
SOLID
 62
        7
100
AcDbLine
 10
-65.927581787
 20
-1904.476928711
 30
0.0
 11
-60.816009521
 21
-1901.525878906
 31
0.0
  0
LINE
  5
3B2
100
AcDbEntity
  8
CATALO
  6
SOLID
 62
        7
100
AcDbLine
 10
-63.957977295
 20
-1900.683959961
 30
0.0
 11
-65.085723877
 21
-1901.335083008
 31
0.0
  0
ENDBLK
  5
3B3
100
AcDbEntity
  8
0
100
AcDbBlockEnd
  0
BLOCK
  5
3B6
100
AcDbEntity
  8
0
100
AcDbBlockBegin
  2
*H22
 70
        0
 10
0.0
 20
0.0
 30
0.0
  3
*H22
  1

  0
LINE
  5
3B7
100
AcDbEntity
  8
CATALO
  6
SOLID
 62
        7
100
AcDbLine
 10
-75.378265381
 20
-1899.307617188
 30
0.0
 11
-76.52835083
 21
-1897.315795898
 31
0.0
  0
LINE
  5
3B8
100
AcDbEntity
  8
CATALO
  6
SOLID
 62
        7
100
AcDbLine
 10
-79.443695068
 20
-1896.866210938
 30
0.0
 11
-76.220062256
 21
-1902.449584961
 31
0.0
  0
LINE
  5
3B9
100
AcDbEntity
  8
CATALO
  6
SOLID
 62
        7
100
AcDbLine
 10
-77.061920166
 20
-1905.591430664
 30
0.0
 11
-80.479827881
 21
-1899.67199707
 31
0.0
  0
LINE
  5
3BA
100
AcDbEntity
  8
CATALO
  6
SOLID
 62
        7
100
AcDbLine
 10
-81.321502686
 20
-1902.813598633
 30
0.0
 11
-77.903778076
 21
-1908.733276367
 31
0.0
  0
LINE
  5
3BB
100
AcDbEntity
  8
CATALO
  6
SOLID
 62
        7
100
AcDbLine
 10
-75.940948486
 20
-1916.733398438
 30
0.0
 11
-76.981292725
 21
-1914.931152344
 31
0.0
  0
LINE
  5
3BC
100
AcDbEntity
  8
CATALO
  6
SOLID
 62
        7
100
AcDbLine
 10
-77.181365967
 20
-1914.584716797
 30
0.0
 11
-82.163543701
 21
-1905.955566406
 31
0.0
  0
LINE
  5
3BD
100
AcDbEntity
  8
CATALO
  6
SOLID
 62
        7
100
AcDbLine
 10
-83.005279541
 20
-1909.097412109
 30
0.0
 11
-76.782806396
 21
-1919.875244141
 31
0.0
  0
LINE
  5
3BE
100
AcDbEntity
  8
CATALO
  6
SOLID
 62
        7
100
AcDbLine
 10
-79.11605835
 20
-1920.43371582
 30
0.0
 11
-83.847015381
 21
-1912.239257813
 31
0.0
  0
LINE
  5
3BF
100
AcDbEntity
  8
CATALO
  6
SOLID
 62
        7
100
AcDbLine
 10
-84.688995361
 20
-1915.381103516
 30
0.0
 11
-82.257843018
 21
-1919.591918945
 31
0.0
  0
ENDBLK
  5
3C0
100
AcDbEntity
  8
0
100
AcDbBlockEnd
  0
BLOCK
  5
3C3
100
AcDbEntity
  8
0
100
AcDbBlockBegin
  2
*H23
 70
        0
 10
0.0
 20
0.0
 30
0.0
  3
*H23
  1

  0
LINE
  5
3C4
100
AcDbEntity
  8
CATALO
  6
SOLID
 62
        7
100
AcDbLine
 10
-19.695922852
 20
-1936.35534668
 30
0.0
 11
-17.704071045
 21
-1935.205322266
 31
0.0
  0
LINE
  5
3C5
100
AcDbEntity
  8
CATALO
  6
SOLID
 62
        7
100
AcDbLine
 10
-16.862213135
 20
-1932.063476563
 30
0.0
 11
-22.266204834
 21
-1935.18347168
 31
0.0
  0
LINE
  5
3C6
100
AcDbEntity
  8
CATALO
  6
SOLID
 62
        7
100
AcDbLine
 10
-21.939971924
 20
-1932.339355469
 30
0.0
 11
-16.020324707
 21
-1928.921630859
 31
0.0
  0
LINE
  5
3C7
100
AcDbEntity
  8
CATALO
  6
SOLID
 62
        7
100
AcDbLine
 10
-15.178466797
 20
-1925.779785156
 30
0.0
 11
-21.098114014
 21
-1929.197509766
 31
0.0
  0
LINE
  5
3C8
100
AcDbEntity
  8
CATALO
  6
SOLID
 62
        7
100
AcDbLine
 10
-20.256256104
 20
-1926.055541992
 30
0.0
 11
-12.05960083
 21
-1921.323242188
 31
0.0
  0
LINE
  5
3C9
100
AcDbEntity
  8
CATALO
  6
SOLID
 62
        7
100
AcDbLine
 10
-11.862579346
 20
-1921.209472656
 30
0.0
 11
-8.376159668
 21
-1919.196655273
 31
0.0
  0
LINE
  5
3CA
100
AcDbEntity
  8
CATALO
  6
SOLID
 62
        7
100
AcDbLine
 10
-7.534393311
 20
-1916.05480957
 30
0.0
 11
-19.414489746
 21
-1922.913696289
 31
0.0
  0
LINE
  5
3CB
100
AcDbEntity
  8
CATALO
  6
SOLID
 62
        7
100
AcDbLine
 10
-18.572540283
 20
-1919.771850586
 30
0.0
 11
-10.37802124
 21
-1915.040893555
 31
0.0
  0
LINE
  5
3CC
100
AcDbEntity
  8
CATALO
  6
SOLID
 62
        7
100
AcDbLine
 10
-13.519866943
 20
-1914.198852539
 30
0.0
 11
-17.730712891
 21
-1916.630126953
 31
0.0
  0
ENDBLK
  5
3CD
100
AcDbEntity
  8
0
100
AcDbBlockEnd
  0
BLOCK
  5
3D0
100
AcDbEntity
  8
0
100
AcDbBlockBegin
  2
*H24
 70
        0
 10
0.0
 20
0.0
 30
0.0
  3
*H24
  1

  0
LINE
  5
3D1
100
AcDbEntity
  8
CATALO
  6
SOLID
 62
        7
100
AcDbLine
 10
6.734649658
 20
-1921.916259766
 30
0.0
 11
5.170532227
 21
-1919.20690918
 31
0.0
  0
LINE
  5
3D2
100
AcDbEntity
  8
CATALO
  6
SOLID
 62
        7
100
AcDbLine
 10
2.475189209
 20
-1919.138427734
 30
0.0
 11
5.892913818
 21
-1925.058105469
 31
0.0
  0
LINE
  5
3D3
100
AcDbEntity
  8
CATALO
  6
SOLID
 62
        7
100
AcDbLine
 10
5.051055908
 20
-1928.199951172
 30
0.0
 11
1.633331299
 21
-1922.280273438
 31
0.0
  0
LINE
  5
3D4
100
AcDbEntity
  8
CATALO
  6
SOLID
 62
        7
100
AcDbLine
 10
0.791473389
 20
-1925.422363281
 30
0.0
 11
4.209197998
 21
-1931.341796875
 31
0.0
  0
LINE
  5
3D5
100
AcDbEntity
  8
CATALO
  6
SOLID
 62
        7
100
AcDbLine
 10
3.367340088
 20
-1934.483764648
 30
0.0
 11
-0.050354004
 21
-1928.564086914
 31
0.0
  0
LINE
  5
3D6
100
AcDbEntity
  8
CATALO
  6
SOLID
 62
        7
100
AcDbLine
 10
-1.079528809
 20
-1931.381469727
 30
0.0
 11
2.525482178
 21
-1937.625488281
 31
0.0
  0
LINE
  5
3D7
100
AcDbEntity
  8
CATALO
  6
SOLID
 62
        7
100
AcDbLine
 10
1.656890869
 20
-1940.721069336
 30
0.0
 11
-2.616943359
 21
-1933.318603516
 31
0.0
  0
LINE
  5
3D8
100
AcDbEntity
  8
CATALO
  6
SOLID
 62
        7
100
AcDbLine
 10
-4.552154541
 20
-1934.566650391
 30
0.0
 11
-0.558990479
 21
-1941.483032227
 31
0.0
  0
LINE
  5
3D9
100
AcDbEntity
  8
CATALO
  6
SOLID
 62
        7
100
AcDbLine
 10
-3.700836182
 20
-1940.641235352
 30
0.0
 11
-6.222686768
 21
-1936.2734375
 31
0.0
  0
LINE
  5
3DA
100
AcDbEntity
  8
CATALO
  6
SOLID
 62
        7
100
AcDbLine
 10
-7.064422607
 20
-1939.415283203
 30
0.0
 11
-6.842681885
 21
-1939.799316406
 31
0.0
  0
ENDBLK
  5
3DB
100
AcDbEntity
  8
0
100
AcDbBlockEnd
  0
BLOCK
  5
3DE
100
AcDbEntity
  8
0
100
AcDbBlockBegin
  2
*H25
 70
        0
 10
0.0
 20
0.0
 30
0.0
  3
*H25
  1

  0
LINE
  5
3DF
100
AcDbEntity
  8
CATALO
  6
SOLID
 62
        7
100
AcDbLine
 10
-2.479553223
 20
-1948.055053711
 30
0.0
 11
-2.982177734
 21
-1947.184570313
 31
0.0
  0
LINE
  5
3E0
100
AcDbEntity
  8
CATALO
  6
SOLID
 62
        7
100
AcDbLine
 10
-2.983642578
 20
-1946.782104492
 30
0.0
 11
-2.131622314
 21
-1948.2578125
 31
0.0
  0
LINE
  5
3E1
100
AcDbEntity
  8
CATALO
  6
SOLID
 62
        7
100
AcDbLine
 10
-1.823852539
 20
-1948.391113281
 30
0.0
 11
-2.945129395
 21
-1946.44909668
 31
0.0
  0
LINE
  5
3E2
100
AcDbEntity
  8
CATALO
  6
SOLID
 62
        7
100
AcDbLine
 10
-2.871948242
 20
-1946.176025391
 30
0.0
 11
-1.582244873
 21
-1948.409667969
 31
0.0
  0
LINE
  5
3E3
100
AcDbEntity
  8
CATALO
  6
SOLID
 62
        7
100
AcDbLine
 10
-1.342315674
 20
-1948.425415039
 30
0.0
 11
-2.79864502
 21
-1945.902832031
 31
0.0
  0
LINE
  5
3E4
100
AcDbEntity
  8
CATALO
  6
SOLID
 62
        7
100
AcDbLine
 10
-2.725463867
 20
-1945.629760742
 30
0.0
 11
-1.126617432
 21
-1948.399047852
 31
0.0
  0
LINE
  5
3E5
100
AcDbEntity
  8
CATALO
  6
SOLID
 62
        7
100
AcDbLine
 10
-0.933532715
 20
-1948.333618164
 30
0.0
 11
-2.652252197
 21
-1945.356567383
 31
0.0
  0
LINE
  5
3E6
100
AcDbEntity
  8
CATALO
  6
SOLID
 62
        7
100
AcDbLine
 10
-2.579071045
 20
-1945.083496094
 30
0.0
 11
-0.740325928
 21
-1948.268188477
 31
0.0
  0
LINE
  5
3E7
100
AcDbEntity
  8
CATALO
  6
SOLID
 62
        7
100
AcDbLine
 10
-0.573059082
 20
-1948.158081055
 30
0.0
 11
-2.472717285
 21
-1944.867797852
 31
0.0
  0
LINE
  5
3E8
100
AcDbEntity
  8
CATALO
  6
SOLID
 62
        7
100
AcDbLine
 10
-2.366394043
 20
-1944.651977539
 30
0.0
 11
-0.419799805
 21
-1948.023681641
 31
0.0
  0
LINE
  5
3E9
100
AcDbEntity
  8
CATALO
  6
SOLID
 62
        7
100
AcDbLine
 10
-0.266601563
 20
-1947.889160156
 30
0.0
 11
-2.233673096
 21
-1944.482177734
 31
0.0
  0
LINE
  5
3EA
100
AcDbEntity
  8
CATALO
  6
SOLID
 62
        7
100
AcDbLine
 10
-2.080474854
 20
-1944.34765625
 30
0.0
 11
-0.149627686
 21
-1947.691772461
 31
0.0
  0
LINE
  5
3EB
100
AcDbEntity
  8
CATALO
  6
SOLID
 62
        7
100
AcDbLine
 10
-0.043334961
 20
-1947.476196289
 30
0.0
 11
-1.927093506
 21
-1944.213378906
 31
0.0
  0
LINE
  5
3EC
100
AcDbEntity
  8
CATALO
  6
SOLID
 62
        7
100
AcDbLine
 10
-1.746154785
 20
-1944.126586914
 30
0.0
 11
0.051574707
 21
-1947.240844727
 31
0.0
  0
LINE
  5
3ED
100
AcDbEntity
  8
CATALO
  6
SOLID
 62
        7
100
AcDbLine
 10
0.12487793
 20
-1946.967773438
 30
0.0
 11
-1.553070068
 21
-1944.061157227
 31
0.0
  0
LINE
  5
3EE
100
AcDbEntity
  8
CATALO
  6
SOLID
 62
        7
100
AcDbLine
 10
-1.360107422
 20
-1943.995605469
 30
0.0
 11
0.1980896
 21
-1946.694458008
 31
0.0
  0
LINE
  5
3EF
100
AcDbEntity
  8
CATALO
  6
SOLID
 62
        7
100
AcDbLine
 10
0.271270752
 20
-1946.421386719
 30
0.0
 11
-1.128417969
 21
-1943.996948242
 31
0.0
  0
LINE
  5
3F0
100
AcDbEntity
  8
CATALO
  6
SOLID
 62
        7
100
AcDbLine
 10
-0.888458252
 20
-1944.012573242
 30
0.0
 11
0.344451904
 21
-1946.148193359
 31
0.0
  0
LINE
  5
3F1
100
AcDbEntity
  8
CATALO
  6
SOLID
 62
        7
100
AcDbLine
 10
0.41583252
 20
-1945.871948242
 30
0.0
 11
-0.633789063
 21
-1944.053955078
 31
0.0
  0
LINE
  5
3F2
100
AcDbEntity
  8
CATALO
  6
SOLID
 62
        7
100
AcDbLine
 10
-0.311035156
 20
-1944.213012695
 30
0.0
 11
0.43951416
 21
-1945.512817383
 31
0.0
  0
LINE
  5
3F3
100
AcDbEntity
  8
CATALO
  6
SOLID
 62
        7
100
AcDbLine
 10
0.31817627
 20
-1944.902709961
 30
0.0
 11
0.156707764
 21
-1944.623291016
 31
0.0
  0
ENDBLK
  5
3F4
100
AcDbEntity
  8
0
100
AcDbBlockEnd
  0
BLOCK
  5
3F7
100
AcDbEntity
  8
0
100
AcDbBlockBegin
  2
*H26
 70
        0
 10
0.0
 20
0.0
 30
0.0
  3
*H26
  1

  0
LINE
  5
3F8
100
AcDbEntity
  8
CATALO
  6
SOLID
 62
        7
100
AcDbLine
 10
11.45022583
 20
-1934.705566406
 30
0.0
 11
10.947814941
 21
-1933.835449219
 31
0.0
  0
LINE
  5
3F9
100
AcDbEntity
  8
CATALO
  6
SOLID
 62
        7
100
AcDbLine
 10
10.946166992
 20
-1933.432739258
 30
0.0
 11
11.798217773
 21
-1934.908447266
 31
0.0
  0
LINE
  5
3FA
100
AcDbEntity
  8
CATALO
  6
SOLID
 62
        7
100
AcDbLine
 10
12.095825195
 20
-1935.024047852
 30
0.0
 11
10.984741211
 21
-1933.099731445
 31
0.0
  0
LINE
  5
3FB
100
AcDbEntity
  8
CATALO
  6
SOLID
 62
        7
100
AcDbLine
 10
11.057952881
 20
-1932.826538086
 30
0.0
 11
12.335662842
 21
-1935.039794922
 31
0.0
  0
LINE
  5
3FC
100
AcDbEntity
  8
CATALO
  6
SOLID
 62
        7
100
AcDbLine
 10
12.575744629
 20
-1935.055419922
 30
0.0
 11
11.131225586
 21
-1932.553466797
 31
0.0
  0
LINE
  5
3FD
100
AcDbEntity
  8
CATALO
  6
SOLID
 62
        7
100
AcDbLine
 10
11.204315186
 20
-1932.280395508
 30
0.0
 11
12.774963379
 21
-1935.000488281
 31
0.0
  0
LINE
  5
3FE
100
AcDbEntity
  8
CATALO
  6
SOLID
 62
        7
100
AcDbLine
 10
12.967926025
 20
-1934.934936523
 30
0.0
 11
11.277618408
 21
-1932.007202148
 31
0.0
  0
LINE
  5
3FF
100
AcDbEntity
  8
CATALO
  6
SOLID
 62
        7
100
AcDbLine
 10
11.35067749
 20
-1931.733886719
 30
0.0
 11
13.161010742
 21
-1934.869506836
 31
0.0
  0
LINE
  5
400
100
AcDbEntity
  8
CATALO
  6
SOLID
 62
        7
100
AcDbLine
 10
13.314208984
 20
-1934.734985352
 30
0.0
 11
11.457061768
 21
-1931.518188477
 31
0.0
  0
LINE
  5
401
100
AcDbEntity
  8
CATALO
  6
SOLID
 62
        7
100
AcDbLine
 10
11.563232422
 20
-1931.302612305
 30
0.0
 11
13.467529297
 21
-1934.600585938
 31
0.0
  0
LINE
  5
402
100
AcDbEntity
  8
CATALO
  6
SOLID
 62
        7
100
AcDbLine
 10
13.614776611
 20
-1934.455688477
 30
0.0
 11
11.696105957
 21
-1931.132568359
 31
0.0
  0
LINE
  5
403
100
AcDbEntity
  8
CATALO
  6
SOLID
 62
        7
100
AcDbLine
 10
11.849365234
 20
-1930.998168945
 30
0.0
 11
13.721099854
 21
-1934.239990234
 31
0.0
  0
LINE
  5
404
100
AcDbEntity
  8
CATALO
  6
SOLID
 62
        7
100
AcDbLine
 10
13.827392578
 20
-1934.024291992
 30
0.0
 11
12.002685547
 21
-1930.863647461
 31
0.0
  0
LINE
  5
405
100
AcDbEntity
  8
CATALO
  6
SOLID
 62
        7
100
AcDbLine
 10
12.18347168
 20
-1930.777099609
 30
0.0
 11
13.910797119
 21
-1933.768920898
 31
0.0
  0
LINE
  5
406
100
AcDbEntity
  8
CATALO
  6
SOLID
 62
        7
100
AcDbLine
 10
13.983978271
 20
-1933.495605469
 30
0.0
 11
12.376556396
 21
-1930.711547852
 31
0.0
  0
LINE
  5
407
100
AcDbEntity
  8
CATALO
  6
SOLID
 62
        7
100
AcDbLine
 10
12.569671631
 20
-1930.645996094
 30
0.0
 11
14.057128906
 21
-1933.22253418
 31
0.0
  0
LINE
  5
408
100
AcDbEntity
  8
CATALO
  6
SOLID
 62
        7
100
AcDbLine
 10
14.130218506
 20
-1932.94934082
 30
0.0
 11
12.801239014
 21
-1930.647338867
 31
0.0
  0
LINE
  5
409
100
AcDbEntity
  8
CATALO
  6
SOLID
 62
        7
100
AcDbLine
 10
13.041412354
 20
-1930.663085938
 30
0.0
 11
14.203521729
 21
-1932.676269531
 31
0.0
  0
LINE
  5
40A
100
AcDbEntity
  8
CATALO
  6
SOLID
 62
        7
100
AcDbLine
 10
14.257324219
 20
-1932.369506836
 30
0.0
 11
13.313415527
 21
-1930.734619141
 31
0.0
  0
LINE
  5
40B
100
AcDbEntity
  8
CATALO
  6
SOLID
 62
        7
100
AcDbLine
 10
13.636383057
 20
-1930.893798828
 30
0.0
 11
14.280853271
 21
-1932.010253906
 31
0.0
  0
ENDBLK
  5
40C
100
AcDbEntity
  8
0
100
AcDbBlockEnd
  0
BLOCK
  5
40F
100
AcDbEntity
  8
0
100
AcDbBlockBegin
  2
*H27
 70
        0
 10
0.0
 20
0.0
 30
0.0
  3
*H27
  1

  0
LINE
  5
410
100
AcDbEntity
  8
CATALO
  6
SOLID
 62
        7
100
AcDbLine
 10
-85.288726807
 20
-1925.866455078
 30
0.0
 11
-84.418121338
 21
-1925.363891602
 31
0.0
  0
LINE
  5
411
100
AcDbEntity
  8
CATALO
  6
SOLID
 62
        7
100
AcDbLine
 10
-84.21572876
 20
-1925.015991211
 30
0.0
 11
-85.691497803
 21
-1925.868164063
 31
0.0
  0
LINE
  5
412
100
AcDbEntity
  8
CATALO
  6
SOLID
 62
        7
100
AcDbLine
 10
-86.024688721
 20
-1925.829467773
 30
0.0
 11
-84.082611084
 21
-1924.708374023
 31
0.0
  0
LINE
  5
413
100
AcDbEntity
  8
CATALO
  6
SOLID
 62
        7
100
AcDbLine
 10
-84.009429932
 20
-1924.435180664
 30
0.0
 11
-86.24319458
 21
-1925.724731445
 31
0.0
  0
LINE
  5
414
100
AcDbEntity
  8
CATALO
  6
SOLID
 62
        7
100
AcDbLine
 10
-86.458892822
 20
-1925.618530273
 30
0.0
 11
-83.93637085
 21
-1924.162109375
 31
0.0
  0
LINE
  5
415
100
AcDbEntity
  8
CATALO
  6
SOLID
 62
        7
100
AcDbLine
 10
-83.863189697
 20
-1923.888916016
 30
0.0
 11
-86.632354736
 21
-1925.487915039
 31
0.0
  0
LINE
  5
416
100
AcDbEntity
  8
CATALO
  6
SOLID
 62
        7
100
AcDbLine
 10
-86.766937256
 20
-1925.334594727
 30
0.0
 11
-83.790008545
 21
-1923.615722656
 31
0.0
  0
LINE
  5
417
100
AcDbEntity
  8
CATALO
  6
SOLID
 62
        7
100
AcDbLine
 10
-83.716827393
 20
-1923.342773438
 30
0.0
 11
-86.901580811
 21
-1925.181274414
 31
0.0
  0
LINE
  5
418
100
AcDbEntity
  8
CATALO
  6
SOLID
 62
        7
100
AcDbLine
 10
-86.991363525
 20
-1925.002319336
 30
0.0
 11
-83.700958252
 21
-1923.102661133
 31
0.0
  0
LINE
  5
419
100
AcDbEntity
  8
CATALO
  6
SOLID
 62
        7
100
AcDbLine
 10
-83.685150146
 20
-1922.862670898
 30
0.0
 11
-87.056915283
 21
-1924.809326172
 31
0.0
  0
LINE
  5
41A
100
AcDbEntity
  8
CATALO
  6
SOLID
 62
        7
100
AcDbLine
 10
-87.122344971
 20
-1924.616333008
 30
0.0
 11
-83.715301514
 21
-1922.649169922
 31
0.0
  0
LINE
  5
41B
100
AcDbEntity
  8
CATALO
  6
SOLID
 62
        7
100
AcDbLine
 10
-83.780853271
 20
-1922.456298828
 30
0.0
 11
-87.124908447
 21
-1924.38684082
 31
0.0
  0
LINE
  5
41C
100
AcDbEntity
  8
CATALO
  6
SOLID
 62
        7
100
AcDbLine
 10
-87.109161377
 20
-1924.146972656
 30
0.0
 11
-83.846405029
 21
-1922.263183594
 31
0.0
  0
LINE
  5
41D
100
AcDbEntity
  8
CATALO
  6
SOLID
 62
        7
100
AcDbLine
 10
-83.959625244
 20
-1922.09765625
 30
0.0
 11
-87.073944092
 21
-1923.895507813
 31
0.0
  0
LINE
  5
41E
100
AcDbEntity
  8
CATALO
  6
SOLID
 62
        7
100
AcDbLine
 10
-87.000640869
 20
-1923.622436523
 30
0.0
 11
-84.094085693
 21
-1921.944335938
 31
0.0
  0
LINE
  5
41F
100
AcDbEntity
  8
CATALO
  6
SOLID
 62
        7
100
AcDbLine
 10
-84.228424072
 20
-1921.791137695
 30
0.0
 11
-86.927337646
 21
-1923.349487305
 31
0.0
  0
LINE
  5
420
100
AcDbEntity
  8
CATALO
  6
SOLID
 62
        7
100
AcDbLine
 10
-86.854217529
 20
-1923.076171875
 30
0.0
 11
-84.429718018
 21
-1921.676391602
 31
0.0
  0
LINE
  5
421
100
AcDbEntity
  8
CATALO
  6
SOLID
 62
        7
100
AcDbLine
 10
-84.645477295
 20
-1921.570068359
 30
0.0
 11
-86.781158447
 21
-1922.802978516
 31
0.0
  0
LINE
  5
422
100
AcDbEntity
  8
CATALO
  6
SOLID
 62
        7
100
AcDbLine
 10
-86.704742432
 20
-1922.528076172
 30
0.0
 11
-84.886749268
 21
-1921.478393555
 31
0.0
  0
LINE
  5
423
100
AcDbEntity
  8
CATALO
  6
SOLID
 62
        7
100
AcDbLine
 10
-85.245635986
 20
-1921.454833984
 30
0.0
 11
-86.545501709
 21
-1922.205200195
 31
0.0
  0
LINE
  5
424
100
AcDbEntity
  8
CATALO
  6
SOLID
 62
        7
100
AcDbLine
 10
-86.135345459
 20
-1921.737548828
 30
0.0
 11
-85.855987549
 21
-1921.576171875
 31
0.0
  0
ENDBLK
  5
425
100
AcDbEntity
  8
0
100
AcDbBlockEnd
  0
BLOCK
  5
428
100
AcDbEntity
  8
0
100
AcDbBlockBegin
  2
*H28
 70
        0
 10
0.0
 20
0.0
 30
0.0
  3
*H28
  1

  0
LINE
  5
429
100
AcDbEntity
  8
CATALO
  6
SOLID
 62
        7
100
AcDbLine
 10
-90.677459717
 20
-1907.340454102
 30
0.0
 11
-89.8074646
 21
-1906.838134766
 31
0.0
  0
LINE
  5
42A
100
AcDbEntity
  8
CATALO
  6
SOLID
 62
        7
100
AcDbLine
 10
-89.604522705
 20
-1906.490234375
 30
0.0
 11
-91.080291748
 21
-1907.342163086
 31
0.0
  0
LINE
  5
42B
100
AcDbEntity
  8
CATALO
  6
SOLID
 62
        7
100
AcDbLine
 10
-91.395965576
 20
-1907.293457031
 30
0.0
 11
-89.471588135
 21
-1906.182495117
 31
0.0
  0
LINE
  5
42C
100
AcDbEntity
  8
CATALO
  6
SOLID
 62
        7
100
AcDbLine
 10
-89.398345947
 20
-1905.909301758
 30
0.0
 11
-91.611480713
 21
-1907.187133789
 31
0.0
  0
LINE
  5
42D
100
AcDbEntity
  8
CATALO
  6
SOLID
 62
        7
100
AcDbLine
 10
-91.827178955
 20
-1907.080932617
 30
0.0
 11
-89.325164795
 21
-1905.636230469
 31
0.0
  0
LINE
  5
42E
100
AcDbEntity
  8
CATALO
  6
SOLID
 62
        7
100
AcDbLine
 10
-89.251983643
 20
-1905.363037109
 30
0.0
 11
-91.972137451
 21
-1906.93359375
 31
0.0
  0
LINE
  5
42F
100
AcDbEntity
  8
CATALO
  6
SOLID
 62
        7
100
AcDbLine
 10
-92.106536865
 20
-1906.780273438
 30
0.0
 11
-89.17880249
 21
-1905.08996582
 31
0.0
  0
LINE
  5
430
100
AcDbEntity
  8
CATALO
  6
SOLID
 62
        7
100
AcDbLine
 10
-89.105560303
 20
-1904.816772461
 30
0.0
 11
-92.24105835
 21
-1906.627075195
 31
0.0
  0
LINE
  5
431
100
AcDbEntity
  8
CATALO
  6
SOLID
 62
        7
100
AcDbLine
 10
-92.306549072
 20
-1906.433959961
 30
0.0
 11
-89.089691162
 21
-1904.576904297
 31
0.0
  0
LINE
  5
432
100
AcDbEntity
  8
CATALO
  6
SOLID
 62
        7
100
AcDbLine
 10
-89.073822021
 20
-1904.336791992
 30
0.0
 11
-92.372161865
 21
-1906.241088867
 31
0.0
  0
LINE
  5
433
100
AcDbEntity
  8
CATALO
  6
SOLID
 62
        7
100
AcDbLine
 10
-92.427215576
 20
-1906.041870117
 30
0.0
 11
-89.104034424
 21
-1904.123413086
 31
0.0
  0
LINE
  5
434
100
AcDbEntity
  8
CATALO
  6
SOLID
 62
        7
100
AcDbLine
 10
-89.169586182
 20
-1903.930297852
 30
0.0
 11
-92.411407471
 21
-1905.801879883
 31
0.0
  0
LINE
  5
435
100
AcDbEntity
  8
CATALO
  6
SOLID
 62
        7
100
AcDbLine
 10
-92.3956604
 20
-1905.561889648
 30
0.0
 11
-89.235137939
 21
-1903.737060547
 31
0.0
  0
LINE
  5
436
100
AcDbEntity
  8
CATALO
  6
SOLID
 62
        7
100
AcDbLine
 10
-89.348419189
 20
-1903.571899414
 30
0.0
 11
-92.340118408
 21
-1905.298950195
 31
0.0
  0
LINE
  5
437
100
AcDbEntity
  8
CATALO
  6
SOLID
 62
        7
100
AcDbLine
 10
-92.266937256
 20
-1905.025878906
 30
0.0
 11
-89.482818604
 21
-1903.418457031
 31
0.0
  0
LINE
  5
438
100
AcDbEntity
  8
CATALO
  6
SOLID
 62
        7
100
AcDbLine
 10
-89.617279053
 20
-1903.265136719
 30
0.0
 11
-92.193756104
 21
-1904.752685547
 31
0.0
  0
LINE
  5
439
100
AcDbEntity
  8
CATALO
  6
SOLID
 62
        7
100
AcDbLine
 10
-92.120452881
 20
-1904.479614258
 30
0.0
 11
-89.818511963
 21
-1903.150512695
 31
0.0
  0
LINE
  5
43A
100
AcDbEntity
  8
CATALO
  6
SOLID
 62
        7
100
AcDbLine
 10
-90.03427124
 20
-1903.044067383
 30
0.0
 11
-92.047393799
 21
-1904.206420898
 31
0.0
  0
LINE
  5
43B
100
AcDbEntity
  8
CATALO
  6
SOLID
 62
        7
100
AcDbLine
 10
-91.940582275
 20
-1903.91394043
 30
0.0
 11
-90.30569458
 21
-1902.969970703
 31
0.0
  0
LINE
  5
43C
100
AcDbEntity
  8
CATALO
  6
SOLID
 62
        7
100
AcDbLine
 10
-90.664886475
 20
-1902.946533203
 30
0.0
 11
-91.781402588
 21
-1903.591064453
 31
0.0
  0
ENDBLK
  5
43D
100
AcDbEntity
  8
0
100
AcDbBlockEnd
  0
BLOCK
  5
441
100
AcDbEntity
  8
0
100
AcDbBlockBegin
  2
*H29
 70
        0
 10
0.0
 20
0.0
 30
0.0
  3
*H29
  1

  0
LINE
  5
442
100
AcDbEntity
  8
CATALO
  6
SOLID
 62
        7
100
AcDbLine
 10
28.974456787
 20
-1954.82409668
 30
0.0
 11
25.792602539
 21
-1949.312744141
 31
0.0
  0
LINE
  5
443
100
AcDbEntity
  8
CATALO
  6
SOLID
 62
        7
100
AcDbLine
 10
23.596496582
 20
-1957.509033203
 30
0.0
 11
24.142425537
 21
-1958.454589844
 31
0.0
  0
ENDBLK
  5
444
100
AcDbEntity
  8
0
100
AcDbBlockEnd
  0
BLOCK
  5
447
100
AcDbEntity
  8
0
100
AcDbBlockBegin
  2
*H30
 70
        0
 10
0.0
 20
0.0
 30
0.0
  3
*H30
  1

  0
LINE
  5
448
100
AcDbEntity
  8
CATALO
  6
SOLID
 62
        7
100
AcDbLine
 10
17.552093506
 20
-1881.542724609
 30
0.0
 11
13.723754883
 21
-1874.911499023
 31
0.0
  0
LINE
  5
449
100
AcDbEntity
  8
CATALO
  6
SOLID
 62
        7
100
AcDbLine
 10
10.053375244
 20
-1880.554321289
 30
0.0
 11
15.356079102
 21
-1889.738891602
 31
0.0
  0
LINE
  5
44A
100
AcDbEntity
  8
CATALO
  6
SOLID
 62
        7
100
AcDbLine
 10
18.350708008
 20
-1894.925537109
 30
0.0
 11
22.427185059
 21
-1901.986083984
 31
0.0
  0
LINE
  5
44B
100
AcDbEntity
  8
CATALO
  6
SOLID
 62
        7
100
AcDbLine
 10
20.230743408
 20
-1910.182495117
 30
0.0
 11
7.857299805
 21
-1888.750488281
 31
0.0
  0
LINE
  5
44C
100
AcDbEntity
  8
CATALO
  6
SOLID
 62
        7
100
AcDbLine
 10
4.246673584
 20
-1894.496826172
 30
0.0
 11
4.691467285
 21
-1895.267211914
 31
0.0
  0
LINE
  5
44D
100
AcDbEntity
  8
CATALO
  6
SOLID
 62
        7
100
AcDbLine
 10
10.963775635
 20
-1906.131103516
 30
0.0
 11
18.034820557
 21
-1918.378662109
 31
0.0
  0
LINE
  5
44E
100
AcDbEntity
  8
CATALO
  6
SOLID
 62
        7
100
AcDbLine
 10
15.838500977
 20
-1926.574584961
 30
0.0
 11
8.76751709
 21
-1914.327270508
 31
0.0
  0
LINE
  5
44F
100
AcDbEntity
  8
CATALO
  6
SOLID
 62
        7
100
AcDbLine
 10
6.571350098
 20
-1922.52331543
 30
0.0
 11
11.521392822
 21
-1931.097045898
 31
0.0
  0
LINE
  5
450
100
AcDbEntity
  8
CATALO
  6
SOLID
 62
        7
100
AcDbLine
 10
14.628265381
 20
-1948.478271484
 30
0.0
 11
12.629730225
 21
-1945.016845703
 31
0.0
  0
LINE
  5
451
100
AcDbEntity
  8
CATALO
  6
SOLID
 62
        7
100
AcDbLine
 10
11.446136475
 20
-1942.966918945
 30
0.0
 11
4.375061035
 21
-1930.719482422
 31
0.0
  0
LINE
  5
452
100
AcDbEntity
  8
CATALO
  6
SOLID
 62
        7
100
AcDbLine
 10
2.179046631
 20
-1938.915649414
 30
0.0
 11
11.50479126
 21
-1955.068237305
 31
0.0
  0
LINE
  5
453
100
AcDbEntity
  8
CATALO
  6
SOLID
 62
        7
100
AcDbLine
 10
3.308441162
 20
-1952.872070313
 30
0.0
 11
0.053588867
 21
-1947.234375
 31
0.0
  0
ENDBLK
  5
454
100
AcDbEntity
  8
0
100
AcDbBlockEnd
  0
BLOCK
  5
457
100
AcDbEntity
  8
0
100
AcDbBlockBegin
  2
*H31
 70
        0
 10
0.0
 20
0.0
 30
0.0
  3
*H31
  1

  0
LINE
  5
458
100
AcDbEntity
  8
CATALO
  6
SOLID
 62
        7
100
AcDbLine
 10
-61.972320557
 20
-1859.575927734
 30
0.0
 11
-65.351165771
 21
-1853.723388672
 31
0.0
  0
LINE
  5
459
100
AcDbEntity
  8
CATALO
  6
SOLID
 62
        7
100
AcDbLine
 10
-69.471221924
 20
-1858.587646484
 30
0.0
 11
-64.168487549
 21
-1867.772094727
 31
0.0
  0
LINE
  5
45A
100
AcDbEntity
  8
CATALO
  6
SOLID
 62
        7
100
AcDbLine
 10
-66.187347412
 20
-1876.275268555
 30
0.0
 11
-71.667266846
 21
-1866.783813477
 31
0.0
  0
LINE
  5
45B
100
AcDbEntity
  8
CATALO
  6
SOLID
 62
        7
100
AcDbLine
 10
-77.061920166
 20
-1869.439697266
 30
0.0
 11
-73.832427979
 21
-1875.033569336
 31
0.0
  0
LINE
  5
45C
100
AcDbEntity
  8
CATALO
  6
SOLID
 62
        7
100
AcDbLine
 10
-76.059539795
 20
-1883.176147461
 30
0.0
 11
-83.130523682
 21
-1870.928710938
 31
0.0
  0
LINE
  5
45D
100
AcDbEntity
  8
CATALO
  6
SOLID
 62
        7
100
AcDbLine
 10
-85.326690674
 20
-1879.125
 30
0.0
 11
-78.255706787
 21
-1891.372314453
 31
0.0
  0
LINE
  5
45E
100
AcDbEntity
  8
CATALO
  6
SOLID
 62
        7
100
AcDbLine
 10
-80.451812744
 20
-1899.568359375
 30
0.0
 11
-87.522857666
 21
-1887.321044922
 31
0.0
  0
LINE
  5
45F
100
AcDbEntity
  8
CATALO
  6
SOLID
 62
        7
100
AcDbLine
 10
-89.719024658
 20
-1895.517333984
 30
0.0
 11
-82.647979736
 21
-1907.764404297
 31
0.0
  0
LINE
  5
460
100
AcDbEntity
  8
CATALO
  6
SOLID
 62
        7
100
AcDbLine
 10
-84.844146729
 20
-1915.960693359
 30
0.0
 11
-89.794219971
 21
-1907.387084961
 31
0.0
  0
LINE
  5
461
100
AcDbEntity
  8
CATALO
  6
SOLID
 62
        7
100
AcDbLine
 10
-94.111297607
 20
-1911.909545898
 30
0.0
 11
-87.111114502
 21
-1924.034301758
 31
0.0
  0
LINE
  5
462
100
AcDbEntity
  8
CATALO
  6
SOLID
 62
        7
100
AcDbLine
 10
-92.158660889
 20
-1927.291748047
 30
0.0
 11
-99.22958374
 21
-1915.044311523
 31
0.0
  0
LINE
  5
463
100
AcDbEntity
  8
CATALO
  6
SOLID
 62
        7
100
AcDbLine
 10
-107.425811768
 20
-1912.848144531
 30
0.0
 11
-100.354766846
 21
-1925.095581055
 31
0.0
  0
LINE
  5
464
100
AcDbEntity
  8
CATALO
  6
SOLID
 62
        7
100
AcDbLine
 10
-108.550750732
 20
-1922.899536133
 30
0.0
 11
-114.842071533
 21
-1912.002807617
 31
0.0
  0
ENDBLK
  5
465
100
AcDbEntity
  8
0
100
AcDbBlockEnd
  0
BLOCK
  5
468
100
AcDbEntity
  8
0
100
AcDbBlockBegin
  2
*H32
 70
        0
 10
0.0
 20
0.0
 30
0.0
  3
*H32
  1

  0
LINE
  5
469
100
AcDbEntity
  8
CATALO
  6
SOLID
 62
        7
100
AcDbLine
 10
-63.367034912
 20
-1936.261352539
 30
0.0
 11
-63.517059326
 21
-1936.001586914
 31
0.0
  0
LINE
  5
46A
100
AcDbEntity
  8
CATALO
  6
SOLID
 62
        7
100
AcDbLine
 10
-63.9269104
 20
-1935.891723633
 30
0.0
 11
-63.476837158
 21
-1936.671142578
 31
0.0
  0
LINE
  5
46B
100
AcDbEntity
  8
CATALO
  6
SOLID
 62
        7
100
AcDbLine
 10
-63.586639404
 20
-1937.080932617
 30
0.0
 11
-64.336700439
 21
-1935.782104492
 31
0.0
  0
LINE
  5
46C
100
AcDbEntity
  8
CATALO
  6
SOLID
 62
        7
100
AcDbLine
 10
-64.746490479
 20
-1935.672119141
 30
0.0
 11
-63.69644165
 21
-1937.490722656
 31
0.0
  0
LINE
  5
46D
100
AcDbEntity
  8
CATALO
  6
SOLID
 62
        7
100
AcDbLine
 10
-63.806304932
 20
-1937.900756836
 30
0.0
 11
-65.156280518
 21
-1935.5625
 31
0.0
  0
LINE
  5
46E
100
AcDbEntity
  8
CATALO
  6
SOLID
 62
        7
100
AcDbLine
 10
-65.566070557
 20
-1935.452514648
 30
0.0
 11
-63.916046143
 21
-1938.310424805
 31
0.0
  0
LINE
  5
46F
100
AcDbEntity
  8
CATALO
  6
SOLID
 62
        7
100
AcDbLine
 10
-64.025848389
 20
-1938.720214844
 30
0.0
 11
-65.975982666
 21
-1935.342651367
 31
0.0
  0
LINE
  5
470
100
AcDbEntity
  8
CATALO
  6
SOLID
 62
        7
100
AcDbLine
 10
-66.38571167
 20
-1935.232910156
 30
0.0
 11
-64.135650635
 21
-1939.130004883
 31
0.0
  0
LINE
  5
471
100
AcDbEntity
  8
CATALO
  6
SOLID
 62
        7
100
AcDbLine
 10
-64.245452881
 20
-1939.539794922
 30
0.0
 11
-66.795562744
 21
-1935.123046875
 31
0.0
  0
LINE
  5
472
100
AcDbEntity
  8
CATALO
  6
SOLID
 62
        7
100
AcDbLine
 10
-67.183746338
 20
-1935.05065918
 30
0.0
 11
-64.376922607
 21
-1939.912231445
 31
0.0
  0
LINE
  5
473
100
AcDbEntity
  8
CATALO
  6
SOLID
 62
        7
100
AcDbLine
 10
-64.786773682
 20
-1939.802612305
 30
0.0
 11
-67.293548584
 21
-1935.460449219
 31
0.0
  0
LINE
  5
474
100
AcDbEntity
  8
CATALO
  6
SOLID
 62
        7
100
AcDbLine
 10
-67.40335083
 20
-1935.870239258
 30
0.0
 11
-65.196502686
 21
-1939.692626953
 31
0.0
  0
LINE
  5
475
100
AcDbEntity
  8
CATALO
  6
SOLID
 62
        7
100
AcDbLine
 10
-65.60635376
 20
-1939.583007813
 30
0.0
 11
-67.513153076
 21
-1936.280029297
 31
0.0
  0
LINE
  5
476
100
AcDbEntity
  8
CATALO
  6
SOLID
 62
        7
100
AcDbLine
 10
-67.622955322
 20
-1936.689941406
 30
0.0
 11
-66.016082764
 21
-1939.473022461
 31
0.0
  0
LINE
  5
477
100
AcDbEntity
  8
CATALO
  6
SOLID
 62
        7
100
AcDbLine
 10
-66.425933838
 20
-1939.36340332
 30
0.0
 11
-67.732757568
 21
-1937.099731445
 31
0.0
  0
LINE
  5
478
100
AcDbEntity
  8
CATALO
  6
SOLID
 62
        7
100
AcDbLine
 10
-67.842559814
 20
-1937.509521484
 30
0.0
 11
-66.835784912
 21
-1939.253417969
 31
0.0
  0
LINE
  5
479
100
AcDbEntity
  8
CATALO
  6
SOLID
 62
        7
100
AcDbLine
 10
-67.245574951
 20
-1939.143554688
 30
0.0
 11
-67.952362061
 21
-1937.919311523
 31
0.0
  0
LINE
  5
47A
100
AcDbEntity
  8
CATALO
  6
SOLID
 62
        7
100
AcDbLine
 10
-68.062225342
 20
-1938.329223633
 30
0.0
 11
-67.65536499
 21
-1939.033813477
 31
0.0
  0
LINE
  5
47B
100
AcDbEntity
  8
CATALO
  6
SOLID
 62
        7
100
AcDbLine
 10
-68.065155029
 20
-1938.923950195
 30
0.0
 11
-68.171966553
 21
-1938.738891602
 31
0.0
  0
ENDBLK
  5
47C
100
AcDbEntity
  8
0
100
AcDbBlockEnd
  0
BLOCK
  5
47F
100
AcDbEntity
  8
0
100
AcDbBlockBegin
  2
*H33
 70
        0
 10
0.0
 20
0.0
 30
0.0
  3
*H33
  1

  0
LINE
  5
480
100
AcDbEntity
  8
CATALO
  6
SOLID
 62
        7
100
AcDbLine
 10
-61.980072021
 20
-1927.221435547
 30
0.0
 11
-63.480072021
 21
-1924.623413086
 31
0.0
  0
LINE
  5
481
100
AcDbEntity
  8
CATALO
  6
SOLID
 62
        7
100
AcDbLine
 10
-66.613677979
 20
-1925.195800781
 30
0.0
 11
-63.078155518
 21
-1931.319580078
 31
0.0
  0
LINE
  5
482
100
AcDbEntity
  8
CATALO
  6
SOLID
 62
        7
100
AcDbLine
 10
-64.176239014
 20
-1935.417602539
 30
0.0
 11
-67.711761475
 21
-1929.294067383
 31
0.0
  0
LINE
  5
483
100
AcDbEntity
  8
CATALO
  6
SOLID
 62
        7
100
AcDbLine
 10
-68.809844971
 20
-1933.391967773
 30
0.0
 11
-67.3956604
 21
-1935.841674805
 31
0.0
  0
LINE
  5
484
100
AcDbEntity
  8
CATALO
  6
SOLID
 62
        7
100
AcDbLine
 10
-68.246307373
 20
-1940.368164063
 30
0.0
 11
-69.907928467
 21
-1937.489990234
 31
0.0
  0
ENDBLK
  5
485
100
AcDbEntity
  8
0
100
AcDbBlockEnd
  0
BLOCK
  5
488
100
AcDbEntity
  8
0
100
AcDbBlockBegin
  2
*H34
 70
        0
 10
0.0
 20
0.0
 30
0.0
  3
*H34
  1

  0
LINE
  5
489
100
AcDbEntity
  8
CATALO
  6
SOLID
 62
        7
100
AcDbLine
 10
-26.661834717
 20
-1946.096435547
 30
0.0
 11
-26.402008057
 21
-1945.946533203
 31
0.0
  0
LINE
  5
48A
100
AcDbEntity
  8
CATALO
  6
SOLID
 62
        7
100
AcDbLine
 10
-25.992279053
 20
-1946.056274414
 30
0.0
 11
-26.77166748
 21
-1946.506347656
 31
0.0
  0
LINE
  5
48B
100
AcDbEntity
  8
CATALO
  6
SOLID
 62
        7
100
AcDbLine
 10
-26.881469727
 20
-1946.916137695
 30
0.0
 11
-25.582397461
 21
-1946.166137695
 31
0.0
  0
LINE
  5
48C
100
AcDbEntity
  8
CATALO
  6
SOLID
 62
        7
100
AcDbLine
 10
-25.172668457
 20
-1946.275878906
 30
0.0
 11
-26.991271973
 21
-1947.325927734
 31
0.0
  0
LINE
  5
48D
100
AcDbEntity
  8
CATALO
  6
SOLID
 62
        7
100
AcDbLine
 10
-27.101074219
 20
-1947.735717773
 30
0.0
 11
-24.762817383
 21
-1946.385742188
 31
0.0
  0
LINE
  5
48E
100
AcDbEntity
  8
CATALO
  6
SOLID
 62
        7
100
AcDbLine
 10
-24.353088379
 20
-1946.495483398
 30
0.0
 11
-27.210906982
 21
-1948.145507813
 31
0.0
  0
LINE
  5
48F
100
AcDbEntity
  8
CATALO
  6
SOLID
 62
        7
100
AcDbLine
 10
-27.320709229
 20
-1948.555297852
 30
0.0
 11
-23.943237305
 21
-1946.60534668
 31
0.0
  0
LINE
  5
490
100
AcDbEntity
  8
CATALO
  6
SOLID
 62
        7
100
AcDbLine
 10
-23.53338623
 20
-1946.715087891
 30
0.0
 11
-27.430541992
 21
-1948.965209961
 31
0.0
  0
LINE
  5
491
100
AcDbEntity
  8
CATALO
  6
SOLID
 62
        7
100
AcDbLine
 10
-27.540313721
 20
-1949.375
 30
0.0
 11
-23.123596191
 21
-1946.824951172
 31
0.0
  0
LINE
  5
492
100
AcDbEntity
  8
CATALO
  6
SOLID
 62
        7
100
AcDbLine
 10
-22.75112915
 20
-1946.956298828
 30
0.0
 11
-27.612731934
 21
-1949.763183594
 31
0.0
  0
LINE
  5
493
100
AcDbEntity
  8
CATALO
  6
SOLID
 62
        7
100
AcDbLine
 10
-27.20300293
 20
-1949.872924805
 30
0.0
 11
-22.860961914
 21
-1947.366088867
 31
0.0
  0
LINE
  5
494
100
AcDbEntity
  8
CATALO
  6
SOLID
 62
        7
100
AcDbLine
 10
-22.97076416
 20
-1947.775878906
 30
0.0
 11
-26.793151855
 21
-1949.982788086
 31
0.0
  0
LINE
  5
495
100
AcDbEntity
  8
CATALO
  6
SOLID
 62
        7
100
AcDbLine
 10
-26.383422852
 20
-1950.092529297
 30
0.0
 11
-23.080566406
 21
-1948.185791016
 31
0.0
  0
LINE
  5
496
100
AcDbEntity
  8
CATALO
  6
SOLID
 62
        7
100
AcDbLine
 10
-23.190368652
 20
-1948.595703125
 30
0.0
 11
-25.97354126
 21
-1950.202392578
 31
0.0
  0
LINE
  5
497
100
AcDbEntity
  8
CATALO
  6
SOLID
 62
        7
100
AcDbLine
 10
-25.563690186
 20
-1950.312255859
 30
0.0
 11
-23.300201416
 21
-1949.005371094
 31
0.0
  0
LINE
  5
498
100
AcDbEntity
  8
CATALO
  6
SOLID
 62
        7
100
AcDbLine
 10
-23.409973145
 20
-1949.415161133
 30
0.0
 11
-25.153961182
 21
-1950.42199707
 31
0.0
  0
LINE
  5
499
100
AcDbEntity
  8
CATALO
  6
SOLID
 62
        7
100
AcDbLine
 10
-24.74407959
 20
-1950.531860352
 30
0.0
 11
-23.519805908
 21
-1949.824951172
 31
0.0
  0
LINE
  5
49A
100
AcDbEntity
  8
CATALO
  6
SOLID
 62
        7
100
AcDbLine
 10
-23.629608154
 20
-1950.234741211
 30
0.0
 11
-24.334350586
 21
-1950.641601563
 31
0.0
  0
LINE
  5
49B
100
AcDbEntity
  8
CATALO
  6
SOLID
 62
        7
100
AcDbLine
 10
-23.924468994
 20
-1950.751464844
 30
0.0
 11
-23.7394104
 21
-1950.64453125
 31
0.0
  0
ENDBLK
  5
49C
100
AcDbEntity
  8
0
100
AcDbBlockEnd
  0
BLOCK
  5
49F
100
AcDbEntity
  8
0
100
AcDbBlockBegin
  2
*H35
 70
        0
 10
0.0
 20
0.0
 30
0.0
  3
*H35
  1

  0
LINE
  5
4A0
100
AcDbEntity
  8
CATALO
  6
SOLID
 62
        7
100
AcDbLine
 10
-23.343048096
 20
-1937.57421875
 30
0.0
 11
-20.7449646
 21
-1936.07421875
 31
0.0
  0
LINE
  5
4A1
100
AcDbEntity
  8
CATALO
  6
SOLID
 62
        7
100
AcDbLine
 10
-18.31741333
 20
-1938.13684082
 30
0.0
 11
-24.441131592
 21
-1941.672363281
 31
0.0
  0
LINE
  5
4A2
100
AcDbEntity
  8
CATALO
  6
SOLID
 62
        7
100
AcDbLine
 10
-25.539215088
 20
-1945.770385742
 30
0.0
 11
-19.415466309
 21
-1942.234863281
 31
0.0
  0
LINE
  5
4A3
100
AcDbEntity
  8
CATALO
  6
SOLID
 62
        7
100
AcDbLine
 10
-20.513580322
 20
-1946.333129883
 30
0.0
 11
-22.963043213
 21
-1947.747192383
 31
0.0
  0
LINE
  5
4A4
100
AcDbEntity
  8
CATALO
  6
SOLID
 62
        7
100
AcDbLine
 10
-24.489715576
 20
-1952.092651367
 30
0.0
 11
-21.611633301
 21
-1950.431030273
 31
0.0
  0
ENDBLK
  5
4A5
100
AcDbEntity
  8
0
100
AcDbBlockEnd
  0
BLOCK
  5
4C7
100
AcDbEntity
  8
0
100
AcDbBlockBegin
  2
*H36
 70
        0
 10
0.0
 20
0.0
 30
0.0
  3
*H36
  1

  0
LINE
  5
4C8
100
AcDbEntity
  8
CATALO
  6
SOLID
 62
        7
100
AcDbLine
 10
-53.488800049
 20
-2021.560302734
 30
0.0
 11
-53.536956787
 21
-2021.476806641
 31
0.0
  0
LINE
  5
4C9
100
AcDbEntity
  8
CATALO
  6
SOLID
 62
        7
100
AcDbLine
 10
-53.429107666
 20
-2021.463745117
 30
0.0
 11
-53.284698486
 21
-2021.713745117
 31
0.0
  0
LINE
  5
4CA
100
AcDbEntity
  8
CATALO
  6
SOLID
 62
        7
100
AcDbLine
 10
-53.080657959
 20
-2021.86730957
 30
0.0
 11
-53.321258545
 21
-2021.450561523
 31
0.0
  0
LINE
  5
4CB
100
AcDbEntity
  8
CATALO
  6
SOLID
 62
        7
100
AcDbLine
 10
-53.213348389
 20
-2021.43737793
 30
0.0
 11
-52.876617432
 21
-2022.020629883
 31
0.0
  0
LINE
  5
4CC
100
AcDbEntity
  8
CATALO
  6
SOLID
 62
        7
100
AcDbLine
 10
-52.672576904
 20
-2022.174316406
 30
0.0
 11
-53.105499268
 21
-2021.424316406
 31
0.0
  0
LINE
  5
4CD
100
AcDbEntity
  8
CATALO
  6
SOLID
 62
        7
100
AcDbLine
 10
-52.997650146
 20
-2021.411132813
 30
0.0
 11
-52.468475342
 21
-2022.327758789
 31
0.0
  0
LINE
  5
4CE
100
AcDbEntity
  8
CATALO
  6
SOLID
 62
        7
100
AcDbLine
 10
-52.26449585
 20
-2022.481079102
 30
0.0
 11
-52.889801025
 21
-2021.398071289
 31
0.0
  0
LINE
  5
4CF
100
AcDbEntity
  8
CATALO
  6
SOLID
 62
        7
100
AcDbLine
 10
-52.781951904
 20
-2021.384887695
 30
0.0
 11
-52.060394287
 21
-2022.634643555
 31
0.0
  0
LINE
  5
4D0
100
AcDbEntity
  8
CATALO
  6
SOLID
 62
        7
100
AcDbLine
 10
-51.85635376
 20
-2022.787963867
 30
0.0
 11
-52.674041748
 21
-2021.371704102
 31
0.0
  0
LINE
  5
4D1
100
AcDbEntity
  8
CATALO
  6
SOLID
 62
        7
100
AcDbLine
 10
-52.566253662
 20
-2021.358520508
 30
0.0
 11
-51.652313232
 21
-2022.94152832
 31
0.0
  0
LINE
  5
4D2
100
AcDbEntity
  8
CATALO
  6
SOLID
 62
        7
100
AcDbLine
 10
-51.44821167
 20
-2023.094970703
 30
0.0
 11
-52.458404541
 21
-2021.345458984
 31
0.0
  0
LINE
  5
4D3
100
AcDbEntity
  8
CATALO
  6
SOLID
 62
        7
100
AcDbLine
 10
-52.35055542
 20
-2021.332275391
 30
0.0
 11
-51.244232178
 21
-2023.248535156
 31
0.0
  0
LINE
  5
4D4
100
AcDbEntity
  8
CATALO
  6
SOLID
 62
        7
100
AcDbLine
 10
-51.04019165
 20
-2023.401977539
 30
0.0
 11
-52.242645264
 21
-2021.319091797
 31
0.0
  0
LINE
  5
4D5
100
AcDbEntity
  8
CATALO
  6
SOLID
 62
        7
100
AcDbLine
 10
-52.134857178
 20
-2021.305908203
 30
0.0
 11
-50.836151123
 21
-2023.555419922
 31
0.0
  0
LINE
  5
4D6
100
AcDbEntity
  8
CATALO
  6
SOLID
 62
        7
100
AcDbLine
 10
-50.632049561
 20
-2023.708862305
 30
0.0
 11
-52.026947021
 21
-2021.29284668
 31
0.0
  0
LINE
  5
4D7
100
AcDbEntity
  8
CATALO
  6
SOLID
 62
        7
100
AcDbLine
 10
-51.919158936
 20
-2021.279663086
 30
0.0
 11
-50.428009033
 21
-2023.862426758
 31
0.0
  0
LINE
  5
4D8
100
AcDbEntity
  8
CATALO
  6
SOLID
 62
        7
100
AcDbLine
 10
-50.223968506
 20
-2024.015869141
 30
0.0
 11
-51.811248779
 21
-2021.266601563
 31
0.0
  0
LINE
  5
4D9
100
AcDbEntity
  8
CATALO
  6
SOLID
 62
        7
100
AcDbLine
 10
-51.703460693
 20
-2021.253417969
 30
0.0
 11
-50.019927979
 21
-2024.169433594
 31
0.0
  0
LINE
  5
4DA
100
AcDbEntity
  8
CATALO
  6
SOLID
 62
        7
100
AcDbLine
 10
-49.815826416
 20
-2024.322875977
 30
0.0
 11
-51.595550537
 21
-2021.240234375
 31
0.0
  0
LINE
  5
4DB
100
AcDbEntity
  8
CATALO
  6
SOLID
 62
        7
100
AcDbLine
 10
-51.487701416
 20
-2021.227050781
 30
0.0
 11
-49.611785889
 21
-2024.47644043
 31
0.0
  0
LINE
  5
4DC
100
AcDbEntity
  8
CATALO
  6
SOLID
 62
        7
100
AcDbLine
 10
-49.407745361
 20
-2024.629760742
 30
0.0
 11
-51.379852295
 21
-2021.213989258
 31
0.0
  0
LINE
  5
4DD
100
AcDbEntity
  8
CATALO
  6
SOLID
 62
        7
100
AcDbLine
 10
-51.272064209
 20
-2021.200805664
 30
0.0
 11
-49.203643799
 21
-2024.783325195
 31
0.0
  0
LINE
  5
4DE
100
AcDbEntity
  8
CATALO
  6
SOLID
 62
        7
100
AcDbLine
 10
-48.999603271
 20
-2024.936767578
 30
0.0
 11
-51.164154053
 21
-2021.187744141
 31
0.0
  0
LINE
  5
4DF
100
AcDbEntity
  8
CATALO
  6
SOLID
 62
        7
100
AcDbLine
 10
-51.056304932
 20
-2021.174438477
 30
0.0
 11
-48.795623779
 21
-2025.090332031
 31
0.0
  0
LINE
  5
4E0
100
AcDbEntity
  8
CATALO
  6
SOLID
 62
        7
100
AcDbLine
 10
-48.591522217
 20
-2025.243774414
 30
0.0
 11
-50.948455811
 21
-2021.161376953
 31
0.0
  0
LINE
  5
4E1
100
AcDbEntity
  8
CATALO
  6
SOLID
 62
        7
100
AcDbLine
 10
-50.840606689
 20
-2021.148193359
 30
0.0
 11
-48.387420654
 21
-2025.397338867
 31
0.0
  0
LINE
  5
4E2
100
AcDbEntity
  8
CATALO
  6
SOLID
 62
        7
100
AcDbLine
 10
-48.183380127
 20
-2025.55078125
 30
0.0
 11
-50.732757568
 21
-2021.135131836
 31
0.0
  0
LINE
  5
4E3
100
AcDbEntity
  8
CATALO
  6
SOLID
 62
        7
100
AcDbLine
 10
-50.624908447
 20
-2021.121948242
 30
0.0
 11
-47.9793396
 21
-2025.704223633
 31
0.0
  0
LINE
  5
4E4
100
AcDbEntity
  8
CATALO
  6
SOLID
 62
        7
100
AcDbLine
 10
-47.889801025
 20
-2025.659423828
 30
0.0
 11
-50.516998291
 21
-2021.108764648
 31
0.0
  0
LINE
  5
4E5
100
AcDbEntity
  8
CATALO
  6
SOLID
 62
        7
100
AcDbLine
 10
-50.409210205
 20
-2021.095581055
 30
0.0
 11
-47.853179932
 21
-2025.522827148
 31
0.0
  0
LINE
  5
4E6
100
AcDbEntity
  8
CATALO
  6
SOLID
 62
        7
100
AcDbLine
 10
-47.816558838
 20
-2025.386230469
 30
0.0
 11
-50.301361084
 21
-2021.082519531
 31
0.0
  0
LINE
  5
4E7
100
AcDbEntity
  8
CATALO
  6
SOLID
 62
        7
100
AcDbLine
 10
-50.193511963
 20
-2021.069335938
 30
0.0
 11
-47.779998779
 21
-2025.249633789
 31
0.0
  0
LINE
  5
4E8
100
AcDbEntity
  8
CATALO
  6
SOLID
 62
        7
100
AcDbLine
 10
-47.743438721
 20
-2025.11315918
 30
0.0
 11
-50.085662842
 21
-2021.056274414
 31
0.0
  0
LINE
  5
4E9
100
AcDbEntity
  8
CATALO
  6
SOLID
 62
        7
100
AcDbLine
 10
-49.977813721
 20
-2021.04309082
 30
0.0
 11
-47.706817627
 21
-2024.9765625
 31
0.0
  0
LINE
  5
4EA
100
AcDbEntity
  8
CATALO
  6
SOLID
 62
        7
100
AcDbLine
 10
-47.670196533
 20
-2024.83996582
 30
0.0
 11
-49.869903564
 21
-2021.029907227
 31
0.0
  0
LINE
  5
4EB
100
AcDbEntity
  8
CATALO
  6
SOLID
 62
        7
100
AcDbLine
 10
-49.762115479
 20
-2021.016723633
 30
0.0
 11
-47.633636475
 21
-2024.703369141
 31
0.0
  0
LINE
  5
4EC
100
AcDbEntity
  8
CATALO
  6
SOLID
 62
        7
100
AcDbLine
 10
-47.597015381
 20
-2024.566894531
 30
0.0
 11
-49.654205322
 21
-2021.003662109
 31
0.0
  0
LINE
  5
4ED
100
AcDbEntity
  8
CATALO
  6
SOLID
 62
        7
100
AcDbLine
 10
-49.546417236
 20
-2020.990478516
 30
0.0
 11
-47.560455322
 21
-2024.430297852
 31
0.0
  0
LINE
  5
4EE
100
AcDbEntity
  8
CATALO
  6
SOLID
 62
        7
100
AcDbLine
 10
-47.523834229
 20
-2024.293701172
 30
0.0
 11
-49.43850708
 21
-2020.977294922
 31
0.0
  0
LINE
  5
4EF
100
AcDbEntity
  8
CATALO
  6
SOLID
 62
        7
100
AcDbLine
 10
-49.330657959
 20
-2020.964111328
 30
0.0
 11
-47.48727417
 21
-2024.157104492
 31
0.0
  0
LINE
  5
4F0
100
AcDbEntity
  8
CATALO
  6
SOLID
 62
        7
100
AcDbLine
 10
-47.450653076
 20
-2024.020629883
 30
0.0
 11
-49.222808838
 21
-2020.951049805
 31
0.0
  0
LINE
  5
4F1
100
AcDbEntity
  8
CATALO
  6
SOLID
 62
        7
100
AcDbLine
 10
-49.115020752
 20
-2020.937866211
 30
0.0
 11
-47.414093018
 21
-2023.884033203
 31
0.0
  0
LINE
  5
4F2
100
AcDbEntity
  8
CATALO
  6
SOLID
 62
        7
100
AcDbLine
 10
-47.377471924
 20
-2023.747436523
 30
0.0
 11
-49.007110596
 21
-2020.924804688
 31
0.0
  0
LINE
  5
4F3
100
AcDbEntity
  8
CATALO
  6
SOLID
 62
        7
100
AcDbLine
 10
-48.89932251
 20
-2020.911621094
 30
0.0
 11
-47.34085083
 21
-2023.610839844
 31
0.0
  0
LINE
  5
4F4
100
AcDbEntity
  8
CATALO
  6
SOLID
 62
        7
100
AcDbLine
 10
-47.304290771
 20
-2023.474243164
 30
0.0
 11
-48.791412354
 21
-2020.8984375
 31
0.0
  0
LINE
  5
4F5
100
AcDbEntity
  8
CATALO
  6
SOLID
 62
        7
100
AcDbLine
 10
-48.683563232
 20
-2020.885253906
 30
0.0
 11
-47.267669678
 21
-2023.337768555
 31
0.0
  0
LINE
  5
4F6
100
AcDbEntity
  8
CATALO
  6
SOLID
 62
        7
100
AcDbLine
 10
-47.231109619
 20
-2023.201049805
 30
0.0
 11
-48.575714111
 21
-2020.872192383
 31
0.0
  0
LINE
  5
4F7
100
AcDbEntity
  8
CATALO
  6
SOLID
 62
        7
100
AcDbLine
 10
-48.46786499
 20
-2020.859008789
 30
0.0
 11
-47.194488525
 21
-2023.064575195
 31
0.0
  0
LINE
  5
4F8
100
AcDbEntity
  8
CATALO
  6
SOLID
 62
        7
100
AcDbLine
 10
-47.157928467
 20
-2022.927978516
 30
0.0
 11
-48.359954834
 21
-2020.845825195
 31
0.0
  0
LINE
  5
4F9
100
AcDbEntity
  8
CATALO
  6
SOLID
 62
        7
100
AcDbLine
 10
-48.252166748
 20
-2020.832641602
 30
0.0
 11
-47.121307373
 21
-2022.791503906
 31
0.0
  0
LINE
  5
4FA
100
AcDbEntity
  8
CATALO
  6
SOLID
 62
        7
100
AcDbLine
 10
-47.084686279
 20
-2022.654785156
 30
0.0
 11
-48.144317627
 21
-2020.819580078
 31
0.0
  0
LINE
  5
4FB
100
AcDbEntity
  8
CATALO
  6
SOLID
 62
        7
100
AcDbLine
 10
-48.036468506
 20
-2020.806396484
 30
0.0
 11
-47.048126221
 21
-2022.518310547
 31
0.0
  0
LINE
  5
4FC
100
AcDbEntity
  8
CATALO
  6
SOLID
 62
        7
100
AcDbLine
 10
-47.011505127
 20
-2022.381713867
 30
0.0
 11
-47.928619385
 21
-2020.793334961
 31
0.0
  0
LINE
  5
4FD
100
AcDbEntity
  8
CATALO
  6
SOLID
 62
        7
100
AcDbLine
 10
-47.820770264
 20
-2020.780151367
 30
0.0
 11
-46.974945068
 21
-2022.245239258
 31
0.0
  0
LINE
  5
4FE
100
AcDbEntity
  8
CATALO
  6
SOLID
 62
        7
100
AcDbLine
 10
-46.93838501
 20
-2022.108642578
 30
0.0
 11
-47.712860107
 21
-2020.766967773
 31
0.0
  0
LINE
  5
4FF
100
AcDbEntity
  8
CATALO
  6
SOLID
 62
        7
100
AcDbLine
 10
-47.605072021
 20
-2020.75378418
 30
0.0
 11
-46.901763916
 21
-2021.972045898
 31
0.0
  0
LINE
  5
500
100
AcDbEntity
  8
CATALO
  6
SOLID
 62
        7
100
AcDbLine
 10
-46.865142822
 20
-2021.835449219
 30
0.0
 11
-47.497161865
 21
-2020.740722656
 31
0.0
  0
LINE
  5
501
100
AcDbEntity
  8
CATALO
  6
SOLID
 62
        7
100
AcDbLine
 10
-47.389373779
 20
-2020.727539063
 30
0.0
 11
-46.828582764
 21
-2021.698974609
 31
0.0
  0
LINE
  5
502
100
AcDbEntity
  8
CATALO
  6
SOLID
 62
        7
100
AcDbLine
 10
-46.79196167
 20
-2021.56237793
 30
0.0
 11
-47.281463623
 21
-2020.714477539
 31
0.0
  0
LINE
  5
503
100
AcDbEntity
  8
CATALO
  6
SOLID
 62
        7
100
AcDbLine
 10
-47.173675537
 20
-2020.701293945
 30
0.0
 11
-46.755340576
 21
-2021.42578125
 31
0.0
  0
LINE
  5
504
100
AcDbEntity
  8
CATALO
  6
SOLID
 62
        7
100
AcDbLine
 10
-46.718780518
 20
-2021.28918457
 30
0.0
 11
-47.065765381
 21
-2020.688232422
 31
0.0
  0
LINE
  5
505
100
AcDbEntity
  8
CATALO
  6
SOLID
 62
        7
100
AcDbLine
 10
-46.95791626
 20
-2020.674926758
 30
0.0
 11
-46.682220459
 21
-2021.152587891
 31
0.0
  0
LINE
  5
506
100
AcDbEntity
  8
CATALO
  6
SOLID
 62
        7
100
AcDbLine
 10
-46.645599365
 20
-2021.016113281
 30
0.0
 11
-46.850067139
 21
-2020.661987305
 31
0.0
  0
LINE
  5
507
100
AcDbEntity
  8
CATALO
  6
SOLID
 62
        7
100
AcDbLine
 10
-46.742156982
 20
-2020.648803711
 30
0.0
 11
-46.608978271
 21
-2020.879394531
 31
0.0
  0
LINE
  5
508
100
AcDbEntity
  8
CATALO
  6
SOLID
 62
        7
100
AcDbLine
 10
-46.572418213
 20
-2020.742919922
 30
0.0
 11
-46.634368896
 21
-2020.635620117
 31
0.0
  0
ENDBLK
  5
509
100
AcDbEntity
  8
0
100
AcDbBlockEnd
  0
BLOCK
  5
510
100
AcDbEntity
  8
0
100
AcDbBlockBegin
  2
*H37
 70
        0
 10
0.0
 20
0.0
 30
0.0
  3
*H37
  1

  0
LINE
  5
511
100
AcDbEntity
  8
CATALO
  6
SOLID
 62
        7
100
AcDbLine
 10
-77.865875244
 20
-2015.028442383
 30
0.0
 11
-77.782501221
 21
-2014.980224609
 31
0.0
  0
LINE
  5
512
100
AcDbEntity
  8
CATALO
  6
SOLID
 62
        7
100
AcDbLine
 10
-77.869354248
 20
-2014.915039063
 30
0.0
 11
-78.119354248
 21
-2015.059326172
 31
0.0
  0
LINE
  5
513
100
AcDbEntity
  8
CATALO
  6
SOLID
 62
        7
100
AcDbLine
 10
-78.372894287
 20
-2015.090209961
 30
0.0
 11
-77.95614624
 21
-2014.849731445
 31
0.0
  0
LINE
  5
514
100
AcDbEntity
  8
CATALO
  6
SOLID
 62
        7
100
AcDbLine
 10
-78.042999268
 20
-2014.784301758
 30
0.0
 11
-78.626251221
 21
-2015.12109375
 31
0.0
  0
LINE
  5
515
100
AcDbEntity
  8
CATALO
  6
SOLID
 62
        7
100
AcDbLine
 10
-78.87979126
 20
-2015.152099609
 30
0.0
 11
-78.12991333
 21
-2014.719116211
 31
0.0
  0
LINE
  5
516
100
AcDbEntity
  8
CATALO
  6
SOLID
 62
        7
100
AcDbLine
 10
-78.216705322
 20
-2014.653686523
 30
0.0
 11
-79.133270264
 21
-2015.182983398
 31
0.0
  0
LINE
  5
517
100
AcDbEntity
  8
CATALO
  6
SOLID
 62
        7
100
AcDbLine
 10
-79.386627197
 20
-2015.213745117
 30
0.0
 11
-78.30355835
 21
-2014.588500977
 31
0.0
  0
LINE
  5
518
100
AcDbEntity
  8
CATALO
  6
SOLID
 62
        7
100
AcDbLine
 10
-78.390350342
 20
-2014.523193359
 30
0.0
 11
-79.640106201
 21
-2015.244628906
 31
0.0
  0
LINE
  5
519
100
AcDbEntity
  8
CATALO
  6
SOLID
 62
        7
100
AcDbLine
 10
-79.893463135
 20
-2015.275512695
 30
0.0
 11
-78.477203369
 21
-2014.457763672
 31
0.0
  0
LINE
  5
51A
100
AcDbEntity
  8
CATALO
  6
SOLID
 62
        7
100
AcDbLine
 10
-78.563995361
 20
-2014.392456055
 30
0.0
 11
-80.147003174
 21
-2015.306396484
 31
0.0
  0
LINE
  5
51B
100
AcDbEntity
  8
CATALO
  6
SOLID
 62
        7
100
AcDbLine
 10
-80.400482178
 20
-2015.337280273
 30
0.0
 11
-78.650909424
 21
-2014.327270508
 31
0.0
  0
LINE
  5
51C
100
AcDbEntity
  8
CATALO
  6
SOLID
 62
        7
100
AcDbLine
 10
-78.737640381
 20
-2014.26184082
 30
0.0
 11
-80.653900146
 21
-2015.368164063
 31
0.0
  0
LINE
  5
51D
100
AcDbEntity
  8
CATALO
  6
SOLID
 62
        7
100
AcDbLine
 10
-80.90737915
 20
-2015.399169922
 30
0.0
 11
-78.824554443
 21
-2014.196533203
 31
0.0
  0
LINE
  5
51E
100
AcDbEntity
  8
CATALO
  6
SOLID
 62
        7
100
AcDbLine
 10
-78.9112854
 20
-2014.131225586
 30
0.0
 11
-81.160736084
 21
-2015.429931641
 31
0.0
  0
LINE
  5
51F
100
AcDbEntity
  8
CATALO
  6
SOLID
 62
        7
100
AcDbLine
 10
-81.414215088
 20
-2015.46081543
 30
0.0
 11
-78.998199463
 21
-2014.065917969
 31
0.0
  0
LINE
  5
520
100
AcDbEntity
  8
CATALO
  6
SOLID
 62
        7
100
AcDbLine
 10
-79.084991455
 20
-2014.000610352
 30
0.0
 11
-81.667694092
 21
-2015.491699219
 31
0.0
  0
LINE
  5
521
100
AcDbEntity
  8
CATALO
  6
SOLID
 62
        7
100
AcDbLine
 10
-81.921112061
 20
-2015.522705078
 30
0.0
 11
-79.171905518
 21
-2013.935424805
 31
0.0
  0
LINE
  5
522
100
AcDbEntity
  8
CATALO
  6
SOLID
 62
        7
100
AcDbLine
 10
-79.258636475
 20
-2013.869995117
 30
0.0
 11
-82.174591064
 21
-2015.553588867
 31
0.0
  0
LINE
  5
523
100
AcDbEntity
  8
CATALO
  6
SOLID
 62
        7
100
AcDbLine
 10
-82.428131104
 20
-2015.584472656
 30
0.0
 11
-79.345489502
 21
-2013.8046875
 31
0.0
  0
LINE
  5
524
100
AcDbEntity
  8
CATALO
  6
SOLID
 62
        7
100
AcDbLine
 10
-79.432281494
 20
-2013.739379883
 30
0.0
 11
-82.681610107
 21
-2015.615356445
 31
0.0
  0
LINE
  5
525
100
AcDbEntity
  8
CATALO
  6
SOLID
 62
        7
100
AcDbLine
 10
-82.934967041
 20
-2015.646240234
 30
0.0
 11
-79.519195557
 21
-2013.674072266
 31
0.0
  0
LINE
  5
526
100
AcDbEntity
  8
CATALO
  6
SOLID
 62
        7
100
AcDbLine
 10
-79.605987549
 20
-2013.608764648
 30
0.0
 11
-83.188446045
 21
-2015.677124023
 31
0.0
  0
LINE
  5
527
100
AcDbEntity
  8
CATALO
  6
SOLID
 62
        7
100
AcDbLine
 10
-83.441925049
 20
-2015.708007813
 30
0.0
 11
-79.692840576
 21
-2013.543579102
 31
0.0
  0
LINE
  5
528
100
AcDbEntity
  8
CATALO
  6
SOLID
 62
        7
100
AcDbLine
 10
-79.779632568
 20
-2013.478149414
 30
0.0
 11
-83.695343018
 21
-2015.738891602
 31
0.0
  0
LINE
  5
529
100
AcDbEntity
  8
CATALO
  6
SOLID
 62
        7
100
AcDbLine
 10
-83.948822021
 20
-2015.769775391
 30
0.0
 11
-79.866485596
 21
-2013.412841797
 31
0.0
  0
LINE
  5
52A
100
AcDbEntity
  8
CATALO
  6
SOLID
 62
        7
100
AcDbLine
 10
-79.953277588
 20
-2013.34753418
 30
0.0
 11
-84.202301025
 21
-2015.80078125
 31
0.0
  0
LINE
  5
52B
100
AcDbEntity
  8
CATALO
  6
SOLID
 62
        7
100
AcDbLine
 10
-84.455841064
 20
-2015.831665039
 30
0.0
 11
-80.04019165
 21
-2013.282226563
 31
0.0
  0
LINE
  5
52C
100
AcDbEntity
  8
CATALO
  6
SOLID
 62
        7
100
AcDbLine
 10
-80.126922607
 20
-2013.216918945
 30
0.0
 11
-84.709197998
 21
-2015.862426758
 31
0.0
  0
LINE
  5
52D
100
AcDbEntity
  8
CATALO
  6
SOLID
 62
        7
100
AcDbLine
 10
-84.764373779
 20
-2015.778930664
 30
0.0
 11
-80.21383667
 21
-2013.151611328
 31
0.0
  0
LINE
  5
52E
100
AcDbEntity
  8
CATALO
  6
SOLID
 62
        7
100
AcDbLine
 10
-80.300567627
 20
-2013.086303711
 30
0.0
 11
-84.727813721
 21
-2015.642333984
 31
0.0
  0
LINE
  5
52F
100
AcDbEntity
  8
CATALO
  6
SOLID
 62
        7
100
AcDbLine
 10
-84.691192627
 20
-2015.505737305
 30
0.0
 11
-80.387481689
 21
-2013.020996094
 31
0.0
  0
LINE
  5
530
100
AcDbEntity
  8
CATALO
  6
SOLID
 62
        7
100
AcDbLine
 10
-80.474273682
 20
-2012.955688477
 30
0.0
 11
-84.654571533
 21
-2015.369140625
 31
0.0
  0
LINE
  5
531
100
AcDbEntity
  8
CATALO
  6
SOLID
 62
        7
100
AcDbLine
 10
-84.618011475
 20
-2015.232666016
 30
0.0
 11
-80.561126709
 21
-2012.890380859
 31
0.0
  0
LINE
  5
532
100
AcDbEntity
  8
CATALO
  6
SOLID
 62
        7
100
AcDbLine
 10
-80.647918701
 20
-2012.825073242
 30
0.0
 11
-84.581390381
 21
-2015.096069336
 31
0.0
  0
LINE
  5
533
100
AcDbEntity
  8
CATALO
  6
SOLID
 62
        7
100
AcDbLine
 10
-84.544769287
 20
-2014.959472656
 30
0.0
 11
-80.734771729
 21
-2012.759765625
 31
0.0
  0
LINE
  5
534
100
AcDbEntity
  8
CATALO
  6
SOLID
 62
        7
100
AcDbLine
 10
-80.821563721
 20
-2012.694458008
 30
0.0
 11
-84.508209229
 21
-2014.822875977
 31
0.0
  0
LINE
  5
535
100
AcDbEntity
  8
CATALO
  6
SOLID
 62
        7
100
AcDbLine
 10
-84.47164917
 20
-2014.686401367
 30
0.0
 11
-80.908477783
 21
-2012.629150391
 31
0.0
  0
LINE
  5
536
100
AcDbEntity
  8
CATALO
  6
SOLID
 62
        7
100
AcDbLine
 10
-80.995269775
 20
-2012.563842773
 30
0.0
 11
-84.435028076
 21
-2014.549804688
 31
0.0
  0
LINE
  5
537
100
AcDbEntity
  8
CATALO
  6
SOLID
 62
        7
100
AcDbLine
 10
-84.398406982
 20
-2014.413208008
 30
0.0
 11
-81.082122803
 21
-2012.498413086
 31
0.0
  0
LINE
  5
538
100
AcDbEntity
  8
CATALO
  6
SOLID
 62
        7
100
AcDbLine
 10
-81.168914795
 20
-2012.433105469
 30
0.0
 11
-84.361846924
 21
-2014.276611328
 31
0.0
  0
LINE
  5
539
100
AcDbEntity
  8
CATALO
  6
SOLID
 62
        7
100
AcDbLine
 10
-84.32522583
 20
-2014.140014648
 30
0.0
 11
-81.255767822
 21
-2012.367919922
 31
0.0
  0
LINE
  5
53A
100
AcDbEntity
  8
CATALO
  6
SOLID
 62
        7
100
AcDbLine
 10
-81.342559814
 20
-2012.302612305
 30
0.0
 11
-84.288665771
 21
-2014.003540039
 31
0.0
  0
LINE
  5
53B
100
AcDbEntity
  8
CATALO
  6
SOLID
 62
        7
100
AcDbLine
 10
-84.252044678
 20
-2013.866821289
 30
0.0
 11
-81.429473877
 21
-2012.237304688
 31
0.0
  0
LINE
  5
53C
100
AcDbEntity
  8
CATALO
  6
SOLID
 62
        7
100
AcDbLine
 10
-81.516204834
 20
-2012.17199707
 30
0.0
 11
-84.215484619
 21
-2013.73034668
 31
0.0
  0
LINE
  5
53D
100
AcDbEntity
  8
CATALO
  6
SOLID
 62
        7
100
AcDbLine
 10
-84.178863525
 20
-2013.59375
 30
0.0
 11
-81.603118896
 21
-2012.106567383
 31
0.0
  0
LINE
  5
53E
100
AcDbEntity
  8
CATALO
  6
SOLID
 62
        7
100
AcDbLine
 10
-81.689849854
 20
-2012.041259766
 30
0.0
 11
-84.142303467
 21
-2013.457275391
 31
0.0
  0
LINE
  5
53F
100
AcDbEntity
  8
CATALO
  6
SOLID
 62
        7
100
AcDbLine
 10
-84.105682373
 20
-2013.320556641
 30
0.0
 11
-81.776763916
 21
-2011.976074219
 31
0.0
  0
LINE
  5
540
100
AcDbEntity
  8
CATALO
  6
SOLID
 62
        7
100
AcDbLine
 10
-81.863555908
 20
-2011.910766602
 30
0.0
 11
-84.069061279
 21
-2013.184082031
 31
0.0
  0
LINE
  5
541
100
AcDbEntity
  8
CATALO
  6
SOLID
 62
        7
100
AcDbLine
 10
-84.032501221
 20
-2013.047485352
 30
0.0
 11
-81.950408936
 21
-2011.845336914
 31
0.0
  0
LINE
  5
542
100
AcDbEntity
  8
CATALO
  6
SOLID
 62
        7
100
AcDbLine
 10
-82.037200928
 20
-2011.780029297
 30
0.0
 11
-83.995941162
 21
-2012.911010742
 31
0.0
  0
LINE
  5
543
100
AcDbEntity
  8
CATALO
  6
SOLID
 62
        7
100
AcDbLine
 10
-83.959320068
 20
-2012.774291992
 30
0.0
 11
-82.124053955
 21
-2011.71472168
 31
0.0
  0
LINE
  5
544
100
AcDbEntity
  8
CATALO
  6
SOLID
 62
        7
100
AcDbLine
 10
-82.210845947
 20
-2011.649414063
 30
0.0
 11
-83.922698975
 21
-2012.637817383
 31
0.0
  0
LINE
  5
545
100
AcDbEntity
  8
CATALO
  6
SOLID
 62
        7
100
AcDbLine
 10
-83.886138916
 20
-2012.501220703
 30
0.0
 11
-82.29776001
 21
-2011.584228516
 31
0.0
  0
LINE
  5
546
100
AcDbEntity
  8
CATALO
  6
SOLID
 62
        7
100
AcDbLine
 10
-82.384552002
 20
-2011.518920898
 30
0.0
 11
-83.849517822
 21
-2012.364624023
 31
0.0
  0
LINE
  5
547
100
AcDbEntity
  8
CATALO
  6
SOLID
 62
        7
100
AcDbLine
 10
-83.812957764
 20
-2012.228149414
 30
0.0
 11
-82.471405029
 21
-2011.453491211
 31
0.0
  0
LINE
  5
548
100
AcDbEntity
  8
CATALO
  6
SOLID
 62
        7
100
AcDbLine
 10
-82.558135986
 20
-2011.388183594
 30
0.0
 11
-83.77633667
 21
-2012.091430664
 31
0.0
  0
LINE
  5
549
100
AcDbEntity
  8
CATALO
  6
SOLID
 62
        7
100
AcDbLine
 10
-83.739776611
 20
-2011.954956055
 30
0.0
 11
-82.645050049
 21
-2011.322875977
 31
0.0
  0
LINE
  5
54A
100
AcDbEntity
  8
CATALO
  6
SOLID
 62
        7
100
AcDbLine
 10
-82.731842041
 20
-2011.257568359
 30
0.0
 11
-83.703155518
 21
-2011.818359375
 31
0.0
  0
LINE
  5
54B
100
AcDbEntity
  8
CATALO
  6
SOLID
 62
        7
100
AcDbLine
 10
-83.666595459
 20
-2011.681884766
 30
0.0
 11
-82.818756104
 21
-2011.192382813
 31
0.0
  0
LINE
  5
54C
100
AcDbEntity
  8
CATALO
  6
SOLID
 62
        7
100
AcDbLine
 10
-82.905487061
 20
-2011.127075195
 30
0.0
 11
-83.629974365
 21
-2011.545166016
 31
0.0
  0
LINE
  5
54D
100
AcDbEntity
  8
CATALO
  6
SOLID
 62
        7
100
AcDbLine
 10
-83.593353271
 20
-2011.408691406
 30
0.0
 11
-82.992401123
 21
-2011.061645508
 31
0.0
  0
LINE
  5
54E
100
AcDbEntity
  8
CATALO
  6
SOLID
 62
        7
100
AcDbLine
 10
-83.07913208
 20
-2010.996337891
 30
0.0
 11
-83.556793213
 21
-2011.272094727
 31
0.0
  0
LINE
  5
54F
100
AcDbEntity
  8
CATALO
  6
SOLID
 62
        7
100
AcDbLine
 10
-83.520172119
 20
-2011.135620117
 30
0.0
 11
-83.166046143
 21
-2010.931152344
 31
0.0
  0
LINE
  5
550
100
AcDbEntity
  8
CATALO
  6
SOLID
 62
        7
100
AcDbLine
 10
-83.25289917
 20
-2010.865722656
 30
0.0
 11
-83.483612061
 21
-2010.998901367
 31
0.0
  0
LINE
  5
551
100
AcDbEntity
  8
CATALO
  6
SOLID
 62
        7
100
AcDbLine
 10
-83.446990967
 20
-2010.862426758
 30
0.0
 11
-83.339691162
 21
-2010.800415039
 31
0.0
  0
ENDBLK
  5
552
100
AcDbEntity
  8
0
100
AcDbBlockEnd
  0
BLOCK
  5
55D
100
AcDbEntity
  8
0
100
AcDbBlockBegin
  2
*H38
 70
        0
 10
0.0
 20
0.0
 30
0.0
  3
*H38
  1

  0
LINE
  5
55E
100
AcDbEntity
  8
CATALO
  6
SOLID
 62
        7
100
AcDbLine
 10
-104.253631592
 20
-2044.212158203
 30
0.0
 11
-104.187225342
 21
-2044.173828125
 31
0.0
  0
LINE
  5
55F
100
AcDbEntity
  8
CATALO
  6
SOLID
 62
        7
100
AcDbLine
 10
-104.150543213
 20
-2044.036987305
 30
0.0
 11
-104.349578857
 21
-2044.151977539
 31
0.0
  0
LINE
  5
560
100
AcDbEntity
  8
CATALO
  6
SOLID
 62
        7
100
AcDbLine
 10
-104.445587158
 20
-2044.091918945
 30
0.0
 11
-104.113983154
 21
-2043.900512695
 31
0.0
  0
LINE
  5
561
100
AcDbEntity
  8
CATALO
  6
SOLID
 62
        7
100
AcDbLine
 10
-104.077423096
 20
-2043.763916016
 30
0.0
 11
-104.541656494
 21
-2044.032104492
 31
0.0
  0
LINE
  5
562
100
AcDbEntity
  8
CATALO
  6
SOLID
 62
        7
100
AcDbLine
 10
-104.63760376
 20
-2043.971923828
 30
0.0
 11
-104.040802002
 21
-2043.627441406
 31
0.0
  0
LINE
  5
563
100
AcDbEntity
  8
CATALO
  6
SOLID
 62
        7
100
AcDbLine
 10
-104.004241943
 20
-2043.490844727
 30
0.0
 11
-104.733551025
 21
-2043.911865234
 31
0.0
  0
LINE
  5
564
100
AcDbEntity
  8
CATALO
  6
SOLID
 62
        7
100
AcDbLine
 10
-104.829681396
 20
-2043.852050781
 30
0.0
 11
-103.96762085
 21
-2043.354248047
 31
0.0
  0
LINE
  5
565
100
AcDbEntity
  8
CATALO
  6
SOLID
 62
        7
100
AcDbLine
 10
-103.931060791
 20
-2043.217773438
 30
0.0
 11
-104.925628662
 21
-2043.791870117
 31
0.0
  0
LINE
  5
566
100
AcDbEntity
  8
CATALO
  6
SOLID
 62
        7
100
AcDbLine
 10
-105.021575928
 20
-2043.731811523
 30
0.0
 11
-103.894378662
 21
-2043.080932617
 31
0.0
  0
LINE
  5
567
100
AcDbEntity
  8
CATALO
  6
SOLID
 62
        7
100
AcDbLine
 10
-103.857879639
 20
-2042.944702148
 30
0.0
 11
-105.117706299
 21
-2043.67199707
 31
0.0
  0
LINE
  5
568
100
AcDbEntity
  8
CATALO
  6
SOLID
 62
        7
100
AcDbLine
 10
-105.213653564
 20
-2043.611938477
 30
0.0
 11
-103.82131958
 21
-2042.807861328
 31
0.0
  0
LINE
  5
569
100
AcDbEntity
  8
CATALO
  6
SOLID
 62
        7
100
AcDbLine
 10
-103.784820557
 20
-2042.671630859
 30
0.0
 11
-105.30960083
 21
-2043.551757813
 31
0.0
  0
LINE
  5
56A
100
AcDbEntity
  8
CATALO
  6
SOLID
 62
        7
100
AcDbLine
 10
-105.405548096
 20
-2043.491699219
 30
0.0
 11
-103.748138428
 21
-2042.534790039
 31
0.0
  0
LINE
  5
56B
100
AcDbEntity
  8
CATALO
  6
SOLID
 62
        7
100
AcDbLine
 10
-103.711639404
 20
-2042.39855957
 30
0.0
 11
-105.501678467
 21
-2043.431884766
 31
0.0
  0
LINE
  5
56C
100
AcDbEntity
  8
CATALO
  6
SOLID
 62
        7
100
AcDbLine
 10
-105.597625732
 20
-2043.371704102
 30
0.0
 11
-103.674957275
 21
-2042.26171875
 31
0.0
  0
LINE
  5
56D
100
AcDbEntity
  8
CATALO
  6
SOLID
 62
        7
100
AcDbLine
 10
-103.638397217
 20
-2042.12512207
 30
0.0
 11
-105.693634033
 21
-2043.311889648
 31
0.0
  0
LINE
  5
56E
100
AcDbEntity
  8
CATALO
  6
SOLID
 62
        7
100
AcDbLine
 10
-105.789703369
 20
-2043.251831055
 30
0.0
 11
-103.601776123
 21
-2041.988647461
 31
0.0
  0
LINE
  5
56F
100
AcDbEntity
  8
CATALO
  6
SOLID
 62
        7
100
AcDbLine
 10
-103.565216064
 20
-2041.852050781
 30
0.0
 11
-105.885650635
 21
-2043.191650391
 31
0.0
  0
LINE
  5
570
100
AcDbEntity
  8
CATALO
  6
SOLID
 62
        7
100
AcDbLine
 10
-105.981658936
 20
-2043.131835938
 30
0.0
 11
-103.528656006
 21
-2041.715576172
 31
0.0
  0
LINE
  5
571
100
AcDbEntity
  8
CATALO
  6
SOLID
 62
        7
100
AcDbLine
 10
-103.491973877
 20
-2041.578735352
 30
0.0
 11
-106.077728271
 21
-2043.071777344
 31
0.0
  0
LINE
  5
572
100
AcDbEntity
  8
CATALO
  6
SOLID
 62
        7
100
AcDbLine
 10
-106.173675537
 20
-2043.01171875
 30
0.0
 11
-103.455291748
 21
-2041.442260742
 31
0.0
  0
LINE
  5
573
100
AcDbEntity
  8
CATALO
  6
SOLID
 62
        7
100
AcDbLine
 10
-103.418731689
 20
-2041.305664063
 30
0.0
 11
-106.269683838
 21
-2042.951782227
 31
0.0
  0
LINE
  5
574
100
AcDbEntity
  8
CATALO
  6
SOLID
 62
        7
100
AcDbLine
 10
-106.365631104
 20
-2042.891723633
 30
0.0
 11
-103.382110596
 21
-2041.169189453
 31
0.0
  0
LINE
  5
575
100
AcDbEntity
  8
CATALO
  6
SOLID
 62
        7
100
AcDbLine
 10
-103.345550537
 20
-2041.032592773
 30
0.0
 11
-106.461700439
 21
-2042.831665039
 31
0.0
  0
LINE
  5
576
100
AcDbEntity
  8
CATALO
  6
SOLID
 62
        7
100
AcDbLine
 10
-106.55770874
 20
-2042.771728516
 30
0.0
 11
-103.308929443
 21
-2040.895874023
 31
0.0
  0
LINE
  5
577
100
AcDbEntity
  8
CATALO
  6
SOLID
 62
        7
100
AcDbLine
 10
-103.272369385
 20
-2040.759521484
 30
0.0
 11
-106.653656006
 21
-2042.711669922
 31
0.0
  0
LINE
  5
578
100
AcDbEntity
  8
CATALO
  6
SOLID
 62
        7
100
AcDbLine
 10
-106.749725342
 20
-2042.651611328
 30
0.0
 11
-103.235748291
 21
-2040.622802734
 31
0.0
  0
LINE
  5
579
100
AcDbEntity
  8
CATALO
  6
SOLID
 62
        7
100
AcDbLine
 10
-103.199188232
 20
-2040.486450195
 30
0.0
 11
-106.845733643
 21
-2042.591674805
 31
0.0
  0
LINE
  5
57A
100
AcDbEntity
  8
CATALO
  6
SOLID
 62
        7
100
AcDbLine
 10
-106.941680908
 20
-2042.531616211
 30
0.0
 11
-103.162567139
 21
-2040.349731445
 31
0.0
  0
LINE
  5
57B
100
AcDbEntity
  8
CATALO
  6
SOLID
 62
        7
100
AcDbLine
 10
-103.125946045
 20
-2040.213134766
 30
0.0
 11
-107.037689209
 21
-2042.471557617
 31
0.0
  0
LINE
  5
57C
100
AcDbEntity
  8
CATALO
  6
SOLID
 62
        7
100
AcDbLine
 10
-107.133758545
 20
-2042.411621094
 30
0.0
 11
-103.089385986
 21
-2040.076660156
 31
0.0
  0
LINE
  5
57D
100
AcDbEntity
  8
CATALO
  6
SOLID
 62
        7
100
AcDbLine
 10
-103.052886963
 20
-2039.940063477
 30
0.0
 11
-107.229705811
 21
-2042.3515625
 31
0.0
  0
LINE
  5
57E
100
AcDbEntity
  8
CATALO
  6
SOLID
 62
        7
100
AcDbLine
 10
-107.325714111
 20
-2042.291503906
 30
0.0
 11
-103.016265869
 21
-2039.803466797
 31
0.0
  0
LINE
  5
57F
100
AcDbEntity
  8
CATALO
  6
SOLID
 62
        7
100
AcDbLine
 10
-102.979705811
 20
-2039.666992188
 30
0.0
 11
-107.421783447
 21
-2042.231567383
 31
0.0
  0
LINE
  5
580
100
AcDbEntity
  8
CATALO
  6
SOLID
 62
        7
100
AcDbLine
 10
-107.517730713
 20
-2042.171508789
 30
0.0
 11
-102.943145752
 21
-2039.530395508
 31
0.0
  0
LINE
  5
581
100
AcDbEntity
  8
CATALO
  6
SOLID
 62
        7
100
AcDbLine
 10
-102.906463623
 20
-2039.393676758
 30
0.0
 11
-107.613800049
 21
-2042.111694336
 31
0.0
  0
LINE
  5
582
100
AcDbEntity
  8
CATALO
  6
SOLID
 62
        7
100
AcDbLine
 10
-107.70980835
 20
-2042.051635742
 30
0.0
 11
-102.8699646
 21
-2039.257324219
 31
0.0
  0
LINE
  5
583
100
AcDbEntity
  8
CATALO
  6
SOLID
 62
        7
100
AcDbLine
 10
-102.833282471
 20
-2039.120605469
 30
0.0
 11
-107.805755615
 21
-2041.991455078
 31
0.0
  0
LINE
  5
584
100
AcDbEntity
  8
CATALO
  6
SOLID
 62
        7
100
AcDbLine
 10
-107.901763916
 20
-2041.931396484
 30
0.0
 11
-102.796783447
 21
-2038.98425293
 31
0.0
  0
LINE
  5
585
100
AcDbEntity
  8
CATALO
  6
SOLID
 62
        7
100
AcDbLine
 10
-102.760101318
 20
-2038.84753418
 30
0.0
 11
-107.997711182
 21
-2041.871337891
 31
0.0
  0
LINE
  5
586
100
AcDbEntity
  8
CATALO
  6
SOLID
 62
        7
100
AcDbLine
 10
-108.093780518
 20
-2041.811401367
 30
0.0
 11
-102.72354126
 21
-2038.7109375
 31
0.0
  0
LINE
  5
587
100
AcDbEntity
  8
CATALO
  6
SOLID
 62
        7
100
AcDbLine
 10
-102.784088135
 20
-2038.630493164
 30
0.0
 11
-108.189849854
 21
-2041.751586914
 31
0.0
  0
LINE
  5
588
100
AcDbEntity
  8
CATALO
  6
SOLID
 62
        7
100
AcDbLine
 10
-108.285797119
 20
-2041.69152832
 30
0.0
 11
-102.99697876
 21
-2038.637939453
 31
0.0
  0
LINE
  5
589
100
AcDbEntity
  8
CATALO
  6
SOLID
 62
        7
100
AcDbLine
 10
-103.20993042
 20
-2038.645629883
 30
0.0
 11
-108.38180542
 21
-2041.631347656
 31
0.0
  0
LINE
  5
58A
100
AcDbEntity
  8
CATALO
  6
SOLID
 62
        7
100
AcDbLine
 10
-108.477813721
 20
-2041.571289063
 30
0.0
 11
-103.42276001
 21
-2038.652709961
 31
0.0
  0
LINE
  5
58B
100
AcDbEntity
  8
CATALO
  6
SOLID
 62
        7
100
AcDbLine
 10
-103.63571167
 20
-2038.660400391
 30
0.0
 11
-108.573822021
 21
-2041.511474609
 31
0.0
  0
LINE
  5
58C
100
AcDbEntity
  8
CATALO
  6
SOLID
 62
        7
100
AcDbLine
 10
-108.669769287
 20
-2041.451416016
 30
0.0
 11
-103.848602295
 21
-2038.66784668
 31
0.0
  0
LINE
  5
58D
100
AcDbEntity
  8
CATALO
  6
SOLID
 62
        7
100
AcDbLine
 10
-104.061431885
 20
-2038.675170898
 30
0.0
 11
-108.765899658
 21
-2041.391479492
 31
0.0
  0
LINE
  5
58E
100
AcDbEntity
  8
CATALO
  6
SOLID
 62
        7
100
AcDbLine
 10
-108.861846924
 20
-2041.331420898
 30
0.0
 11
-104.274383545
 21
-2038.682861328
 31
0.0
  0
LINE
  5
58F
100
AcDbEntity
  8
CATALO
  6
SOLID
 62
        7
100
AcDbLine
 10
-104.4871521
 20
-2038.690063477
 30
0.0
 11
-108.957794189
 21
-2041.271362305
 31
0.0
  0
LINE
  5
590
100
AcDbEntity
  8
CATALO
  6
SOLID
 62
        7
100
AcDbLine
 10
-109.053863525
 20
-2041.211181641
 30
0.0
 11
-104.70010376
 21
-2038.697753906
 31
0.0
  0
LINE
  5
591
100
AcDbEntity
  8
CATALO
  6
SOLID
 62
        7
100
AcDbLine
 10
-104.91293335
 20
-2038.705078125
 30
0.0
 11
-109.149871826
 21
-2041.151367188
 31
0.0
  0
LINE
  5
592
100
AcDbEntity
  8
CATALO
  6
SOLID
 62
        7
100
AcDbLine
 10
-109.245819092
 20
-2041.091308594
 30
0.0
 11
-105.125823975
 21
-2038.712524414
 31
0.0
  0
LINE
  5
593
100
AcDbEntity
  8
CATALO
  6
SOLID
 62
        7
100
AcDbLine
 10
-105.338775635
 20
-2038.720214844
 30
0.0
 11
-109.341949463
 21
-2041.03137207
 31
0.0
  0
LINE
  5
594
100
AcDbEntity
  8
CATALO
  6
SOLID
 62
        7
100
AcDbLine
 10
-109.437896729
 20
-2040.971313477
 30
0.0
 11
-105.55166626
 21
-2038.727661133
 31
0.0
  0
LINE
  5
595
100
AcDbEntity
  8
CATALO
  6
SOLID
 62
        7
100
AcDbLine
 10
-105.764556885
 20
-2038.734985352
 30
0.0
 11
-109.533843994
 21
-2040.911254883
 31
0.0
  0
LINE
  5
596
100
AcDbEntity
  8
CATALO
  6
SOLID
 62
        7
100
AcDbLine
 10
-109.62979126
 20
-2040.851196289
 30
0.0
 11
-105.97744751
 21
-2038.742675781
 31
0.0
  0
LINE
  5
597
100
AcDbEntity
  8
CATALO
  6
SOLID
 62
        7
100
AcDbLine
 10
-106.190338135
 20
-2038.75012207
 30
0.0
 11
-109.725921631
 21
-2040.791259766
 31
0.0
  0
LINE
  5
598
100
AcDbEntity
  8
CATALO
  6
SOLID
 62
        7
100
AcDbLine
 10
-109.821868896
 20
-2040.731201172
 30
0.0
 11
-106.40322876
 21
-2038.757446289
 31
0.0
  0
LINE
  5
599
100
AcDbEntity
  8
CATALO
  6
SOLID
 62
        7
100
AcDbLine
 10
-106.61618042
 20
-2038.765136719
 30
0.0
 11
-109.917877197
 21
-2040.671386719
 31
0.0
  0
LINE
  5
59A
100
AcDbEntity
  8
CATALO
  6
SOLID
 62
        7
100
AcDbLine
 10
-110.013946533
 20
-2040.611206055
 30
0.0
 11
-106.82901001
 21
-2038.772338867
 31
0.0
  0
LINE
  5
59B
100
AcDbEntity
  8
CATALO
  6
SOLID
 62
        7
100
AcDbLine
 10
-107.0418396
 20
-2038.780029297
 30
0.0
 11
-110.109893799
 21
-2040.551147461
 31
0.0
  0
LINE
  5
59C
100
AcDbEntity
  8
CATALO
  6
SOLID
 62
        7
100
AcDbLine
 10
-110.205841064
 20
-2040.491088867
 30
0.0
 11
-107.254669189
 21
-2038.787109375
 31
0.0
  0
LINE
  5
59D
100
AcDbEntity
  8
CATALO
  6
SOLID
 62
        7
100
AcDbLine
 10
-107.46762085
 20
-2038.794799805
 30
0.0
 11
-110.301849365
 21
-2040.431152344
 31
0.0
  0
LINE
  5
59E
100
AcDbEntity
  8
CATALO
  6
SOLID
 62
        7
100
AcDbLine
 10
-110.397979736
 20
-2040.371337891
 30
0.0
 11
-107.68057251
 21
-2038.802490234
 31
0.0
  0
LINE
  5
59F
100
AcDbEntity
  8
CATALO
  6
SOLID
 62
        7
100
AcDbLine
 10
-107.893341064
 20
-2038.809570313
 30
0.0
 11
-110.493927002
 21
-2040.311279297
 31
0.0
  0
LINE
  5
5A0
100
AcDbEntity
  8
CATALO
  6
SOLID
 62
        7
100
AcDbLine
 10
-110.589874268
 20
-2040.251098633
 30
0.0
 11
-108.106292725
 21
-2038.817260742
 31
0.0
  0
LINE
  5
5A1
100
AcDbEntity
  8
CATALO
  6
SOLID
 62
        7
100
AcDbLine
 10
-108.31918335
 20
-2038.824707031
 30
0.0
 11
-110.685943604
 21
-2040.191040039
 31
0.0
  0
LINE
  5
5A2
100
AcDbEntity
  8
CATALO
  6
SOLID
 62
        7
100
AcDbLine
 10
-110.781890869
 20
-2040.130981445
 30
0.0
 11
-108.532073975
 21
-2038.83203125
 31
0.0
  0
LINE
  5
5A3
100
AcDbEntity
  8
CATALO
  6
SOLID
 62
        7
100
AcDbLine
 10
-108.745025635
 20
-2038.83972168
 30
0.0
 11
-110.87789917
 21
-2040.071166992
 31
0.0
  0
LINE
  5
5A4
100
AcDbEntity
  8
CATALO
  6
SOLID
 62
        7
100
AcDbLine
 10
-110.974029541
 20
-2040.011230469
 30
0.0
 11
-108.95791626
 21
-2038.847167969
 31
0.0
  0
LINE
  5
5A5
100
AcDbEntity
  8
CATALO
  6
SOLID
 62
        7
100
AcDbLine
 10
-109.17074585
 20
-2038.854614258
 30
0.0
 11
-111.069976807
 21
-2039.951171875
 31
0.0
  0
LINE
  5
5A6
100
AcDbEntity
  8
CATALO
  6
SOLID
 62
        7
100
AcDbLine
 10
-111.165924072
 20
-2039.891113281
 30
0.0
 11
-109.383575439
 21
-2038.861938477
 31
0.0
  0
LINE
  5
5A7
100
AcDbEntity
  8
CATALO
  6
SOLID
 62
        7
100
AcDbLine
 10
-109.596466064
 20
-2038.869384766
 30
0.0
 11
-111.261932373
 21
-2039.830932617
 31
0.0
  0
LINE
  5
5A8
100
AcDbEntity
  8
CATALO
  6
SOLID
 62
        7
100
AcDbLine
 10
-111.358001709
 20
-2039.771118164
 30
0.0
 11
-109.809417725
 21
-2038.877075195
 31
0.0
  0
LINE
  5
5A9
100
AcDbEntity
  8
CATALO
  6
SOLID
 62
        7
100
AcDbLine
 10
-110.022247314
 20
-2038.884399414
 30
0.0
 11
-111.453948975
 21
-2039.71105957
 31
0.0
  0
LINE
  5
5AA
100
AcDbEntity
  8
CATALO
  6
SOLID
 62
        7
100
AcDbLine
 10
-111.550018311
 20
-2039.651123047
 30
0.0
 11
-110.235137939
 21
-2038.891845703
 31
0.0
  0
LINE
  5
5AB
100
AcDbEntity
  8
CATALO
  6
SOLID
 62
        7
100
AcDbLine
 10
-110.4480896
 20
-2038.899536133
 30
0.0
 11
-111.646026611
 21
-2039.591064453
 31
0.0
  0
LINE
  5
5AC
100
AcDbEntity
  8
CATALO
  6
SOLID
 62
        7
100
AcDbLine
 10
-111.741973877
 20
-2039.531005859
 30
0.0
 11
-110.660919189
 21
-2038.906738281
 31
0.0
  0
LINE
  5
5AD
100
AcDbEntity
  8
CATALO
  6
SOLID
 62
        7
100
AcDbLine
 10
-110.87387085
 20
-2038.914306641
 30
0.0
 11
-111.837982178
 21
-2039.470825195
 31
0.0
  0
LINE
  5
5AE
100
AcDbEntity
  8
CATALO
  6
SOLID
 62
        7
100
AcDbLine
 10
-111.934051514
 20
-2039.411010742
 30
0.0
 11
-111.086700439
 21
-2038.92175293
 31
0.0
  0
LINE
  5
5AF
100
AcDbEntity
  8
CATALO
  6
SOLID
 62
        7
100
AcDbLine
 10
-111.299591064
 20
-2038.929199219
 30
0.0
 11
-112.029998779
 21
-2039.350952148
 31
0.0
  0
LINE
  5
5B0
100
AcDbEntity
  8
CATALO
  6
SOLID
 62
        7
100
AcDbLine
 10
-112.126068115
 20
-2039.291015625
 30
0.0
 11
-111.512542725
 21
-2038.936767578
 31
0.0
  0
LINE
  5
5B1
100
AcDbEntity
  8
CATALO
  6
SOLID
 62
        7
100
AcDbLine
 10
-111.72543335
 20
-2038.944213867
 30
0.0
 11
-112.222015381
 21
-2039.230957031
 31
0.0
  0
LINE
  5
5B2
100
AcDbEntity
  8
CATALO
  6
SOLID
 62
        7
100
AcDbLine
 10
-112.318023682
 20
-2039.170898438
 30
0.0
 11
-111.938201904
 21
-2038.951660156
 31
0.0
  0
LINE
  5
5B3
100
AcDbEntity
  8
CATALO
  6
SOLID
 62
        7
100
AcDbLine
 10
-112.151092529
 20
-2038.959106445
 30
0.0
 11
-112.414031982
 21
-2039.110839844
 31
0.0
  0
LINE
  5
5B4
100
AcDbEntity
  8
CATALO
  6
SOLID
 62
        7
100
AcDbLine
 10
-112.509979248
 20
-2039.05065918
 30
0.0
 11
-112.363983154
 21
-2038.966430664
 31
0.0
  0
LINE
  5
5B5
100
AcDbEntity
  8
CATALO
  6
SOLID
 62
        7
100
AcDbLine
 10
-112.576934814
 20
-2038.974121094
 30
0.0
 11
-112.606109619
 21
-2038.991088867
 31
0.0
  0
ENDBLK
  5
5B6
100
AcDbEntity
  8
0
100
AcDbBlockEnd
  0
BLOCK
  5
5B9
100
AcDbEntity
  8
0
100
AcDbBlockBegin
  2
*H39
 70
        0
 10
0.0
 20
0.0
 30
0.0
  3
*H39
  1

  0
LINE
  5
5BA
100
AcDbEntity
  8
CATALO
  6
SOLID
 62
        7
100
AcDbLine
 10
-45.228240967
 20
-2060.027832031
 30
0.0
 11
-45.266571045
 21
-2059.961425781
 31
0.0
  0
LINE
  5
5BB
100
AcDbEntity
  8
CATALO
  6
SOLID
 62
        7
100
AcDbLine
 10
-45.229888916
 20
-2059.824707031
 30
0.0
 11
-45.115081787
 21
-2060.023681641
 31
0.0
  0
LINE
  5
5BC
100
AcDbEntity
  8
CATALO
  6
SOLID
 62
        7
100
AcDbLine
 10
-45.001861572
 20
-2060.019775391
 30
0.0
 11
-45.193328857
 21
-2059.688232422
 31
0.0
  0
LINE
  5
5BD
100
AcDbEntity
  8
CATALO
  6
SOLID
 62
        7
100
AcDbLine
 10
-45.156707764
 20
-2059.551513672
 30
0.0
 11
-44.888763428
 21
-2060.015869141
 31
0.0
  0
LINE
  5
5BE
100
AcDbEntity
  8
CATALO
  6
SOLID
 62
        7
100
AcDbLine
 10
-44.775604248
 20
-2060.011962891
 30
0.0
 11
-45.120147705
 21
-2059.415039063
 31
0.0
  0
LINE
  5
5BF
100
AcDbEntity
  8
CATALO
  6
SOLID
 62
        7
100
AcDbLine
 10
-45.083526611
 20
-2059.278564453
 30
0.0
 11
-44.662445068
 21
-2060.0078125
 31
0.0
  0
LINE
  5
5C0
100
AcDbEntity
  8
CATALO
  6
SOLID
 62
        7
100
AcDbLine
 10
-44.549285889
 20
-2060.004150391
 30
0.0
 11
-45.046966553
 21
-2059.142089844
 31
0.0
  0
LINE
  5
5C1
100
AcDbEntity
  8
CATALO
  6
SOLID
 62
        7
100
AcDbLine
 10
-45.010406494
 20
-2059.005371094
 30
0.0
 11
-44.436126709
 21
-2060.0
 31
0.0
  0
LINE
  5
5C2
100
AcDbEntity
  8
CATALO
  6
SOLID
 62
        7
100
AcDbLine
 10
-44.323028564
 20
-2059.995849609
 30
0.0
 11
-44.973724365
 21
-2058.868652344
 31
0.0
  0
LINE
  5
5C3
100
AcDbEntity
  8
CATALO
  6
SOLID
 62
        7
100
AcDbLine
 10
-44.937225342
 20
-2058.732421875
 30
0.0
 11
-44.20980835
 21
-2059.9921875
 31
0.0
  0
LINE
  5
5C4
100
AcDbEntity
  8
CATALO
  6
SOLID
 62
        7
100
AcDbLine
 10
-44.096710205
 20
-2059.988037109
 30
0.0
 11
-44.900482178
 21
-2058.595703125
 31
0.0
  0
LINE
  5
5C5
100
AcDbEntity
  8
CATALO
  6
SOLID
 62
        7
100
AcDbLine
 10
-44.863983154
 20
-2058.459228516
 30
0.0
 11
-43.983551025
 21
-2059.983886719
 31
0.0
  0
LINE
  5
5C6
100
AcDbEntity
  8
CATALO
  6
SOLID
 62
        7
100
AcDbLine
 10
-43.870391846
 20
-2059.979980469
 30
0.0
 11
-44.827301025
 21
-2058.322509766
 31
0.0
  0
LINE
  5
5C7
100
AcDbEntity
  8
CATALO
  6
SOLID
 62
        7
100
AcDbLine
 10
-44.790802002
 20
-2058.186279297
 30
0.0
 11
-43.757232666
 21
-2059.976074219
 31
0.0
  0
LINE
  5
5C8
100
AcDbEntity
  8
CATALO
  6
SOLID
 62
        7
100
AcDbLine
 10
-43.644073486
 20
-2059.972167969
 30
0.0
 11
-44.754119873
 21
-2058.049560547
 31
0.0
  0
LINE
  5
5C9
100
AcDbEntity
  8
CATALO
  6
SOLID
 62
        7
100
AcDbLine
 10
-44.717559814
 20
-2057.912841797
 30
0.0
 11
-43.530975342
 21
-2059.968261719
 31
0.0
  0
LINE
  5
5CA
100
AcDbEntity
  8
CATALO
  6
SOLID
 62
        7
100
AcDbLine
 10
-43.417755127
 20
-2059.964355469
 30
0.0
 11
-44.680938721
 21
-2057.776367188
 31
0.0
  0
LINE
  5
5CB
100
AcDbEntity
  8
CATALO
  6
SOLID
 62
        7
100
AcDbLine
 10
-44.644378662
 20
-2057.639892578
 30
0.0
 11
-43.304595947
 21
-2059.960205078
 31
0.0
  0
LINE
  5
5CC
100
AcDbEntity
  8
CATALO
  6
SOLID
 62
        7
100
AcDbLine
 10
-43.191558838
 20
-2059.956298828
 30
0.0
 11
-44.607818604
 21
-2057.503173828
 31
0.0
  0
LINE
  5
5CD
100
AcDbEntity
  8
CATALO
  6
SOLID
 62
        7
100
AcDbLine
 10
-44.571136475
 20
-2057.366455078
 30
0.0
 11
-43.078338623
 21
-2059.952392578
 31
0.0
  0
LINE
  5
5CE
100
AcDbEntity
  8
CATALO
  6
SOLID
 62
        7
100
AcDbLine
 10
-42.965179443
 20
-2059.948242188
 30
0.0
 11
-44.534637451
 21
-2057.229980469
 31
0.0
  0
LINE
  5
5CF
100
AcDbEntity
  8
CATALO
  6
SOLID
 62
        7
100
AcDbLine
 10
-44.498077393
 20
-2057.093505859
 30
0.0
 11
-42.852081299
 21
-2059.944335938
 31
0.0
  0
LINE
  5
5D0
100
AcDbEntity
  8
CATALO
  6
SOLID
 62
        7
100
AcDbLine
 10
-42.738922119
 20
-2059.940429688
 30
0.0
 11
-44.461456299
 21
-2056.956787109
 31
0.0
  0
LINE
  5
5D1
100
AcDbEntity
  8
CATALO
  6
SOLID
 62
        7
100
AcDbLine
 10
-44.42489624
 20
-2056.8203125
 30
0.0
 11
-42.625701904
 21
-2059.936279297
 31
0.0
  0
LINE
  5
5D2
100
AcDbEntity
  8
CATALO
  6
SOLID
 62
        7
100
AcDbLine
 10
-42.51260376
 20
-2059.932617188
 30
0.0
 11
-44.388214111
 21
-2056.68359375
 31
0.0
  0
LINE
  5
5D3
100
AcDbEntity
  8
CATALO
  6
SOLID
 62
        7
100
AcDbLine
 10
-44.351715088
 20
-2056.547363281
 30
0.0
 11
-42.399505615
 21
-2059.928466797
 31
0.0
  0
LINE
  5
5D4
100
AcDbEntity
  8
CATALO
  6
SOLID
 62
        7
100
AcDbLine
 10
-42.286224365
 20
-2059.924560547
 30
0.0
 11
-44.315032959
 21
-2056.410400391
 31
0.0
  0
LINE
  5
5D5
100
AcDbEntity
  8
CATALO
  6
SOLID
 62
        7
100
AcDbLine
 10
-44.278533936
 20
-2056.274169922
 30
0.0
 11
-42.173187256
 21
-2059.920654297
 31
0.0
  0
LINE
  5
5D6
100
AcDbEntity
  8
CATALO
  6
SOLID
 62
        7
100
AcDbLine
 10
-42.060028076
 20
-2059.916503906
 30
0.0
 11
-44.241912842
 21
-2056.137451172
 31
0.0
  0
LINE
  5
5D7
100
AcDbEntity
  8
CATALO
  6
SOLID
 62
        7
100
AcDbLine
 10
-44.205291748
 20
-2056.000732422
 30
0.0
 11
-41.946868896
 21
-2059.912597656
 31
0.0
  0
LINE
  5
5D8
100
AcDbEntity
  8
CATALO
  6
SOLID
 62
        7
100
AcDbLine
 10
-41.833709717
 20
-2059.908691406
 30
0.0
 11
-44.168731689
 21
-2055.864257813
 31
0.0
  0
LINE
  5
5D9
100
AcDbEntity
  8
CATALO
  6
SOLID
 62
        7
100
AcDbLine
 10
-44.132049561
 20
-2055.727783203
 30
0.0
 11
-41.720550537
 21
-2059.904541016
 31
0.0
  0
LINE
  5
5DA
100
AcDbEntity
  8
CATALO
  6
SOLID
 62
        7
100
AcDbLine
 10
-41.607391357
 20
-2059.900634766
 30
0.0
 11
-44.095489502
 21
-2055.591308594
 31
0.0
  0
LINE
  5
5DB
100
AcDbEntity
  8
CATALO
  6
SOLID
 62
        7
100
AcDbLine
 10
-44.058868408
 20
-2055.454589844
 30
0.0
 11
-41.494232178
 21
-2059.896728516
 31
0.0
  0
LINE
  5
5DC
100
AcDbEntity
  8
CATALO
  6
SOLID
 62
        7
100
AcDbLine
 10
-41.381072998
 20
-2059.892822266
 30
0.0
 11
-44.02230835
 21
-2055.318115234
 31
0.0
  0
LINE
  5
5DD
100
AcDbEntity
  8
CATALO
  6
SOLID
 62
        7
100
AcDbLine
 10
-43.985626221
 20
-2055.181396484
 30
0.0
 11
-41.268035889
 21
-2059.888916016
 31
0.0
  0
LINE
  5
5DE
100
AcDbEntity
  8
CATALO
  6
SOLID
 62
        7
100
AcDbLine
 10
-41.154754639
 20
-2059.884765625
 30
0.0
 11
-43.949127197
 21
-2055.045166016
 31
0.0
  0
LINE
  5
5DF
100
AcDbEntity
  8
CATALO
  6
SOLID
 62
        7
100
AcDbLine
 10
-43.912445068
 20
-2054.908203125
 30
0.0
 11
-41.041656494
 21
-2059.880859375
 31
0.0
  0
LINE
  5
5E0
100
AcDbEntity
  8
CATALO
  6
SOLID
 62
        7
100
AcDbLine
 10
-40.928497314
 20
-2059.876708984
 30
0.0
 11
-43.875946045
 21
-2054.771972656
 31
0.0
  0
LINE
  5
5E1
100
AcDbEntity
  8
CATALO
  6
SOLID
 62
        7
100
AcDbLine
 10
-43.839324951
 20
-2054.635253906
 30
0.0
 11
-40.815338135
 21
-2059.872802734
 31
0.0
  0
LINE
  5
5E2
100
AcDbEntity
  8
CATALO
  6
SOLID
 62
        7
100
AcDbLine
 10
-40.702178955
 20
-2059.868896484
 30
0.0
 11
-43.802703857
 21
-2054.498779297
 31
0.0
  0
LINE
  5
5E3
100
AcDbEntity
  8
CATALO
  6
SOLID
 62
        7
100
AcDbLine
 10
-43.71005249
 20
-2054.459228516
 30
0.0
 11
-40.589080811
 21
-2059.864990234
 31
0.0
  0
LINE
  5
5E4
100
AcDbEntity
  8
CATALO
  6
SOLID
 62
        7
100
AcDbLine
 10
-40.475921631
 20
-2059.861083984
 30
0.0
 11
-43.529388428
 21
-2054.572265625
 31
0.0
  0
LINE
  5
5E5
100
AcDbEntity
  8
CATALO
  6
SOLID
 62
        7
100
AcDbLine
 10
-43.3487854
 20
-2054.685302734
 30
0.0
 11
-40.362701416
 21
-2059.856933594
 31
0.0
  0
LINE
  5
5E6
100
AcDbEntity
  8
CATALO
  6
SOLID
 62
        7
100
AcDbLine
 10
-40.249542236
 20
-2059.853027344
 30
0.0
 11
-43.168060303
 21
-2054.797851563
 31
0.0
  0
LINE
  5
5E7
100
AcDbEntity
  8
CATALO
  6
SOLID
 62
        7
100
AcDbLine
 10
-42.987518311
 20
-2054.910888672
 30
0.0
 11
-40.136505127
 21
-2059.849121094
 31
0.0
  0
LINE
  5
5E8
100
AcDbEntity
  8
CATALO
  6
SOLID
 62
        7
100
AcDbLine
 10
-40.023345947
 20
-2059.844970703
 30
0.0
 11
-42.806854248
 21
-2055.023925781
 31
0.0
  0
LINE
  5
5E9
100
AcDbEntity
  8
CATALO
  6
SOLID
 62
        7
100
AcDbLine
 10
-42.626190186
 20
-2055.13671875
 30
0.0
 11
-39.910186768
 21
-2059.841308594
 31
0.0
  0
LINE
  5
5EA
100
AcDbEntity
  8
CATALO
  6
SOLID
 62
        7
100
AcDbLine
 10
-39.797027588
 20
-2059.837158203
 30
0.0
 11
-42.445587158
 21
-2055.249755859
 31
0.0
  0
LINE
  5
5EB
100
AcDbEntity
  8
CATALO
  6
SOLID
 62
        7
100
AcDbLine
 10
-42.264984131
 20
-2055.362304688
 30
0.0
 11
-39.683868408
 21
-2059.833251953
 31
0.0
  0
LINE
  5
5EC
100
AcDbEntity
  8
CATALO
  6
SOLID
 62
        7
100
AcDbLine
 10
-39.570648193
 20
-2059.829101563
 30
0.0
 11
-42.084381104
 21
-2055.475585938
 31
0.0
  0
LINE
  5
5ED
100
AcDbEntity
  8
CATALO
  6
SOLID
 62
        7
100
AcDbLine
 10
-41.903717041
 20
-2055.588378906
 30
0.0
 11
-39.457550049
 21
-2059.825195313
 31
0.0
  0
LINE
  5
5EE
100
AcDbEntity
  8
CATALO
  6
SOLID
 62
        7
100
AcDbLine
 10
-39.344390869
 20
-2059.821289063
 30
0.0
 11
-41.723052979
 21
-2055.701171875
 31
0.0
  0
LINE
  5
5EF
100
AcDbEntity
  8
CATALO
  6
SOLID
 62
        7
100
AcDbLine
 10
-41.542449951
 20
-2055.814208984
 30
0.0
 11
-39.231231689
 21
-2059.817382813
 31
0.0
  0
LINE
  5
5F0
100
AcDbEntity
  8
CATALO
  6
SOLID
 62
        7
100
AcDbLine
 10
-39.118133545
 20
-2059.813476563
 30
0.0
 11
-41.361846924
 21
-2055.927246094
 31
0.0
  0
LINE
  5
5F1
100
AcDbEntity
  8
CATALO
  6
SOLID
 62
        7
100
AcDbLine
 10
-41.181182861
 20
-2056.040039063
 30
0.0
 11
-39.004974365
 21
-2059.809326172
 31
0.0
  0
LINE
  5
5F2
100
AcDbEntity
  8
CATALO
  6
SOLID
 62
        7
100
AcDbLine
 10
-38.891815186
 20
-2059.805175781
 30
0.0
 11
-41.000579834
 21
-2056.153076172
 31
0.0
  0
LINE
  5
5F3
100
AcDbEntity
  8
CATALO
  6
SOLID
 62
        7
100
AcDbLine
 10
-40.819915771
 20
-2056.265869141
 30
0.0
 11
-38.778656006
 21
-2059.801513672
 31
0.0
  0
LINE
  5
5F4
100
AcDbEntity
  8
CATALO
  6
SOLID
 62
        7
100
AcDbLine
 10
-38.665496826
 20
-2059.797363281
 30
0.0
 11
-40.639251709
 21
-2056.37890625
 31
0.0
  0
LINE
  5
5F5
100
AcDbEntity
  8
CATALO
  6
SOLID
 62
        7
100
AcDbLine
 10
-40.458648682
 20
-2056.491943359
 30
0.0
 11
-38.552398682
 21
-2059.793701172
 31
0.0
  0
LINE
  5
5F6
100
AcDbEntity
  8
CATALO
  6
SOLID
 62
        7
100
AcDbLine
 10
-38.439178467
 20
-2059.789550781
 30
0.0
 11
-40.277984619
 21
-2056.604492188
 31
0.0
  0
LINE
  5
5F7
100
AcDbEntity
  8
CATALO
  6
SOLID
 62
        7
100
AcDbLine
 10
-40.097442627
 20
-2056.717529297
 30
0.0
 11
-38.326019287
 21
-2059.785400391
 31
0.0
  0
LINE
  5
5F8
100
AcDbEntity
  8
CATALO
  6
SOLID
 62
        7
100
AcDbLine
 10
-38.212921143
 20
-2059.781494141
 30
0.0
 11
-39.916717529
 21
-2056.830322266
 31
0.0
  0
LINE
  5
5F9
100
AcDbEntity
  8
CATALO
  6
SOLID
 62
        7
100
AcDbLine
 10
-39.736175537
 20
-2056.943359375
 30
0.0
 11
-38.099822998
 21
-2059.777587891
 31
0.0
  0
LINE
  5
5FA
100
AcDbEntity
  8
CATALO
  6
SOLID
 62
        7
100
AcDbLine
 10
-37.986663818
 20
-2059.773925781
 30
0.0
 11
-39.55557251
 21
-2057.056396484
 31
0.0
  0
LINE
  5
5FB
100
AcDbEntity
  8
CATALO
  6
SOLID
 62
        7
100
AcDbLine
 10
-39.374847412
 20
-2057.168945313
 30
0.0
 11
-37.873504639
 21
-2059.769775391
 31
0.0
  0
LINE
  5
5FC
100
AcDbEntity
  8
CATALO
  6
SOLID
 62
        7
100
AcDbLine
 10
-37.760345459
 20
-2059.765625
 30
0.0
 11
-39.194244385
 21
-2057.282226563
 31
0.0
  0
LINE
  5
5FD
100
AcDbEntity
  8
CATALO
  6
SOLID
 62
        7
100
AcDbLine
 10
-39.013580322
 20
-2057.395019531
 30
0.0
 11
-37.647125244
 21
-2059.76171875
 31
0.0
  0
LINE
  5
5FE
100
AcDbEntity
  8
CATALO
  6
SOLID
 62
        7
100
AcDbLine
 10
-37.533966064
 20
-2059.757568359
 30
0.0
 11
-38.83291626
 21
-2057.5078125
 31
0.0
  0
LINE
  5
5FF
100
AcDbEntity
  8
CATALO
  6
SOLID
 62
        7
100
AcDbLine
 10
-38.652374268
 20
-2057.620849609
 30
0.0
 11
-37.42086792
 21
-2059.75390625
 31
0.0
  0
LINE
  5
600
100
AcDbEntity
  8
CATALO
  6
SOLID
 62
        7
100
AcDbLine
 10
-37.30770874
 20
-2059.75
 30
0.0
 11
-38.471710205
 21
-2057.733886719
 31
0.0
  0
LINE
  5
601
100
AcDbEntity
  8
CATALO
  6
SOLID
 62
        7
100
AcDbLine
 10
-38.291046143
 20
-2057.846679688
 30
0.0
 11
-37.194549561
 21
-2059.745849609
 31
0.0
  0
LINE
  5
602
100
AcDbEntity
  8
CATALO
  6
SOLID
 62
        7
100
AcDbLine
 10
-37.081451416
 20
-2059.741943359
 30
0.0
 11
-38.11050415
 21
-2057.959472656
 31
0.0
  0
LINE
  5
603
100
AcDbEntity
  8
CATALO
  6
SOLID
 62
        7
100
AcDbLine
 10
-37.929840088
 20
-2058.072265625
 30
0.0
 11
-36.968292236
 21
-2059.737792969
 31
0.0
  0
LINE
  5
604
100
AcDbEntity
  8
CATALO
  6
SOLID
 62
        7
100
AcDbLine
 10
-36.855133057
 20
-2059.734130859
 30
0.0
 11
-37.749237061
 21
-2058.185546875
 31
0.0
  0
LINE
  5
605
100
AcDbEntity
  8
CATALO
  6
SOLID
 62
        7
100
AcDbLine
 10
-37.568572998
 20
-2058.298339844
 30
0.0
 11
-36.741973877
 21
-2059.729980469
 31
0.0
  0
LINE
  5
606
100
AcDbEntity
  8
CATALO
  6
SOLID
 62
        7
100
AcDbLine
 10
-36.628875732
 20
-2059.726074219
 30
0.0
 11
-37.387908936
 21
-2058.411132813
 31
0.0
  0
LINE
  5
607
100
AcDbEntity
  8
CATALO
  6
SOLID
 62
        7
100
AcDbLine
 10
-37.207366943
 20
-2058.524169922
 30
0.0
 11
-36.515655518
 21
-2059.722167969
 31
0.0
  0
LINE
  5
608
100
AcDbEntity
  8
CATALO
  6
SOLID
 62
        7
100
AcDbLine
 10
-36.402496338
 20
-2059.718017578
 30
0.0
 11
-37.026641846
 21
-2058.636962891
 31
0.0
  0
LINE
  5
609
100
AcDbEntity
  8
CATALO
  6
SOLID
 62
        7
100
AcDbLine
 10
-36.846038818
 20
-2058.75
 30
0.0
 11
-36.289337158
 21
-2059.714111328
 31
0.0
  0
LINE
  5
60A
100
AcDbEntity
  8
CATALO
  6
SOLID
 62
        7
100
AcDbLine
 10
-36.176177979
 20
-2059.710205078
 30
0.0
 11
-36.665374756
 21
-2058.862792969
 31
0.0
  0
LINE
  5
60B
100
AcDbEntity
  8
CATALO
  6
SOLID
 62
        7
100
AcDbLine
 10
-36.484710693
 20
-2058.975585938
 30
0.0
 11
-36.063079834
 21
-2059.706054688
 31
0.0
  0
LINE
  5
60C
100
AcDbEntity
  8
CATALO
  6
SOLID
 62
        7
100
AcDbLine
 10
-35.949981689
 20
-2059.702392578
 30
0.0
 11
-36.304107666
 21
-2059.088867188
 31
0.0
  0
LINE
  5
60D
100
AcDbEntity
  8
CATALO
  6
SOLID
 62
        7
100
AcDbLine
 10
-36.123504639
 20
-2059.201660156
 30
0.0
 11
-35.83682251
 21
-2059.698242188
 31
0.0
  0
LINE
  5
60E
100
AcDbEntity
  8
CATALO
  6
SOLID
 62
        7
100
AcDbLine
 10
-35.723602295
 20
-2059.694335938
 30
0.0
 11
-35.942901611
 21
-2059.314453125
 31
0.0
  0
LINE
  5
60F
100
AcDbEntity
  8
CATALO
  6
SOLID
 62
        7
100
AcDbLine
 10
-35.762237549
 20
-2059.427246094
 30
0.0
 11
-35.610443115
 21
-2059.690185547
 31
0.0
  0
LINE
  5
610
100
AcDbEntity
  8
CATALO
  6
SOLID
 62
        7
100
AcDbLine
 10
-35.497283936
 20
-2059.686035156
 30
0.0
 11
-35.581573486
 21
-2059.540283203
 31
0.0
  0
LINE
  5
611
100
AcDbEntity
  8
CATALO
  6
SOLID
 62
        7
100
AcDbLine
 10
-35.401031494
 20
-2059.653320313
 30
0.0
 11
-35.384185791
 21
-2059.682617188
 31
0.0
  0
ENDBLK
  5
612
100
AcDbEntity
  8
0
100
AcDbBlockEnd
  0
BLOCK
  5
627
100
AcDbEntity
  8
0
100
AcDbBlockBegin
  2
*H40
 70
        0
 10
0.0
 20
0.0
 30
0.0
  3
*H40
  1

  0
LINE
  5
628
100
AcDbEntity
  8
CATALO
  6
SOLID
 62
        7
100
AcDbLine
 10
-100.113006592
 20
-1914.807617188
 30
0.0
 11
-93.931671143
 21
-1911.238891602
 31
0.0
  0
LINE
  5
629
100
AcDbEntity
  8
CATALO
  6
SOLID
 62
        7
100
AcDbLine
 10
-91.73550415
 20
-1903.042724609
 30
0.0
 11
-108.309173584
 21
-1912.611450195
 31
0.0
  0
LINE
  5
62A
100
AcDbEntity
  8
CATALO
  6
SOLID
 62
        7
100
AcDbLine
 10
-118.954742432
 20
-1911.829467773
 30
0.0
 11
-118.933197021
 21
-1911.817016602
 31
0.0
  0
LINE
  5
62B
100
AcDbEntity
  8
CATALO
  6
SOLID
 62
        7
100
AcDbLine
 10
-116.505279541
 20
-1910.415405273
 30
0.0
 11
-89.539398193
 21
-1894.846557617
 31
0.0
  0
LINE
  5
62C
100
AcDbEntity
  8
CATALO
  6
SOLID
 62
        7
100
AcDbLine
 10
-87.343231201
 20
-1886.650390625
 30
0.0
 11
-127.150909424
 21
-1909.633300781
 31
0.0
  0
LINE
  5
62D
100
AcDbEntity
  8
CATALO
  6
SOLID
 62
        7
100
AcDbLine
 10
-134.859771729
 20
-1907.155883789
 30
0.0
 11
-85.147064209
 21
-1878.454223633
 31
0.0
  0
LINE
  5
62E
100
AcDbEntity
  8
CATALO
  6
SOLID
 62
        7
100
AcDbLine
 10
-85.980316162
 20
-1872.007080078
 30
0.0
 11
-121.886016846
 21
-1892.737304688
 31
0.0
  0
LINE
  5
62F
100
AcDbEntity
  8
CATALO
  6
SOLID
 62
        7
100
AcDbLine
 10
-129.932037354
 20
-1897.38269043
 30
0.0
 11
-134.859710693
 21
-1900.227661133
 31
0.0
  0
LINE
  5
630
100
AcDbEntity
  8
CATALO
  6
SOLID
 62
        7
100
AcDbLine
 10
-121.837127686
 20
-1885.780761719
 30
0.0
 11
-94.176422119
 21
-1869.810913086
 31
0.0
  0
LINE
  5
631
100
AcDbEntity
  8
CATALO
  6
SOLID
 62
        7
100
AcDbLine
 10
-102.372589111
 20
-1867.614746094
 30
0.0
 11
-121.83480835
 21
-1878.851318359
 31
0.0
  0
LINE
  5
632
100
AcDbEntity
  8
CATALO
  6
SOLID
 62
        7
100
AcDbLine
 10
-121.832489014
 20
-1871.92175293
 30
0.0
 11
-110.001068115
 21
-1865.090820313
 31
0.0
  0
LINE
  5
633
100
AcDbEntity
  8
CATALO
  6
SOLID
 62
        7
100
AcDbLine
 10
-113.966033936
 20
-1860.451904297
 30
0.0
 11
-121.830230713
 21
-1864.9921875
 31
0.0
  0
LINE
  5
634
100
AcDbEntity
  8
CATALO
  6
SOLID
 62
        7
100
AcDbLine
 10
-121.827911377
 20
-1858.062744141
 30
0.0
 11
-114.839202881
 21
-1854.027709961
 31
0.0
  0
LINE
  5
635
100
AcDbEntity
  8
CATALO
  6
SOLID
 62
        7
100
AcDbLine
 10
-114.839202881
 20
-1847.099487305
 30
0.0
 11
-121.825531006
 21
-1851.133178711
 31
0.0
  0
LINE
  5
636
100
AcDbEntity
  8
CATALO
  6
SOLID
 62
        7
100
AcDbLine
 10
-121.823272705
 20
-1844.203613281
 30
0.0
 11
-114.839202881
 21
-1840.171386719
 31
0.0
  0
LINE
  5
637
100
AcDbEntity
  8
CATALO
  6
SOLID
 62
        7
100
AcDbLine
 10
-114.838470459
 20
-1833.242797852
 30
0.0
 11
-121.821014404
 21
-1837.274169922
 31
0.0
  0
LINE
  5
638
100
AcDbEntity
  8
CATALO
  6
SOLID
 62
        7
100
AcDbLine
 10
-121.818634033
 20
-1830.344482422
 30
0.0
 11
-114.837005615
 21
-1826.313720703
 31
0.0
  0
LINE
  5
639
100
AcDbEntity
  8
CATALO
  6
SOLID
 62
        7
100
AcDbLine
 10
-114.835479736
 20
-1819.384643555
 30
0.0
 11
-121.816314697
 21
-1823.415039063
 31
0.0
  0
LINE
  5
63A
100
AcDbEntity
  8
CATALO
  6
SOLID
 62
        7
100
AcDbLine
 10
-121.814117432
 20
-1816.485473633
 30
0.0
 11
-114.834075928
 21
-1812.455688477
 31
0.0
  0
LINE
  5
63B
100
AcDbEntity
  8
CATALO
  6
SOLID
 62
        7
100
AcDbLine
 10
-114.832611084
 20
-1805.526611328
 30
0.0
 11
-121.811737061
 21
-1809.555908203
 31
0.0
  0
LINE
  5
63C
100
AcDbEntity
  8
CATALO
  6
SOLID
 62
        7
100
AcDbLine
 10
-121.809417725
 20
-1802.626464844
 30
0.0
 11
-114.83114624
 21
-1798.59753418
 31
0.0
  0
LINE
  5
63D
100
AcDbEntity
  8
CATALO
  6
SOLID
 62
        7
100
AcDbLine
 10
-114.829620361
 20
-1791.668457031
 30
0.0
 11
-121.807098389
 21
-1795.696777344
 31
0.0
  0
LINE
  5
63E
100
AcDbEntity
  8
CATALO
  6
SOLID
 62
        7
100
AcDbLine
 10
-121.804840088
 20
-1788.767333984
 30
0.0
 11
-114.828216553
 21
-1784.739501953
 31
0.0
  0
LINE
  5
63F
100
AcDbEntity
  8
CATALO
  6
SOLID
 62
        7
100
AcDbLine
 10
-114.826751709
 20
-1777.810424805
 30
0.0
 11
-121.802520752
 21
-1781.837890625
 31
0.0
  0
LINE
  5
640
100
AcDbEntity
  8
CATALO
  6
SOLID
 62
        7
100
AcDbLine
 10
-121.800140381
 20
-1774.908203125
 30
0.0
 11
-114.82522583
 21
-1770.881347656
 31
0.0
  0
LINE
  5
641
100
AcDbEntity
  8
CATALO
  6
SOLID
 62
        7
100
AcDbLine
 10
-114.823760986
 20
-1763.952270508
 30
0.0
 11
-121.797943115
 21
-1767.978881836
 31
0.0
  0
LINE
  5
642
100
AcDbEntity
  8
CATALO
  6
SOLID
 62
        7
100
AcDbLine
 10
-121.795623779
 20
-1761.049194336
 30
0.0
 11
-114.822357178
 21
-1757.02331543
 31
0.0
  0
LINE
  5
643
100
AcDbEntity
  8
CATALO
  6
SOLID
 62
        7
100
AcDbLine
 10
-114.820892334
 20
-1750.094238281
 30
0.0
 11
-121.793243408
 21
-1754.119628906
 31
0.0
  0
LINE
  5
644
100
AcDbEntity
  8
CATALO
  6
SOLID
 62
        7
100
AcDbLine
 10
-121.790924072
 20
-1747.190185547
 30
0.0
 11
-114.819366455
 21
-1743.165161133
 31
0.0
  0
LINE
  5
645
100
AcDbEntity
  8
CATALO
  6
SOLID
 62
        7
100
AcDbLine
 10
-114.818023682
 20
-1736.236083984
 30
0.0
 11
-121.788726807
 21
-1740.260620117
 31
0.0
  0
LINE
  5
646
100
AcDbEntity
  8
CATALO
  6
SOLID
 62
        7
100
AcDbLine
 10
-121.786407471
 20
-1733.331176758
 30
0.0
 11
-114.816497803
 21
-1729.307006836
 31
0.0
  0
LINE
  5
647
100
AcDbEntity
  8
CATALO
  6
SOLID
 62
        7
100
AcDbLine
 10
-122.095916748
 20
-1726.581665039
 30
0.0
 11
-124.493011475
 21
-1727.965576172
 31
0.0
  0
ENDBLK
  5
648
100
AcDbEntity
  8
0
100
AcDbBlockEnd
  0
ENDSEC
  0
SECTION
  2
ENTITIES
  0
INSERT
  5
64F
100
AcDbEntity
  8
CATALO
100
AcDbBlockReference
  2
0
 10
0.0
 20
0.0
 30
0.0
  0
ENDSEC
  0
SECTION
  2
OBJECTS
  0
DICTIONARY
  5
19
100
AcDbDictionary
280
        0
281
        1
  3
ACAD_GROUP
350
1A
  3
ACAD_MLINESTYLE
350
1B
  3
ACAD_LAYOUT
350
1E
  3
ACAD_PLOTSETTINGS
350
22
  3
ACAD_PLOTSTYLENAME
350
1F
  0
DICTIONARY
  5
1A
102
{ACAD_REACTORS
330
19
102
}
100
AcDbDictionary
280
        0
281
        1
  0
DICTIONARY
  5
1B
102
{ACAD_REACTORS
330
19
102
}
100
AcDbDictionary
280
        0
281
        1
  3
Standard
350
1C
  0
MLINESTYLE
  5
1C
102
{ACAD_REACTORS
330
1B
102
}
100
AcDbMlineStyle
  2
Standard
 70
        0
  3

 62
        0
 51
90.0
 52
90.0
 71
        2
 49
0.5
 62
      256
  6
BYLAYER
 49
-0.5
 62
      256
  6
BYLAYER
  0
ACDBDICTIONARYWDFLT
  5
1F
102
{ACAD_REACTORS
330
19
102
}
100
AcDbDictionary
281
        1
  3
Normal
350
1D
100
AcDbDictionaryWithDefault
340
1D
  0
ACDBPLACEHOLDER
  5
1D
102
{ACAD_REACTORS
330
1F
102
}
  0
LAYOUT
  5
20
102
{ACAD_REACTORS
330
1E
102
}
100
AcDbPlotSettings
  1

  2

  4

  6

 40
0.0
 41
0.0
 42
0.0
 43
0.0
 44
0.0
 45
0.0
 46
0.0
 47
0.0
 48
0.0
 49
0.0
140
0.0
141
0.0
142
1.0
143
1.0
 70
     1024
 72
        0
 73
        0
 74
        0
  7

 75
        0
147
1.0
148
0.0
149
0.0
100
AcDbLayout
  1
Model
 70
        0
 71
        0
 10
0.0
 20
0.0
 11
0.0
 21
0.0
 12
0.0
 22
0.0
 32
0.0
 14
0.0
 24
0.0
 34
0.0
 15
0.0
 25
0.0
 35
0.0
146
0.0
 13
0.0
 23
0.0
 33
0.0
 16
0.0
 26
0.0
 36
0.0
 17
0.0
 27
0.0
 37
0.0
 76
        0
330
A
331
0
345
0
346
0
  0
LAYOUT
  5
21
102
{ACAD_REACTORS
330
1E
102
}
100
AcDbPlotSettings
  1

  2

  4

  6

 40
0.0
 41
0.0
 42
0.0
 43
0.0
 44
0.0
 45
0.0
 46
0.0
 47
0.0
 48
0.0
 49
0.0
140
0.0
141
0.0
142
1.0
143
1.0
 70
        0
 72
        0
 73
        0
 74
        0
  7

 75
        0
147
1.0
148
0.0
149
0.0
100
AcDbLayout
  1
Layout1
 70
        0
 71
        0
 10
0.0
 20
0.0
 11
0.0
 21
0.0
 12
0.0
 22
0.0
 32
0.0
 14
0.0
 24
0.0
 34
0.0
 15
0.0
 25
0.0
 35
0.0
146
0.0
 13
0.0
 23
0.0
 33
0.0
 16
0.0
 26
0.0
 36
0.0
 17
0.0
 27
0.0
 37
0.0
 76
        0
330
B
331
0
345
0
346
0
  0
DICTIONARY
  5
1E
102
{ACAD_REACTORS
330
19
102
}
100
AcDbDictionary
280
        0
281
        1
  3
Layout1
350
21
  3
Model
350
20
  0
DICTIONARY
  5
22
102
{ACAD_REACTORS
330
19
102
}
100
AcDbDictionary
280
        0
281
        1
  0
ENDSEC
  0
EOF
